  0
SECTION
  2
HEADER
  9
$ACADVER
  1
AC1006
  9
$INSBASE
 10
0.000000
 20
0.000000
 30
0.0
  9
$EXTMIN
 10
0.000000
 20
0.000000
  9
$EXTMAX
 10
210.000000
 20
297.000000
  9
$LIMMIN
 10
0.000000
 20
0.000000
  9
$LIMMAX
 10
210.000000
 20
297.000000
  9
$VIEWCTR
 10
105.000000
 20
148.500000
  9
$VIEWSIZE
 40
297.000000
  9
$SNAPMODE
 70
     0
  9
$SNAPUNIT
 10
1.0
 20
1.0
  9
$SNAPBASE
 10
0.0
 20
0.0
  9
$SNAPANG
 50
0.0
  9
$SNAPSTYLE
 70
     0
  9
$SNAPISOPAIR
 70
     0
  9
$GRIDMODE
 70
     0
  9
$GRIDUNIT
 10
0.0
 20
0.0
  9
$ORTHOMODE
 70
     0
  9
$REGENMODE
 70
     1
  9
$FILLMODE
 70
     1
  9
$QTEXTMODE
 70
     0
  9
$DRAGMODE
 70
     2
  9
$LTSCALE
 40
15.000000
  9
$OSMODE
 70
     0
  9
$ATTMODE
 70
     1
  9
$TEXTSIZE
 40
0.2
  9
$TRACEWID
 40
0.05
  9
$TEXTSTYLE
  7
STANDARD
  9
$CLAYER
  8
CSLAYER1
  9
$CELTYPE
  6
BYLAYER
  9
$CECOLOR
 62
   256
  9
$DIMSCALE
 40
1.0
  9
$DIMASZ
 40
0.18
  9
$DIMEXO
 40
0.0625
  9
$DIMDLI
 40
0.38
  9
$DIMRND
 40
0.0
  9
$DIMDLE
 40
0.0
  9
$DIMEXE
 40
0.18
  9
$DIMTP
 40
0.0
  9
$DIMTM
 40
0.0
  9
$DIMTXT
 40
0.18
  9
$DIMCEN
 40
0.09
  9
$DIMTSZ
 40
0.0
  9
$DIMTOL
 70
     0
  9
$DIMLIM
 70
     0
  9
$DIMTIH
 70
     1
  9
$DIMTOH
 70
     1
  9
$DIMSE1
 70
     0
  9
$DIMSE2
 70
     0
  9
$DIMTAD
 70
     0
  9
$DIMZIN
 70
     0
  9
$DIMBLK
  1

  9
$LUNITS
 70
     2
  9
$LUPREC
 70
     4
  9
$AXISMODE
 70
     0
  9
$AXISUNIT
 10
0.0
 20
0.0
  9
$SKETCHINC
 40
0.1
  9
$FILLETRAD
 40
0.0
  9
$AUNITS
 70
     0
  9
$AUPREC
 70
     0
  9
$MENU
  1
ACAD
  9
$ELEVATION
 40
0.0
  9
$THICKNESS
 40
0.0
  9
$VIEWDIR
 10
0.0
 20
0.0
 30
1.0
  9
$LIMCHECK
 70
     0
  9
$BLIPMODE
 70
     1
  9
$CHAMFERA
 40
0.0
  9
$CHAMFERB
 40
0.0
  9
$FASTZOOM
 70
     1
  9
$SKPOLY
 70
     0
  9
$TDCREATE
 40
2454217.000000
  9
$TDUPDATE
 40
2454223.000000
  9
$TDINDWG
 40
0.0
  9
$TDUSRTIMER
 40
0.0
  9
$USRTIMER
 70
     1
  9
$ANGBASE
 50
0.0
  9
$ANGDIR
 70
     0
  9
$PDMODE
 70
     0
  9
$PDSIZE
 40
0.0
  9
$PLINEWID
 40
0.0
  9
$COORDS
 70
     0
  9
$USERI1
 70
     0
  9
$USERI2
 70
     0
  9
$USERI3
 70
     0
  9
$USERI4
 70
     0
  9
$USERI5
 70
     0
  9
$USERR1
 40
0.0
  9
$USERR2
 40
0.0
  9
$USERR3
 40
0.0
  9
$USERR4
 40
0.0
  9
$USERR5
 40
0.0
  0
ENDSEC
  0
SECTION
  2
TABLES
  0
TABLE
  2
LTYPE
 70
     9
  0
LTYPE
  2
CONTINUOUS
 70
    64
  3
Solid line
 72
    65
 73
     0
 40
0.0
  0
LTYPE
  2
DASHED
 70
    64
  3
__ __ __ __ __ __ __ __ __ __ __ __ __ __ __
 72
    65
 73
     2
 40
0.75
 49
0.5
 49
-0.25
  0
LTYPE
  2
HIDDEN
 70
    64
  3
_ _ _ _ _ _ _ _ _ _ _ _ _ _ _ _ _ _ _ _ _ _ _
 72
    65
 73
     2
 40
0.375
 49
0.25
 49
-0.125
  0
LTYPE
  2
DOT
 70
    64
  3
...............................................
 72
    65
 73
     2
 40
0.25
 49
0.0
 49
-0.25
  0
LTYPE
  2
DASHDOT
 70
    64
  3
__ . __ . __ . __ . __ . __ . __ . __ . __ . __
 72
    65
 73
     4
 40
1.0
 49
0.5
 49
-0.25
 49
0.0
 49
-0.25
  0
LTYPE
  2
DIVIDE
 70
    64
  3
__ . . __ . . __ . . __ . . __ . . __ . . __
 72
    65
 73
     6
 40
1.25
 49
0.5
 49
-0.25
 49
0.0
 49
-0.25
 49
0.0
 49
-0.25
  0
LTYPE
  2
CENTER
 70
    64
  3
____ _ ____ _ ____ _ ____ _ ____ _ ____ _ ____ 
 72
    65
 73
     4
 40
2.0
 49
1.25
 49
-0.25
 49
0.25
 49
-0.25
  0
LTYPE
  2
PHANTOM
 70
    64
  3
______  __  __  ______  __  __  ______  __  __ 
 72
    65
 73
     6
 40
2.5
 49
1.25
 49
-0.25
 49
0.25
 49
-0.25
 49
0.25
 49
-0.25
  0
LTYPE
  2
BORDER
 70
    64
  3
__ __ . __ __ . __ __ . __ __ . __ __ . __ __ .
 72
    65
 73
     6
 40
1.75
 49
0.5
 49
-0.25
 49
0.5
 49
-0.25
 49
0.0
 49
-0.25
  0
ENDTAB
  0
TABLE
  2
LAYER
 70
    16
  0
LAYER
  2
CSLAYER1
 70
    64
 62
     7
  6
CONTINUOUS
  0
LAYER
  2
CSLAYER2
 70
    64
 62
     7
  6
CONTINUOUS
  0
LAYER
  2
CSLAYER3
 70
    64
 62
     7
  6
CONTINUOUS
  0
LAYER
  2
CSLAYER4
 70
    64
 62
     7
  6
CONTINUOUS
  0
LAYER
  2
CSLAYER5
 70
    64
 62
     7
  6
CONTINUOUS
  0
LAYER
  2
CSLAYER6
 70
    64
 62
     7
  6
CONTINUOUS
  0
LAYER
  2
CSLAYER7
 70
    64
 62
     7
  6
CONTINUOUS
  0
LAYER
  2
CSLAYER8
 70
    64
 62
     7
  6
CONTINUOUS
  0
LAYER
  2
CSLAYER9
 70
    64
 62
     7
  6
CONTINUOUS
  0
LAYER
  2
CSLAYER10
 70
    64
 62
     7
  6
CONTINUOUS
  0
LAYER
  2
CSLAYER11
 70
    64
 62
     7
  6
CONTINUOUS
  0
LAYER
  2
CSLAYER12
 70
    64
 62
     7
  6
CONTINUOUS
  0
LAYER
  2
CSLAYER13
 70
    64
 62
     7
  6
CONTINUOUS
  0
LAYER
  2
CSLAYER14
 70
    64
 62
     7
  6
CONTINUOUS
  0
LAYER
  2
CSLAYER15
 70
    64
 62
     7
  6
CONTINUOUS
  0
LAYER
  2
CSLAYER16
 70
    64
 62
     7
  6
CONTINUOUS
  0
ENDTAB
  0
TABLE
  2
STYLE
 70
     1
  0
STYLE
  2
FX_FONT
 70
     0
 40
1.0
 41
1.0
 50
0.0
 71
     0
 42
1.0
  3
monotxt
  4
bigfont
  0
ENDTAB
  0
TABLE
  2
VIEW
 70
     0
  0
ENDTAB
  0
ENDSEC
  0
SECTION
  2
BLOCKS
  0
ENDSEC
  0
SECTION
  2
ENTITIES
  0
LINE
  8
CSLAYER1
  6
CENTER
 62
     3
 10
52.476049
 20
161.577873
 11
30.381236
 21
161.577873
  0
LINE
  8
CSLAYER1
  6
CENTER
 62
     3
 10
52.476049
 20
220.577873
 11
30.381236
 21
220.577873
  0
TEXT
  8
CSLAYER1
 62
     3
 10
144.089539
 20
35.476463
 40
4.000000
 41
1.034483
  1
SFV-1000LD
 50
0.000000
 51
10.000000
  7
FX_FONT
 72
     5
 11
184.089539
 21
35.476463
  0
TEXT
  8
CSLAYER1
 62
     4
 10
144.089539
 20
29.476463
 40
3.500000
 41
1.071429
  1
尺度1：1
 50
0.000000
 51
10.000000
  7
FX_FONT
 72
     5
 11
161.589539
 21
29.476463
  0
TEXT
  8
CSLAYER1
 62
     3
 10
144.089539
 20
41.476463
 40
4.000000
 41
1.038462
  1
Ｆ/Ｖ　コンバータ
 50
0.000000
 51
10.000000
  7
FX_FONT
 72
     5
 11
180.089539
 21
41.476463
  0
LINE
  8
CSLAYER1
  6
CONTINUOUS
 62
     6
 10
81.381236
 20
228.577873
 11
165.381236
 21
228.577873
  0
LINE
  8
CSLAYER1
  6
CONTINUOUS
 62
     6
 10
78.381236
 20
153.577873
 11
168.381236
 21
153.577873
  0
LINE
  8
CSLAYER1
  6
CONTINUOUS
 62
     6
 10
168.381236
 20
225.577873
 11
168.381236
 21
153.577873
  0
LINE
  8
CSLAYER1
  6
CONTINUOUS
 62
     6
 10
78.381236
 20
155.577873
 11
168.381236
 21
155.577873
  0
LINE
  8
CSLAYER1
  6
CONTINUOUS
 62
     6
 10
78.381236
 20
225.577873
 11
78.381236
 21
153.577873
  0
LINE
  8
CSLAYER1
  6
CENTER
 62
     3
 10
83.381236
 20
227.177873
 11
83.381236
 21
219.977873
  0
CIRCLE
  8
CSLAYER1
  6
CONTINUOUS
 62
     6
 10
163.381236
 20
223.577873
 40
1.600000
  0
CIRCLE
  8
CSLAYER1
  6
CONTINUOUS
 62
     6
 10
163.381236
 20
163.577873
 40
1.600000
  0
CIRCLE
  8
CSLAYER1
  6
CONTINUOUS
 62
     6
 10
83.381236
 20
163.577873
 40
1.600000
  0
CIRCLE
  8
CSLAYER1
  6
CONTINUOUS
 62
     6
 10
83.381236
 20
223.577873
 40
1.600000
  0
LINE
  8
CSLAYER1
  6
CENTER
 62
     3
 10
79.781236
 20
223.577873
 11
86.981236
 21
223.577873
  0
ARC
  8
CSLAYER1
  6
CONTINUOUS
 62
     6
 10
81.381236
 20
225.577873
 40
3.000000
 50
90.000000
 51
180.000000
  0
ARC
  8
CSLAYER1
  6
CONTINUOUS
 62
     6
 10
165.381236
 20
225.577873
 40
3.000000
 50
0.000000
 51
90.000000
  0
LINE
  8
CSLAYER1
  6
CONTINUOUS
 62
     6
 10
63.381236
 20
153.577873
 11
36.381236
 21
153.577873
  0
LINE
  8
CSLAYER1
  6
CONTINUOUS
 62
     6
 10
33.381236
 20
156.577873
 11
33.381236
 21
228.577873
  0
LINE
  8
CSLAYER1
  6
CONTINUOUS
 62
     6
 10
35.381236
 20
156.577873
 11
35.381236
 21
228.577873
  0
LINE
  8
CSLAYER1
  6
CONTINUOUS
 62
     6
 10
63.381236
 20
155.577873
 11
36.381236
 21
155.577873
  0
ARC
  8
CSLAYER1
  6
CONTINUOUS
 62
     6
 10
36.381236
 20
156.577873
 40
3.000000
 50
180.000000
 51
270.000000
  0
ARC
  8
CSLAYER1
  6
CONTINUOUS
 62
     6
 10
36.381236
 20
156.577873
 40
1.000000
 50
180.000000
 51
270.000000
  0
LINE
  8
CSLAYER1
  6
CONTINUOUS
 62
     6
 10
33.381236
 20
228.577873
 11
35.381236
 21
228.577873
  0
LINE
  8
CSLAYER1
  6
CONTINUOUS
 62
     6
 10
63.381236
 20
155.577873
 11
63.381236
 21
153.577873
  0
LINE
  8
CSLAYER1
  6
CENTER
 62
     3
 10
43.381236
 20
150.577873
 11
43.381236
 21
158.577873
  0
LINE
  8
CSLAYER1
  6
CENTER
 62
     3
 10
58.381236
 20
150.577873
 11
58.381236
 21
158.577873
  0
LINE
  8
CSLAYER1
  6
CONTINUOUS
 62
     6
 10
45.381236
 20
164.577873
 11
35.381236
 21
164.577873
  0
LINE
  8
CSLAYER1
  6
CONTINUOUS
 62
     6
 10
45.381236
 20
158.577873
 11
35.381236
 21
158.577873
  0
LINE
  8
CSLAYER1
  6
CONTINUOUS
 62
     6
 10
45.381236
 20
223.577873
 11
35.381236
 21
223.577873
  0
LINE
  8
CSLAYER1
  6
CONTINUOUS
 62
     6
 10
45.381236
 20
217.577873
 11
35.381236
 21
217.577873
  0
LINE
  8
CSLAYER1
  6
CONTINUOUS
 62
     6
 10
168.381236
 20
125.577873
 11
168.381236
 21
98.577873
  0
LINE
  8
CSLAYER1
  6
CONTINUOUS
 62
     6
 10
78.381236
 20
125.577873
 11
78.381236
 21
98.577873
  0
LINE
  8
CSLAYER1
  6
CONTINUOUS
 62
     6
 10
81.381236
 20
128.577873
 11
165.381236
 21
128.577873
  0
LINE
  8
CSLAYER1
  6
CONTINUOUS
 62
     6
 10
78.381236
 20
98.577873
 11
168.381236
 21
98.577873
  0
ARC
  8
CSLAYER1
  6
CONTINUOUS
 62
     6
 10
165.381236
 20
125.577873
 40
3.000000
 50
0.000000
 51
90.000000
  0
ARC
  8
CSLAYER1
  6
CONTINUOUS
 62
     6
 10
81.381236
 20
125.577873
 40
3.000000
 50
90.000000
 51
180.000000
  0
CIRCLE
  8
CSLAYER1
  6
CONTINUOUS
 62
     6
 10
163.381236
 20
123.577873
 40
1.600000
  0
CIRCLE
  8
CSLAYER1
  6
CONTINUOUS
 62
     6
 10
163.381236
 20
108.577873
 40
1.600000
  0
CIRCLE
  8
CSLAYER1
  6
CONTINUOUS
 62
     6
 10
83.381236
 20
108.577873
 40
1.600000
  0
CIRCLE
  8
CSLAYER1
  6
CONTINUOUS
 62
     6
 10
83.381236
 20
123.577873
 40
1.600000
  0
LINE
  8
CSLAYER1
  6
CENTER
 62
     3
 10
83.381236
 20
127.177873
 11
83.381236
 21
119.977873
  0
LINE
  8
CSLAYER1
  6
CENTER
 62
     3
 10
79.781236
 20
123.577873
 11
86.981236
 21
123.577873
  0
LINE
  8
CSLAYER1
  6
CONTINUOUS
 62
     6
 10
85.381236
 20
223.577873
 11
161.381236
 21
223.577873
  0
LINE
  8
CSLAYER1
  6
CONTINUOUS
 62
     6
 10
161.381236
 20
223.577873
 11
161.381236
 21
158.577873
  0
LINE
  8
CSLAYER1
  6
CONTINUOUS
 62
     6
 10
85.381236
 20
223.577873
 11
85.381236
 21
158.577873
  0
LINE
  8
CSLAYER1
  6
CONTINUOUS
 62
     6
 10
85.381236
 20
158.577873
 11
161.381236
 21
158.577873
  0
LINE
  8
CSLAYER1
  6
CENTER
 62
     3
 10
88.381236
 20
224.827873
 11
88.381236
 21
216.327873
  0
CIRCLE
  8
CSLAYER1
  6
CONTINUOUS
 62
     6
 10
88.381242
 20
220.577873
 40
2.250000
  0
ARC
  8
CSLAYER1
  6
CONTINUOUS
 62
     6
 10
88.381233
 20
220.577873
 40
1.250000
 50
163.398416
 51
196.601577
  0
ARC
  8
CSLAYER1
  6
CONTINUOUS
 62
     6
 10
88.381233
 20
220.577873
 40
1.250000
 50
253.398422
 51
286.601583
  0
ARC
  8
CSLAYER1
  6
CONTINUOUS
 62
     6
 10
88.381233
 20
220.577873
 40
1.250000
 50
-16.601562
 51
16.601572
  0
ARC
  8
CSLAYER1
  6
CONTINUOUS
 62
     6
 10
88.381233
 20
220.577873
 40
1.250000
 50
73.398406
 51
106.601595
  0
LINE
  8
CSLAYER1
  6
CONTINUOUS
 62
     6
 10
89.095528
 20
220.220726
 11
89.579121
 21
220.220726
  0
LINE
  8
CSLAYER1
  6
CONTINUOUS
 62
     6
 10
87.666939
 20
220.220726
 11
87.183345
 21
220.220726
  0
LINE
  8
CSLAYER1
  6
CONTINUOUS
 62
     6
 10
89.095528
 20
220.935020
 11
89.579121
 21
220.935020
  0
LINE
  8
CSLAYER1
  6
CONTINUOUS
 62
     6
 10
87.666939
 20
220.935020
 11
87.183345
 21
220.935020
  0
LINE
  8
CSLAYER1
  6
CONTINUOUS
 62
     6
 10
88.024086
 20
219.863597
 11
88.024086
 21
219.379967
  0
LINE
  8
CSLAYER1
  6
CONTINUOUS
 62
     6
 10
88.024086
 20
221.292149
 11
88.024086
 21
221.775780
  0
LINE
  8
CSLAYER1
  6
CONTINUOUS
 62
     6
 10
88.738381
 20
219.863597
 11
88.738381
 21
219.379967
  0
LINE
  8
CSLAYER1
  6
CONTINUOUS
 62
     6
 10
88.738381
 20
221.292149
 11
88.738381
 21
221.775780
  0
ARC
  8
CSLAYER1
  6
CONTINUOUS
 62
     6
 10
89.095528
 20
219.863597
 40
0.357143
 50
90.000001
 51
179.942691
  0
ARC
  8
CSLAYER1
  6
CONTINUOUS
 62
     6
 10
89.095528
 20
221.292149
 40
0.357143
 50
180.000010
 51
270.000016
  0
ARC
  8
CSLAYER1
  6
CONTINUOUS
 62
     6
 10
87.666939
 20
221.292149
 40
0.357143
 50
-89.999984
 51
0.000005
  0
ARC
  8
CSLAYER1
  6
CONTINUOUS
 62
     6
 10
87.666939
 20
219.863597
 40
0.357143
 50
0.000005
 51
89.942654
  0
LINE
  8
CSLAYER1
  6
CONTINUOUS
 62
     6
 10
45.381236
 20
223.577873
 11
45.381236
 21
158.577873
  0
LINE
  8
CSLAYER1
  6
CONTINUOUS
 62
     6
 10
47.381236
 20
158.577873
 11
45.381236
 21
158.577873
  0
LINE
  8
CSLAYER1
  6
CONTINUOUS
 62
     6
 10
47.381236
 20
223.577873
 11
45.381236
 21
223.577873
  0
LINE
  8
CSLAYER1
  6
CONTINUOUS
 62
     6
 10
47.381236
 20
158.577873
 11
47.381236
 21
223.577873
  0
LINE
  8
CSLAYER1
  6
CENTER
 62
     3
 10
84.131236
 20
220.577873
 11
92.631236
 21
220.577873
  0
LINE
  8
CSLAYER1
  6
CENTER
 62
     3
 10
158.381236
 20
224.827873
 11
158.381236
 21
216.327873
  0
CIRCLE
  8
CSLAYER1
  6
CONTINUOUS
 62
     6
 10
158.381231
 20
220.577873
 40
2.250000
  0
ARC
  8
CSLAYER1
  6
CONTINUOUS
 62
     6
 10
158.381239
 20
220.577873
 40
1.250000
 50
-16.601577
 51
16.601584
  0
ARC
  8
CSLAYER1
  6
CONTINUOUS
 62
     6
 10
158.381239
 20
220.577873
 40
1.250000
 50
253.398417
 51
286.601578
  0
ARC
  8
CSLAYER1
  6
CONTINUOUS
 62
     6
 10
158.381239
 20
220.577873
 40
1.250000
 50
163.398428
 51
196.601562
  0
ARC
  8
CSLAYER1
  6
CONTINUOUS
 62
     6
 10
158.381239
 20
220.577873
 40
1.250000
 50
73.398405
 51
106.601594
  0
LINE
  8
CSLAYER1
  6
CONTINUOUS
 62
     6
 10
157.666945
 20
220.220726
 11
157.183351
 21
220.220726
  0
LINE
  8
CSLAYER1
  6
CONTINUOUS
 62
     6
 10
159.095534
 20
220.220726
 11
159.579127
 21
220.220726
  0
LINE
  8
CSLAYER1
  6
CONTINUOUS
 62
     6
 10
157.666945
 20
220.935020
 11
157.183351
 21
220.935020
  0
LINE
  8
CSLAYER1
  6
CONTINUOUS
 62
     6
 10
159.095534
 20
220.935020
 11
159.579127
 21
220.935020
  0
LINE
  8
CSLAYER1
  6
CONTINUOUS
 62
     6
 10
158.738386
 20
219.863597
 11
158.738386
 21
219.379967
  0
LINE
  8
CSLAYER1
  6
CONTINUOUS
 62
     6
 10
158.738386
 20
221.292149
 11
158.738386
 21
221.775780
  0
LINE
  8
CSLAYER1
  6
CONTINUOUS
 62
     6
 10
158.024092
 20
219.863597
 11
158.024092
 21
219.379967
  0
LINE
  8
CSLAYER1
  6
CONTINUOUS
 62
     6
 10
158.024092
 20
221.292149
 11
158.024092
 21
221.775780
  0
ARC
  8
CSLAYER1
  6
CONTINUOUS
 62
     6
 10
157.666945
 20
219.863597
 40
0.357143
 50
0.057309
 51
89.999999
  0
ARC
  8
CSLAYER1
  6
CONTINUOUS
 62
     6
 10
157.666945
 20
221.292149
 40
0.357143
 50
269.999984
 51
359.999990
  0
ARC
  8
CSLAYER1
  6
CONTINUOUS
 62
     6
 10
159.095534
 20
221.292149
 40
0.357143
 50
179.999995
 51
269.999984
  0
ARC
  8
CSLAYER1
  6
CONTINUOUS
 62
     6
 10
159.095534
 20
219.863597
 40
0.357143
 50
90.057346
 51
179.999995
  0
LINE
  8
CSLAYER1
  6
CENTER
 62
     3
 10
162.631236
 20
220.577873
 11
154.131236
 21
220.577873
  0
LINE
  8
CSLAYER1
  6
CENTER
 62
     3
 10
88.381236
 20
157.327873
 11
88.381236
 21
165.827873
  0
CIRCLE
  8
CSLAYER1
  6
CONTINUOUS
 62
     6
 10
88.381242
 20
161.577873
 40
2.250000
  0
ARC
  8
CSLAYER1
  6
CONTINUOUS
 62
     6
 10
88.381233
 20
161.577872
 40
1.250000
 50
163.398423
 51
196.601584
  0
ARC
  8
CSLAYER1
  6
CONTINUOUS
 62
     6
 10
88.381233
 20
161.577872
 40
1.250000
 50
73.398417
 51
106.601578
  0
ARC
  8
CSLAYER1
  6
CONTINUOUS
 62
     6
 10
88.381233
 20
161.577872
 40
1.250000
 50
-16.601572
 51
16.601562
  0
ARC
  8
CSLAYER1
  6
CONTINUOUS
 62
     6
 10
88.381233
 20
161.577872
 40
1.250000
 50
253.398405
 51
286.601594
  0
LINE
  8
CSLAYER1
  6
CONTINUOUS
 62
     6
 10
89.095528
 20
161.935020
 11
89.579121
 21
161.935020
  0
LINE
  8
CSLAYER1
  6
CONTINUOUS
 62
     6
 10
87.666939
 20
161.935020
 11
87.183345
 21
161.935020
  0
LINE
  8
CSLAYER1
  6
CONTINUOUS
 62
     6
 10
89.095528
 20
161.220725
 11
89.579121
 21
161.220725
  0
LINE
  8
CSLAYER1
  6
CONTINUOUS
 62
     6
 10
87.666939
 20
161.220725
 11
87.183345
 21
161.220725
  0
LINE
  8
CSLAYER1
  6
CONTINUOUS
 62
     6
 10
88.024086
 20
162.292148
 11
88.024086
 21
162.775779
  0
LINE
  8
CSLAYER1
  6
CONTINUOUS
 62
     6
 10
88.024086
 20
160.863596
 11
88.024086
 21
160.379966
  0
LINE
  8
CSLAYER1
  6
CONTINUOUS
 62
     6
 10
88.738381
 20
162.292148
 11
88.738381
 21
162.775779
  0
LINE
  8
CSLAYER1
  6
CONTINUOUS
 62
     6
 10
88.738381
 20
160.863596
 11
88.738381
 21
160.379966
  0
ARC
  8
CSLAYER1
  6
CONTINUOUS
 62
     6
 10
89.095528
 20
162.292148
 40
0.357143
 50
180.057309
 51
269.999999
  0
ARC
  8
CSLAYER1
  6
CONTINUOUS
 62
     6
 10
89.095528
 20
160.863596
 40
0.357143
 50
89.999984
 51
179.999990
  0
ARC
  8
CSLAYER1
  6
CONTINUOUS
 62
     6
 10
87.666939
 20
160.863596
 40
0.357143
 50
-0.000005
 51
89.999984
  0
ARC
  8
CSLAYER1
  6
CONTINUOUS
 62
     6
 10
87.666939
 20
162.292148
 40
0.357143
 50
270.057346
 51
359.999995
  0
LINE
  8
CSLAYER1
  6
CENTER
 62
     3
 10
84.131236
 20
161.577873
 11
92.631236
 21
161.577873
  0
LINE
  8
CSLAYER1
  6
CENTER
 62
     3
 10
158.381236
 20
157.327873
 11
158.381236
 21
165.827873
  0
CIRCLE
  8
CSLAYER1
  6
CONTINUOUS
 62
     6
 10
158.381231
 20
161.577873
 40
2.250000
  0
ARC
  8
CSLAYER1
  6
CONTINUOUS
 62
     6
 10
158.381239
 20
161.577872
 40
1.250000
 50
-16.601584
 51
16.601577
  0
ARC
  8
CSLAYER1
  6
CONTINUOUS
 62
     6
 10
158.381239
 20
161.577872
 40
1.250000
 50
73.398422
 51
106.601583
  0
ARC
  8
CSLAYER1
  6
CONTINUOUS
 62
     6
 10
158.381239
 20
161.577872
 40
1.250000
 50
163.398438
 51
196.601572
  0
ARC
  8
CSLAYER1
  6
CONTINUOUS
 62
     6
 10
158.381239
 20
161.577872
 40
1.250000
 50
253.398406
 51
286.601595
  0
LINE
  8
CSLAYER1
  6
CONTINUOUS
 62
     6
 10
157.666945
 20
161.935020
 11
157.183351
 21
161.935020
  0
LINE
  8
CSLAYER1
  6
CONTINUOUS
 62
     6
 10
159.095534
 20
161.935020
 11
159.579127
 21
161.935020
  0
LINE
  8
CSLAYER1
  6
CONTINUOUS
 62
     6
 10
157.666945
 20
161.220725
 11
157.183351
 21
161.220725
  0
LINE
  8
CSLAYER1
  6
CONTINUOUS
 62
     6
 10
159.095534
 20
161.220725
 11
159.579127
 21
161.220725
  0
LINE
  8
CSLAYER1
  6
CONTINUOUS
 62
     6
 10
158.738386
 20
162.292148
 11
158.738386
 21
162.775779
  0
LINE
  8
CSLAYER1
  6
CONTINUOUS
 62
     6
 10
158.738386
 20
160.863596
 11
158.738386
 21
160.379966
  0
LINE
  8
CSLAYER1
  6
CONTINUOUS
 62
     6
 10
158.024092
 20
162.292148
 11
158.024092
 21
162.775779
  0
LINE
  8
CSLAYER1
  6
CONTINUOUS
 62
     6
 10
158.024092
 20
160.863596
 11
158.024092
 21
160.379966
  0
ARC
  8
CSLAYER1
  6
CONTINUOUS
 62
     6
 10
157.666945
 20
162.292148
 40
0.357143
 50
270.000001
 51
359.942691
  0
ARC
  8
CSLAYER1
  6
CONTINUOUS
 62
     6
 10
157.666945
 20
160.863596
 40
0.357143
 50
0.000010
 51
90.000016
  0
ARC
  8
CSLAYER1
  6
CONTINUOUS
 62
     6
 10
159.095534
 20
160.863596
 40
0.357143
 50
90.000016
 51
180.000005
  0
ARC
  8
CSLAYER1
  6
CONTINUOUS
 62
     6
 10
159.095534
 20
162.292148
 40
0.357143
 50
180.000005
 51
269.942654
  0
LINE
  8
CSLAYER1
  6
CENTER
 62
     3
 10
162.631236
 20
161.577873
 11
154.131236
 21
161.577873
  0
LINE
  8
CSLAYER1
  6
CENTER
 62
     3
 10
163.381236
 20
227.177873
 11
163.381236
 21
219.977873
  0
LINE
  8
CSLAYER1
  6
CENTER
 62
     3
 10
159.781236
 20
223.577873
 11
166.981236
 21
223.577873
  0
LINE
  8
CSLAYER1
  6
CENTER
 62
     3
 10
163.381236
 20
167.177873
 11
163.381236
 21
159.977873
  0
LINE
  8
CSLAYER1
  6
CENTER
 62
     3
 10
159.781236
 20
163.577873
 11
166.981236
 21
163.577873
  0
LINE
  8
CSLAYER1
  6
CENTER
 62
     3
 10
83.381236
 20
167.177873
 11
83.381236
 21
159.977873
  0
LINE
  8
CSLAYER1
  6
CENTER
 62
     3
 10
79.781236
 20
163.577873
 11
86.981236
 21
163.577873
  0
LINE
  8
CSLAYER1
  6
CONTINUOUS
 62
     6
 10
99.081236
 20
183.477873
 11
99.081236
 21
202.677873
  0
LINE
  8
CSLAYER1
  6
CONTINUOUS
 62
     6
 10
90.081236
 20
183.477873
 11
99.081236
 21
183.477873
  0
LINE
  8
CSLAYER1
  6
CONTINUOUS
 62
     6
 10
90.081236
 20
183.477873
 11
90.081236
 21
202.677873
  0
LINE
  8
CSLAYER1
  6
CONTINUOUS
 62
     6
 10
90.081236
 20
202.677873
 11
99.081236
 21
202.677873
  0
LINE
  8
CSLAYER1
  6
CONTINUOUS
 62
     3
 10
92.081236
 20
183.477873
 11
92.081236
 21
202.677873
  0
LINE
  8
CSLAYER1
  6
CONTINUOUS
 62
     3
 10
97.081236
 20
183.477873
 11
97.081236
 21
202.677873
  0
CIRCLE
  8
CSLAYER1
  6
CONTINUOUS
 62
     6
 10
94.581236
 20
185.877873
 40
2.000000
  0
CIRCLE
  8
CSLAYER1
  6
CONTINUOUS
 62
     6
 10
94.581236
 20
190.677873
 40
2.000000
  0
CIRCLE
  8
CSLAYER1
  6
CONTINUOUS
 62
     6
 10
94.581236
 20
195.477873
 40
2.000000
  0
CIRCLE
  8
CSLAYER1
  6
CONTINUOUS
 62
     6
 10
94.581236
 20
200.277873
 40
2.000000
  0
LINE
  8
CSLAYER1
  6
CONTINUOUS
 62
     6
 10
92.700914
 20
186.559332
 11
96.111559
 21
184.590195
  0
LINE
  8
CSLAYER1
  6
CONTINUOUS
 62
     6
 10
93.050914
 20
187.165550
 11
96.461559
 21
185.196413
  0
LINE
  8
CSLAYER1
  6
CONTINUOUS
 62
     6
 10
95.262696
 20
192.558195
 11
93.293559
 21
189.147550
  0
LINE
  8
CSLAYER1
  6
CONTINUOUS
 62
     6
 10
95.868914
 20
192.208195
 11
93.899777
 21
188.797550
  0
LINE
  8
CSLAYER1
  6
CONTINUOUS
 62
     6
 10
93.733512
 20
197.289326
 11
94.752812
 21
193.485246
  0
LINE
  8
CSLAYER1
  6
CONTINUOUS
 62
     6
 10
94.409660
 20
197.470500
 11
95.428960
 21
193.666419
  0
LINE
  8
CSLAYER1
  6
CONTINUOUS
 62
     6
 10
96.392690
 20
199.430149
 11
92.588609
 21
200.449449
  0
LINE
  8
CSLAYER1
  6
CONTINUOUS
 62
     6
 10
96.573863
 20
200.106297
 11
92.769783
 21
201.125597
  0
LINE
  8
CSLAYER1
  6
CONTINUOUS
 62
     6
 10
108.981236
 20
209.877873
 11
137.781236
 21
209.877873
  0
LINE
  8
CSLAYER1
  6
CONTINUOUS
 62
     6
 10
108.981236
 20
218.877873
 11
108.981236
 21
209.877873
  0
LINE
  8
CSLAYER1
  6
CONTINUOUS
 62
     6
 10
108.981236
 20
218.877873
 11
137.781236
 21
218.877873
  0
LINE
  8
CSLAYER1
  6
CONTINUOUS
 62
     6
 10
137.781236
 20
218.877873
 11
137.781236
 21
209.877873
  0
LINE
  8
CSLAYER1
  6
CONTINUOUS
 62
     3
 10
108.981236
 20
216.877873
 11
137.781236
 21
216.877873
  0
LINE
  8
CSLAYER1
  6
CONTINUOUS
 62
     3
 10
108.981236
 20
211.877873
 11
137.781236
 21
211.877873
  0
CIRCLE
  8
CSLAYER1
  6
CONTINUOUS
 62
     6
 10
116.181236
 20
214.377873
 40
2.000000
  0
CIRCLE
  8
CSLAYER1
  6
CONTINUOUS
 62
     6
 10
120.981236
 20
214.377873
 40
2.000000
  0
CIRCLE
  8
CSLAYER1
  6
CONTINUOUS
 62
     6
 10
125.781236
 20
214.377873
 40
2.000000
  0
CIRCLE
  8
CSLAYER1
  6
CONTINUOUS
 62
     6
 10
130.581236
 20
214.377873
 40
2.000000
  0
LINE
  8
CSLAYER1
  6
CONTINUOUS
 62
     6
 10
116.862696
 20
216.258195
 11
114.893559
 21
212.847550
  0
LINE
  8
CSLAYER1
  6
CONTINUOUS
 62
     6
 10
117.468914
 20
215.908195
 11
115.499777
 21
212.497550
  0
LINE
  8
CSLAYER1
  6
CONTINUOUS
 62
     6
 10
122.861559
 20
213.696413
 11
119.450914
 21
215.665550
  0
LINE
  8
CSLAYER1
  6
CONTINUOUS
 62
     6
 10
122.511559
 20
213.090195
 11
119.100914
 21
215.059332
  0
LINE
  8
CSLAYER1
  6
CONTINUOUS
 62
     6
 10
127.592690
 20
215.225597
 11
123.788609
 21
214.206297
  0
LINE
  8
CSLAYER1
  6
CONTINUOUS
 62
     6
 10
127.773863
 20
214.549449
 11
123.969783
 21
213.530149
  0
LINE
  8
CSLAYER1
  6
CONTINUOUS
 62
     6
 10
129.733512
 20
212.566419
 11
130.752812
 21
216.370500
  0
LINE
  8
CSLAYER1
  6
CONTINUOUS
 62
     6
 10
130.409660
 20
212.385246
 11
131.428960
 21
216.189326
  0
CIRCLE
  8
CSLAYER1
  6
CONTINUOUS
 62
     6
 10
135.381236
 20
214.377873
 40
2.000000
  0
LINE
  8
CSLAYER1
  6
CONTINUOUS
 62
     6
 10
136.228960
 20
212.566419
 11
135.209660
 21
216.370500
  0
LINE
  8
CSLAYER1
  6
CONTINUOUS
 62
     6
 10
135.552812
 20
212.385246
 11
134.533512
 21
216.189326
  0
CIRCLE
  8
CSLAYER1
  6
CONTINUOUS
 62
     6
 10
111.381236
 20
214.377873
 40
2.000000
  0
LINE
  8
CSLAYER1
  6
CONTINUOUS
 62
     6
 10
110.699777
 20
216.258195
 11
112.668914
 21
212.847550
  0
LINE
  8
CSLAYER1
  6
CONTINUOUS
 62
     6
 10
110.093559
 20
215.908195
 11
112.062696
 21
212.497550
  0
TEXT
  8
CSLAYER1
 62
     3
 10
136.881241
 20
222.377869
 40
2.000000
 41
0.900000
  1
+5
 50
180.000000
 51
0.000000
  7
FX_FONT
 72
     5
 11
133.881241
 21
222.377869
  0
LINE
  8
CSLAYER1
  6
CONTINUOUS
 62
     3
 10
133.131236
 20
222.577873
 11
137.631236
 21
222.577873
  0
LINE
  8
CSLAYER1
  6
CONTINUOUS
 62
     3
 10
133.131236
 20
219.877873
 11
133.131236
 21
222.577873
  0
LINE
  8
CSLAYER1
  6
CONTINUOUS
 62
     3
 10
137.631236
 20
219.877873
 11
137.631236
 21
222.577873
  0
LINE
  8
CSLAYER1
  6
CONTINUOUS
 62
     3
 10
133.131236
 20
219.877873
 11
137.631236
 21
219.877873
  0
TEXT
  8
CSLAYER1
 62
     3
 10
132.531235
 20
222.377869
 40
2.000000
 41
0.731250
  1
COM
 50
180.000000
 51
0.000000
  7
FX_FONT
 72
     5
 11
128.631235
 21
222.377869
  0
LINE
  8
CSLAYER1
  6
CONTINUOUS
 62
     3
 10
128.331236
 20
222.577873
 11
132.831236
 21
222.577873
  0
LINE
  8
CSLAYER1
  6
CONTINUOUS
 62
     3
 10
128.331236
 20
219.877873
 11
128.331236
 21
222.577873
  0
LINE
  8
CSLAYER1
  6
CONTINUOUS
 62
     3
 10
132.831236
 20
219.877873
 11
132.831236
 21
222.577873
  0
LINE
  8
CSLAYER1
  6
CONTINUOUS
 62
     3
 10
128.331236
 20
219.877873
 11
132.831236
 21
219.877873
  0
LINE
  8
CSLAYER1
  6
CONTINUOUS
 62
     3
 10
123.531236
 20
222.577873
 11
128.031236
 21
222.577873
  0
LINE
  8
CSLAYER1
  6
CONTINUOUS
 62
     3
 10
123.531236
 20
219.877873
 11
123.531236
 21
222.577873
  0
LINE
  8
CSLAYER1
  6
CONTINUOUS
 62
     3
 10
128.031236
 20
219.877873
 11
128.031236
 21
222.577873
  0
LINE
  8
CSLAYER1
  6
CONTINUOUS
 62
     3
 10
123.531236
 20
219.877873
 11
128.031236
 21
219.877873
  0
LINE
  8
CSLAYER1
  6
CONTINUOUS
 62
     3
 10
118.731236
 20
222.577873
 11
123.231236
 21
222.577873
  0
LINE
  8
CSLAYER1
  6
CONTINUOUS
 62
     3
 10
118.731236
 20
219.877873
 11
118.731236
 21
222.577873
  0
LINE
  8
CSLAYER1
  6
CONTINUOUS
 62
     3
 10
123.231236
 20
219.877873
 11
123.231236
 21
222.577873
  0
LINE
  8
CSLAYER1
  6
CONTINUOUS
 62
     3
 10
118.731236
 20
219.877873
 11
123.231236
 21
219.877873
  0
TEXT
  8
CSLAYER1
 62
     3
 10
116.931244
 20
222.377869
 40
2.000000
 41
1.125000
  1
B
 50
180.000000
 51
0.000000
  7
FX_FONT
 72
     5
 11
115.431244
 21
222.377869
  0
LINE
  8
CSLAYER1
  6
CONTINUOUS
 62
     3
 10
113.931236
 20
222.577873
 11
118.431236
 21
222.577873
  0
LINE
  8
CSLAYER1
  6
CONTINUOUS
 62
     3
 10
113.931236
 20
219.877873
 11
113.931236
 21
222.577873
  0
LINE
  8
CSLAYER1
  6
CONTINUOUS
 62
     3
 10
118.431236
 20
219.877873
 11
118.431236
 21
222.577873
  0
LINE
  8
CSLAYER1
  6
CONTINUOUS
 62
     3
 10
113.931236
 20
219.877873
 11
118.431236
 21
219.877873
  0
LINE
  8
CSLAYER1
  6
CONTINUOUS
 62
     3
 10
109.131236
 20
222.577873
 11
113.631236
 21
222.577873
  0
LINE
  8
CSLAYER1
  6
CONTINUOUS
 62
     3
 10
109.131236
 20
219.877873
 11
109.131236
 21
222.577873
  0
LINE
  8
CSLAYER1
  6
CONTINUOUS
 62
     3
 10
113.631236
 20
219.877873
 11
113.631236
 21
222.577873
  0
LINE
  8
CSLAYER1
  6
CONTINUOUS
 62
     3
 10
109.131236
 20
219.877873
 11
113.631236
 21
219.877873
  0
TEXT
  8
CSLAYER1
 62
     3
 10
121.731232
 20
222.377869
 40
2.000000
 41
1.125000
  1
A
 50
180.000000
 51
0.000000
  7
FX_FONT
 72
     5
 11
120.231232
 21
222.377869
  0
LINE
  8
CSLAYER1
  6
CONTINUOUS
 62
     3
 10
120.231236
 20
220.177873
 11
121.731236
 21
220.177873
  0
TEXT
  8
CSLAYER1
 62
     3
 10
126.531250
 20
222.377869
 40
2.000000
 41
1.125000
  1
A
 50
180.000000
 51
0.000000
  7
FX_FONT
 72
     5
 11
125.031250
 21
222.377869
  0
TEXT
  8
CSLAYER1
 62
     3
 10
112.131226
 20
222.377869
 40
2.000000
 41
1.125000
  1
B
 50
180.000000
 51
0.000000
  7
FX_FONT
 72
     5
 11
110.631226
 21
222.377869
  0
LINE
  8
CSLAYER1
  6
CONTINUOUS
 62
     3
 10
110.631236
 20
220.177873
 11
112.131236
 21
220.177873
  0
LINE
  8
CSLAYER1
  6
CONTINUOUS
 62
     6
 10
56.381236
 20
183.477873
 11
56.381236
 21
202.677873
  0
LINE
  8
CSLAYER1
  6
CONTINUOUS
 62
     3
 10
53.381236
 20
183.477873
 11
53.381236
 21
202.677873
  0
LINE
  8
CSLAYER1
  6
CONTINUOUS
 62
     6
 10
56.381236
 20
202.677873
 11
47.381236
 21
202.677873
  0
LINE
  8
CSLAYER1
  6
CONTINUOUS
 62
     6
 10
56.381236
 20
183.477873
 11
47.381236
 21
183.477873
  0
LINE
  8
CSLAYER1
  6
CONTINUOUS
 62
     6
 10
52.381236
 20
197.227873
 11
48.381236
 21
197.227873
  0
LINE
  8
CSLAYER1
  6
CONTINUOUS
 62
     6
 10
51.381236
 20
201.727873
 11
49.381236
 21
201.727873
  0
LINE
  8
CSLAYER1
  6
CONTINUOUS
 62
     6
 10
51.381236
 20
198.827873
 11
49.381236
 21
198.827873
  0
LINE
  8
CSLAYER1
  6
CONTINUOUS
 62
     6
 10
52.381236
 20
202.027873
 11
48.381236
 21
202.027873
  0
LINE
  8
CSLAYER1
  6
CONTINUOUS
 62
     6
 10
52.381236
 20
198.527873
 11
48.381236
 21
198.527873
  0
LINE
  8
CSLAYER1
  6
CONTINUOUS
 62
     6
 10
52.381236
 20
198.527873
 11
52.381236
 21
202.027873
  0
LINE
  8
CSLAYER1
  6
CONTINUOUS
 62
     6
 10
51.381236
 20
198.827873
 11
51.381236
 21
201.727873
  0
LINE
  8
CSLAYER1
  6
CONTINUOUS
 62
     6
 10
49.381236
 20
198.827873
 11
49.381236
 21
201.727873
  0
LINE
  8
CSLAYER1
  6
CONTINUOUS
 62
     6
 10
48.381236
 20
198.527873
 11
48.381236
 21
202.027873
  0
LINE
  8
CSLAYER1
  6
CONTINUOUS
 62
     6
 10
52.381236
 20
197.227873
 11
48.381236
 21
197.227873
  0
LINE
  8
CSLAYER1
  6
CONTINUOUS
 62
     6
 10
52.381236
 20
193.727873
 11
48.381236
 21
193.727873
  0
LINE
  8
CSLAYER1
  6
CONTINUOUS
 62
     6
 10
52.381236
 20
193.727873
 11
52.381236
 21
197.227873
  0
LINE
  8
CSLAYER1
  6
CONTINUOUS
 62
     6
 10
48.381236
 20
193.727873
 11
48.381236
 21
197.227873
  0
LINE
  8
CSLAYER1
  6
CONTINUOUS
 62
     6
 10
52.381236
 20
192.427873
 11
48.381236
 21
192.427873
  0
LINE
  8
CSLAYER1
  6
CONTINUOUS
 62
     6
 10
52.381236
 20
188.927873
 11
48.381236
 21
188.927873
  0
LINE
  8
CSLAYER1
  6
CONTINUOUS
 62
     6
 10
52.381236
 20
188.927873
 11
52.381236
 21
192.427873
  0
LINE
  8
CSLAYER1
  6
CONTINUOUS
 62
     6
 10
48.381236
 20
188.927873
 11
48.381236
 21
192.427873
  0
LINE
  8
CSLAYER1
  6
CONTINUOUS
 62
     6
 10
52.381236
 20
187.627873
 11
48.381236
 21
187.627873
  0
LINE
  8
CSLAYER1
  6
CONTINUOUS
 62
     6
 10
52.381236
 20
184.127873
 11
48.381236
 21
184.127873
  0
LINE
  8
CSLAYER1
  6
CONTINUOUS
 62
     6
 10
52.381236
 20
184.127873
 11
52.381236
 21
187.627873
  0
LINE
  8
CSLAYER1
  6
CONTINUOUS
 62
     6
 10
48.381236
 20
184.127873
 11
48.381236
 21
187.627873
  0
LINE
  8
CSLAYER1
  6
CONTINUOUS
 62
     6
 10
51.381236
 20
196.927873
 11
49.381236
 21
196.927873
  0
LINE
  8
CSLAYER1
  6
CONTINUOUS
 62
     6
 10
51.381236
 20
194.027873
 11
49.381236
 21
194.027873
  0
LINE
  8
CSLAYER1
  6
CONTINUOUS
 62
     6
 10
51.381236
 20
194.027873
 11
51.381236
 21
196.927873
  0
LINE
  8
CSLAYER1
  6
CONTINUOUS
 62
     6
 10
49.381236
 20
194.027873
 11
49.381236
 21
196.927873
  0
LINE
  8
CSLAYER1
  6
CONTINUOUS
 62
     6
 10
51.381236
 20
192.127873
 11
49.381236
 21
192.127873
  0
LINE
  8
CSLAYER1
  6
CONTINUOUS
 62
     6
 10
51.381236
 20
189.227873
 11
49.381236
 21
189.227873
  0
LINE
  8
CSLAYER1
  6
CONTINUOUS
 62
     6
 10
51.381236
 20
189.227873
 11
51.381236
 21
192.127873
  0
LINE
  8
CSLAYER1
  6
CONTINUOUS
 62
     6
 10
49.381236
 20
189.227873
 11
49.381236
 21
192.127873
  0
LINE
  8
CSLAYER1
  6
CONTINUOUS
 62
     6
 10
51.381236
 20
187.327873
 11
49.381236
 21
187.327873
  0
LINE
  8
CSLAYER1
  6
CONTINUOUS
 62
     6
 10
51.381236
 20
184.427873
 11
49.381236
 21
184.427873
  0
LINE
  8
CSLAYER1
  6
CONTINUOUS
 62
     6
 10
51.381236
 20
184.427873
 11
51.381236
 21
187.327873
  0
LINE
  8
CSLAYER1
  6
CONTINUOUS
 62
     6
 10
49.381236
 20
184.427873
 11
49.381236
 21
187.327873
  0
LINE
  8
CSLAYER1
  6
CONTINUOUS
 62
     6
 10
56.381236
 20
211.877873
 11
56.381236
 21
216.877873
  0
LINE
  8
CSLAYER1
  6
CONTINUOUS
 62
     3
 10
53.381236
 20
209.877873
 11
53.381236
 21
218.877873
  0
LINE
  8
CSLAYER1
  6
CONTINUOUS
 62
     6
 10
56.381236
 20
216.877873
 11
53.381236
 21
218.877873
  0
LINE
  8
CSLAYER1
  6
CONTINUOUS
 62
     6
 10
56.381236
 20
211.877873
 11
53.381236
 21
209.877873
  0
LINE
  8
CSLAYER1
  6
CONTINUOUS
 62
     6
 10
53.381236
 20
218.877873
 11
49.180805
 21
218.877873
  0
LINE
  8
CSLAYER1
  6
CONTINUOUS
 62
     6
 10
53.381236
 20
209.877873
 11
47.381236
 21
209.877873
  0
LINE
  8
CSLAYER1
  6
CONTINUOUS
 62
     6
 10
147.281236
 20
217.877873
 11
147.281236
 21
209.877873
  0
LINE
  8
CSLAYER1
  6
CONTINUOUS
 62
     6
 10
140.781236
 20
217.877873
 11
140.781236
 21
209.877873
  0
LINE
  8
CSLAYER1
  6
CONTINUOUS
 62
     6
 10
140.781236
 20
217.877873
 11
147.281236
 21
217.877873
  0
LINE
  8
CSLAYER1
  6
CONTINUOUS
 62
     6
 10
140.781236
 20
213.877873
 11
147.281236
 21
213.877873
  0
LINE
  8
CSLAYER1
  6
CONTINUOUS
 62
     6
 10
140.781236
 20
209.877873
 11
147.281236
 21
209.877873
  0
LINE
  8
CSLAYER1
  6
CONTINUOUS
 62
     6
 10
145.424093
 20
216.544539
 11
142.638379
 21
216.544539
  0
LINE
  8
CSLAYER1
  6
CONTINUOUS
 62
     6
 10
145.424093
 20
215.211206
 11
142.638379
 21
215.211206
  0
LINE
  8
CSLAYER1
  6
CONTINUOUS
 62
     6
 10
142.638379
 20
216.544539
 11
142.638379
 21
215.211206
  0
LINE
  8
CSLAYER1
  6
CONTINUOUS
 62
     6
 10
145.424093
 20
216.544539
 11
145.424093
 21
215.211206
  0
LINE
  8
CSLAYER1
  6
CONTINUOUS
 62
     6
 10
145.424093
 20
212.544539
 11
142.638379
 21
212.544539
  0
LINE
  8
CSLAYER1
  6
CONTINUOUS
 62
     6
 10
145.424093
 20
211.211206
 11
142.638379
 21
211.211206
  0
LINE
  8
CSLAYER1
  6
CONTINUOUS
 62
     6
 10
142.638379
 20
212.544539
 11
142.638379
 21
211.211206
  0
LINE
  8
CSLAYER1
  6
CONTINUOUS
 62
     6
 10
145.424093
 20
212.544539
 11
145.424093
 21
211.211206
  0
LINE
  8
CSLAYER1
  6
CONTINUOUS
 62
     6
 10
111.281236
 20
204.677873
 11
105.281236
 21
204.677873
  0
LINE
  8
CSLAYER1
  6
CONTINUOUS
 62
     6
 10
105.281236
 20
204.677873
 11
105.281236
 21
195.677873
  0
LINE
  8
CSLAYER1
  6
CONTINUOUS
 62
     6
 10
105.281236
 20
195.677873
 11
111.281236
 21
195.677873
  0
LINE
  8
CSLAYER1
  6
CONTINUOUS
 62
     6
 10
111.281236
 20
195.677873
 11
111.281236
 21
204.677873
  0
CIRCLE
  8
CSLAYER1
  6
CONTINUOUS
 62
     6
 10
105.781236
 20
186.977873
 40
2.500000
  0
CIRCLE
  8
CSLAYER1
  6
CONTINUOUS
 62
     6
 10
112.281236
 20
186.977873
 40
2.500000
  0
LINE
  8
CSLAYER1
  6
CONTINUOUS
 62
     6
 10
89.881236
 20
179.477873
 11
109.381236
 21
179.477873
  0
LINE
  8
CSLAYER1
  6
CONTINUOUS
 62
     6
 10
89.881236
 20
172.477873
 11
109.381236
 21
172.477873
  0
LINE
  8
CSLAYER1
  6
CONTINUOUS
 62
     6
 10
109.381236
 20
172.477873
 11
109.381236
 21
179.477873
  0
LINE
  8
CSLAYER1
  6
CONTINUOUS
 62
     6
 10
89.881236
 20
172.477873
 11
89.881236
 21
179.477873
  0
POLYLINE
  8
CSLAYER1
  6
CONTINUOUS
 62
     3
 66
     1
 10
0.0
 20
0.0
 30
0.0
  0
VERTEX
  8
CSLAYER1
  6
CONTINUOUS
 62
     3
 10
105.564422
 20
165.002779
 30
0.0
  0
VERTEX
  8
CSLAYER1
  6
CONTINUOUS
 62
     3
 10
105.576896
 20
164.984115
 30
0.0
  0
VERTEX
  8
CSLAYER1
  6
CONTINUOUS
 62
     3
 10
105.590136
 20
164.967697
 30
0.0
  0
VERTEX
  8
CSLAYER1
  6
CONTINUOUS
 62
     3
 10
105.604041
 20
164.953649
 30
0.0
  0
VERTEX
  8
CSLAYER1
  6
CONTINUOUS
 62
     3
 10
105.618505
 20
164.942079
 30
0.0
  0
VERTEX
  8
CSLAYER1
  6
CONTINUOUS
 62
     3
 10
105.633418
 20
164.933073
 30
0.0
  0
VERTEX
  8
CSLAYER1
  6
CONTINUOUS
 62
     3
 10
105.648667
 20
164.926702
 30
0.0
  0
VERTEX
  8
CSLAYER1
  6
CONTINUOUS
 62
     3
 10
105.664136
 20
164.923013
 30
0.0
  0
VERTEX
  8
CSLAYER1
  6
CONTINUOUS
 62
     3
 10
105.679707
 20
164.922034
 30
0.0
  0
VERTEX
  8
CSLAYER1
  6
CONTINUOUS
 62
     3
 10
105.695261
 20
164.923774
 30
0.0
  0
VERTEX
  8
CSLAYER1
  6
CONTINUOUS
 62
     3
 10
105.710680
 20
164.928217
 30
0.0
  0
VERTEX
  8
CSLAYER1
  6
CONTINUOUS
 62
     3
 10
105.725847
 20
164.935332
 30
0.0
  0
VERTEX
  8
CSLAYER1
  6
CONTINUOUS
 62
     3
 10
105.740646
 20
164.945063
 30
0.0
  0
VERTEX
  8
CSLAYER1
  6
CONTINUOUS
 62
     3
 10
105.754964
 20
164.957337
 30
0.0
  0
VERTEX
  8
CSLAYER1
  6
CONTINUOUS
 62
     3
 10
105.768694
 20
164.972060
 30
0.0
  0
VERTEX
  8
CSLAYER1
  6
CONTINUOUS
 62
     3
 10
105.781729
 20
164.989121
 30
0.0
  0
VERTEX
  8
CSLAYER1
  6
CONTINUOUS
 62
     3
 10
105.793971
 20
165.008388
 30
0.0
  0
VERTEX
  8
CSLAYER1
  6
CONTINUOUS
 62
     3
 10
105.805328
 20
165.029716
 30
0.0
  0
VERTEX
  8
CSLAYER1
  6
CONTINUOUS
 62
     3
 10
105.815711
 20
165.052943
 30
0.0
  0
VERTEX
  8
CSLAYER1
  6
CONTINUOUS
 62
     3
 10
105.825043
 20
165.077891
 30
0.0
  0
VERTEX
  8
CSLAYER1
  6
CONTINUOUS
 62
     3
 10
105.833252
 20
165.104371
 30
0.0
  0
VERTEX
  8
CSLAYER1
  6
CONTINUOUS
 62
     3
 10
105.840276
 20
165.132181
 30
0.0
  0
VERTEX
  8
CSLAYER1
  6
CONTINUOUS
 62
     3
 10
105.846061
 20
165.161110
 30
0.0
  0
VERTEX
  8
CSLAYER1
  6
CONTINUOUS
 62
     3
 10
105.850564
 20
165.190937
 30
0.0
  0
VERTEX
  8
CSLAYER1
  6
CONTINUOUS
 62
     3
 10
105.853750
 20
165.221435
 30
0.0
  0
VERTEX
  8
CSLAYER1
  6
CONTINUOUS
 62
     3
 10
105.855594
 20
165.252372
 30
0.0
  0
VERTEX
  8
CSLAYER1
  6
CONTINUOUS
 62
     3
 10
105.856097
 20
165.279150
 30
0.0
  0
SEQEND
  0
POLYLINE
  8
CSLAYER1
  6
CONTINUOUS
 62
     3
 66
     1
 10
0.0
 20
0.0
 30
0.0
  0
VERTEX
  8
CSLAYER1
  6
CONTINUOUS
 62
     3
 10
105.916811
 20
165.010842
 30
0.0
  0
VERTEX
  8
CSLAYER1
  6
CONTINUOUS
 62
     3
 10
105.928952
 20
164.991319
 30
0.0
  0
VERTEX
  8
CSLAYER1
  6
CONTINUOUS
 62
     3
 10
105.941897
 20
164.973987
 30
0.0
  0
VERTEX
  8
CSLAYER1
  6
CONTINUOUS
 62
     3
 10
105.955548
 20
164.958977
 30
0.0
  0
VERTEX
  8
CSLAYER1
  6
CONTINUOUS
 62
     3
 10
105.969802
 20
164.946404
 30
0.0
  0
VERTEX
  8
CSLAYER1
  6
CONTINUOUS
 62
     3
 10
105.984549
 20
164.936363
 30
0.0
  0
VERTEX
  8
CSLAYER1
  6
CONTINUOUS
 62
     3
 10
105.999678
 20
164.928931
 30
0.0
  0
VERTEX
  8
CSLAYER1
  6
CONTINUOUS
 62
     3
 10
106.015073
 20
164.924165
 30
0.0
  0
VERTEX
  8
CSLAYER1
  6
CONTINUOUS
 62
     3
 10
106.030617
 20
164.922100
 30
0.0
  0
VERTEX
  8
CSLAYER1
  6
CONTINUOUS
 62
     3
 10
106.046192
 20
164.922752
 30
0.0
  0
VERTEX
  8
CSLAYER1
  6
CONTINUOUS
 62
     3
 10
106.061679
 20
164.926117
 30
0.0
  0
VERTEX
  8
CSLAYER1
  6
CONTINUOUS
 62
     3
 10
106.076961
 20
164.932169
 30
0.0
  0
VERTEX
  8
CSLAYER1
  6
CONTINUOUS
 62
     3
 10
106.091920
 20
164.940861
 30
0.0
  0
VERTEX
  8
CSLAYER1
  6
CONTINUOUS
 62
     3
 10
106.106445
 20
164.952128
 30
0.0
  0
VERTEX
  8
CSLAYER1
  6
CONTINUOUS
 62
     3
 10
106.120422
 20
164.965884
 30
0.0
  0
VERTEX
  8
CSLAYER1
  6
CONTINUOUS
 62
     3
 10
106.133748
 20
164.982024
 30
0.0
  0
VERTEX
  8
CSLAYER1
  6
CONTINUOUS
 62
     3
 10
106.146319
 20
165.000426
 30
0.0
  0
VERTEX
  8
CSLAYER1
  6
CONTINUOUS
 62
     3
 10
106.158040
 20
165.020948
 30
0.0
  0
VERTEX
  8
CSLAYER1
  6
CONTINUOUS
 62
     3
 10
106.168822
 20
165.043436
 30
0.0
  0
VERTEX
  8
CSLAYER1
  6
CONTINUOUS
 62
     3
 10
106.178584
 20
165.067717
 30
0.0
  0
VERTEX
  8
CSLAYER1
  6
CONTINUOUS
 62
     3
 10
106.187250
 20
165.093608
 30
0.0
  0
VERTEX
  8
CSLAYER1
  6
CONTINUOUS
 62
     3
 10
106.194755
 20
165.120911
 30
0.0
  0
VERTEX
  8
CSLAYER1
  6
CONTINUOUS
 62
     3
 10
106.201042
 20
165.149418
 30
0.0
  0
VERTEX
  8
CSLAYER1
  6
CONTINUOUS
 62
     3
 10
106.206062
 20
165.178913
 30
0.0
  0
VERTEX
  8
CSLAYER1
  6
CONTINUOUS
 62
     3
 10
106.209778
 20
165.209170
 30
0.0
  0
VERTEX
  8
CSLAYER1
  6
CONTINUOUS
 62
     3
 10
106.212161
 20
165.239960
 30
0.0
  0
VERTEX
  8
CSLAYER1
  6
CONTINUOUS
 62
     3
 10
106.213194
 20
165.271048
 30
0.0
  0
VERTEX
  8
CSLAYER1
  6
CONTINUOUS
 62
     3
 10
106.213240
 20
165.279151
 30
0.0
  0
SEQEND
  0
POLYLINE
  8
CSLAYER1
  6
CONTINUOUS
 62
     3
 66
     1
 10
0.0
 20
0.0
 30
0.0
  0
VERTEX
  8
CSLAYER1
  6
CONTINUOUS
 62
     3
 10
106.416811
 20
165.010842
 30
0.0
  0
VERTEX
  8
CSLAYER1
  6
CONTINUOUS
 62
     3
 10
106.428952
 20
164.991319
 30
0.0
  0
VERTEX
  8
CSLAYER1
  6
CONTINUOUS
 62
     3
 10
106.441897
 20
164.973987
 30
0.0
  0
VERTEX
  8
CSLAYER1
  6
CONTINUOUS
 62
     3
 10
106.455548
 20
164.958977
 30
0.0
  0
VERTEX
  8
CSLAYER1
  6
CONTINUOUS
 62
     3
 10
106.469802
 20
164.946404
 30
0.0
  0
VERTEX
  8
CSLAYER1
  6
CONTINUOUS
 62
     3
 10
106.484549
 20
164.936363
 30
0.0
  0
VERTEX
  8
CSLAYER1
  6
CONTINUOUS
 62
     3
 10
106.499678
 20
164.928931
 30
0.0
  0
VERTEX
  8
CSLAYER1
  6
CONTINUOUS
 62
     3
 10
106.515073
 20
164.924165
 30
0.0
  0
VERTEX
  8
CSLAYER1
  6
CONTINUOUS
 62
     3
 10
106.530617
 20
164.922100
 30
0.0
  0
VERTEX
  8
CSLAYER1
  6
CONTINUOUS
 62
     3
 10
106.546192
 20
164.922752
 30
0.0
  0
VERTEX
  8
CSLAYER1
  6
CONTINUOUS
 62
     3
 10
106.561679
 20
164.926117
 30
0.0
  0
VERTEX
  8
CSLAYER1
  6
CONTINUOUS
 62
     3
 10
106.576961
 20
164.932169
 30
0.0
  0
VERTEX
  8
CSLAYER1
  6
CONTINUOUS
 62
     3
 10
106.591920
 20
164.940861
 30
0.0
  0
VERTEX
  8
CSLAYER1
  6
CONTINUOUS
 62
     3
 10
106.606445
 20
164.952128
 30
0.0
  0
VERTEX
  8
CSLAYER1
  6
CONTINUOUS
 62
     3
 10
106.620422
 20
164.965884
 30
0.0
  0
VERTEX
  8
CSLAYER1
  6
CONTINUOUS
 62
     3
 10
106.633748
 20
164.982024
 30
0.0
  0
VERTEX
  8
CSLAYER1
  6
CONTINUOUS
 62
     3
 10
106.646319
 20
165.000426
 30
0.0
  0
VERTEX
  8
CSLAYER1
  6
CONTINUOUS
 62
     3
 10
106.658040
 20
165.020948
 30
0.0
  0
VERTEX
  8
CSLAYER1
  6
CONTINUOUS
 62
     3
 10
106.668822
 20
165.043436
 30
0.0
  0
VERTEX
  8
CSLAYER1
  6
CONTINUOUS
 62
     3
 10
106.678584
 20
165.067717
 30
0.0
  0
VERTEX
  8
CSLAYER1
  6
CONTINUOUS
 62
     3
 10
106.687250
 20
165.093608
 30
0.0
  0
VERTEX
  8
CSLAYER1
  6
CONTINUOUS
 62
     3
 10
106.694755
 20
165.120911
 30
0.0
  0
VERTEX
  8
CSLAYER1
  6
CONTINUOUS
 62
     3
 10
106.701042
 20
165.149418
 30
0.0
  0
VERTEX
  8
CSLAYER1
  6
CONTINUOUS
 62
     3
 10
106.706062
 20
165.178913
 30
0.0
  0
VERTEX
  8
CSLAYER1
  6
CONTINUOUS
 62
     3
 10
106.709778
 20
165.209170
 30
0.0
  0
VERTEX
  8
CSLAYER1
  6
CONTINUOUS
 62
     3
 10
106.712161
 20
165.239960
 30
0.0
  0
VERTEX
  8
CSLAYER1
  6
CONTINUOUS
 62
     3
 10
106.713194
 20
165.271048
 30
0.0
  0
VERTEX
  8
CSLAYER1
  6
CONTINUOUS
 62
     3
 10
106.713240
 20
165.279151
 30
0.0
  0
SEQEND
  0
POLYLINE
  8
CSLAYER1
  6
CONTINUOUS
 62
     3
 66
     1
 10
0.0
 20
0.0
 30
0.0
  0
VERTEX
  8
CSLAYER1
  6
CONTINUOUS
 62
     3
 10
106.916811
 20
165.010842
 30
0.0
  0
VERTEX
  8
CSLAYER1
  6
CONTINUOUS
 62
     3
 10
106.928952
 20
164.991319
 30
0.0
  0
VERTEX
  8
CSLAYER1
  6
CONTINUOUS
 62
     3
 10
106.941897
 20
164.973987
 30
0.0
  0
VERTEX
  8
CSLAYER1
  6
CONTINUOUS
 62
     3
 10
106.955548
 20
164.958977
 30
0.0
  0
VERTEX
  8
CSLAYER1
  6
CONTINUOUS
 62
     3
 10
106.969802
 20
164.946404
 30
0.0
  0
VERTEX
  8
CSLAYER1
  6
CONTINUOUS
 62
     3
 10
106.984549
 20
164.936363
 30
0.0
  0
VERTEX
  8
CSLAYER1
  6
CONTINUOUS
 62
     3
 10
106.999678
 20
164.928931
 30
0.0
  0
VERTEX
  8
CSLAYER1
  6
CONTINUOUS
 62
     3
 10
107.015073
 20
164.924165
 30
0.0
  0
VERTEX
  8
CSLAYER1
  6
CONTINUOUS
 62
     3
 10
107.030617
 20
164.922100
 30
0.0
  0
VERTEX
  8
CSLAYER1
  6
CONTINUOUS
 62
     3
 10
107.046192
 20
164.922752
 30
0.0
  0
VERTEX
  8
CSLAYER1
  6
CONTINUOUS
 62
     3
 10
107.061679
 20
164.926117
 30
0.0
  0
VERTEX
  8
CSLAYER1
  6
CONTINUOUS
 62
     3
 10
107.076961
 20
164.932169
 30
0.0
  0
VERTEX
  8
CSLAYER1
  6
CONTINUOUS
 62
     3
 10
107.091920
 20
164.940861
 30
0.0
  0
VERTEX
  8
CSLAYER1
  6
CONTINUOUS
 62
     3
 10
107.106445
 20
164.952128
 30
0.0
  0
VERTEX
  8
CSLAYER1
  6
CONTINUOUS
 62
     3
 10
107.120422
 20
164.965884
 30
0.0
  0
VERTEX
  8
CSLAYER1
  6
CONTINUOUS
 62
     3
 10
107.133748
 20
164.982024
 30
0.0
  0
VERTEX
  8
CSLAYER1
  6
CONTINUOUS
 62
     3
 10
107.146319
 20
165.000426
 30
0.0
  0
VERTEX
  8
CSLAYER1
  6
CONTINUOUS
 62
     3
 10
107.158040
 20
165.020948
 30
0.0
  0
VERTEX
  8
CSLAYER1
  6
CONTINUOUS
 62
     3
 10
107.168822
 20
165.043436
 30
0.0
  0
VERTEX
  8
CSLAYER1
  6
CONTINUOUS
 62
     3
 10
107.178584
 20
165.067717
 30
0.0
  0
VERTEX
  8
CSLAYER1
  6
CONTINUOUS
 62
     3
 10
107.187250
 20
165.093608
 30
0.0
  0
VERTEX
  8
CSLAYER1
  6
CONTINUOUS
 62
     3
 10
107.194755
 20
165.120911
 30
0.0
  0
VERTEX
  8
CSLAYER1
  6
CONTINUOUS
 62
     3
 10
107.201042
 20
165.149418
 30
0.0
  0
VERTEX
  8
CSLAYER1
  6
CONTINUOUS
 62
     3
 10
107.206062
 20
165.178913
 30
0.0
  0
VERTEX
  8
CSLAYER1
  6
CONTINUOUS
 62
     3
 10
107.209778
 20
165.209170
 30
0.0
  0
VERTEX
  8
CSLAYER1
  6
CONTINUOUS
 62
     3
 10
107.212161
 20
165.239960
 30
0.0
  0
VERTEX
  8
CSLAYER1
  6
CONTINUOUS
 62
     3
 10
107.213194
 20
165.271048
 30
0.0
  0
VERTEX
  8
CSLAYER1
  6
CONTINUOUS
 62
     3
 10
107.213240
 20
165.279151
 30
0.0
  0
SEQEND
  0
POLYLINE
  8
CSLAYER1
  6
CONTINUOUS
 62
     3
 66
     1
 10
0.0
 20
0.0
 30
0.0
  0
VERTEX
  8
CSLAYER1
  6
CONTINUOUS
 62
     3
 10
107.488239
 20
165.010842
 30
0.0
  0
VERTEX
  8
CSLAYER1
  6
CONTINUOUS
 62
     3
 10
107.500380
 20
164.991319
 30
0.0
  0
VERTEX
  8
CSLAYER1
  6
CONTINUOUS
 62
     3
 10
107.513325
 20
164.973987
 30
0.0
  0
VERTEX
  8
CSLAYER1
  6
CONTINUOUS
 62
     3
 10
107.526977
 20
164.958977
 30
0.0
  0
VERTEX
  8
CSLAYER1
  6
CONTINUOUS
 62
     3
 10
107.541230
 20
164.946404
 30
0.0
  0
VERTEX
  8
CSLAYER1
  6
CONTINUOUS
 62
     3
 10
107.555978
 20
164.936363
 30
0.0
  0
VERTEX
  8
CSLAYER1
  6
CONTINUOUS
 62
     3
 10
107.571106
 20
164.928931
 30
0.0
  0
VERTEX
  8
CSLAYER1
  6
CONTINUOUS
 62
     3
 10
107.586501
 20
164.924165
 30
0.0
  0
VERTEX
  8
CSLAYER1
  6
CONTINUOUS
 62
     3
 10
107.602045
 20
164.922100
 30
0.0
  0
VERTEX
  8
CSLAYER1
  6
CONTINUOUS
 62
     3
 10
107.617620
 20
164.922752
 30
0.0
  0
VERTEX
  8
CSLAYER1
  6
CONTINUOUS
 62
     3
 10
107.633108
 20
164.926117
 30
0.0
  0
VERTEX
  8
CSLAYER1
  6
CONTINUOUS
 62
     3
 10
107.648389
 20
164.932169
 30
0.0
  0
VERTEX
  8
CSLAYER1
  6
CONTINUOUS
 62
     3
 10
107.663349
 20
164.940861
 30
0.0
  0
VERTEX
  8
CSLAYER1
  6
CONTINUOUS
 62
     3
 10
107.677873
 20
164.952128
 30
0.0
  0
VERTEX
  8
CSLAYER1
  6
CONTINUOUS
 62
     3
 10
107.691851
 20
164.965884
 30
0.0
  0
VERTEX
  8
CSLAYER1
  6
CONTINUOUS
 62
     3
 10
107.705176
 20
164.982024
 30
0.0
  0
VERTEX
  8
CSLAYER1
  6
CONTINUOUS
 62
     3
 10
107.717747
 20
165.000426
 30
0.0
  0
VERTEX
  8
CSLAYER1
  6
CONTINUOUS
 62
     3
 10
107.729469
 20
165.020948
 30
0.0
  0
VERTEX
  8
CSLAYER1
  6
CONTINUOUS
 62
     3
 10
107.740251
 20
165.043436
 30
0.0
  0
VERTEX
  8
CSLAYER1
  6
CONTINUOUS
 62
     3
 10
107.750012
 20
165.067717
 30
0.0
  0
VERTEX
  8
CSLAYER1
  6
CONTINUOUS
 62
     3
 10
107.758679
 20
165.093608
 30
0.0
  0
VERTEX
  8
CSLAYER1
  6
CONTINUOUS
 62
     3
 10
107.766184
 20
165.120911
 30
0.0
  0
VERTEX
  8
CSLAYER1
  6
CONTINUOUS
 62
     3
 10
107.772470
 20
165.149418
 30
0.0
  0
VERTEX
  8
CSLAYER1
  6
CONTINUOUS
 62
     3
 10
107.777491
 20
165.178913
 30
0.0
  0
VERTEX
  8
CSLAYER1
  6
CONTINUOUS
 62
     3
 10
107.781206
 20
165.209170
 30
0.0
  0
VERTEX
  8
CSLAYER1
  6
CONTINUOUS
 62
     3
 10
107.783590
 20
165.239960
 30
0.0
  0
VERTEX
  8
CSLAYER1
  6
CONTINUOUS
 62
     3
 10
107.784622
 20
165.271048
 30
0.0
  0
VERTEX
  8
CSLAYER1
  6
CONTINUOUS
 62
     3
 10
107.784668
 20
165.279151
 30
0.0
  0
SEQEND
  0
POLYLINE
  8
CSLAYER1
  6
CONTINUOUS
 62
     3
 66
     1
 10
0.0
 20
0.0
 30
0.0
  0
VERTEX
  8
CSLAYER1
  6
CONTINUOUS
 62
     3
 10
108.059668
 20
165.010842
 30
0.0
  0
VERTEX
  8
CSLAYER1
  6
CONTINUOUS
 62
     3
 10
108.071809
 20
164.991319
 30
0.0
  0
VERTEX
  8
CSLAYER1
  6
CONTINUOUS
 62
     3
 10
108.084754
 20
164.973987
 30
0.0
  0
VERTEX
  8
CSLAYER1
  6
CONTINUOUS
 62
     3
 10
108.098405
 20
164.958977
 30
0.0
  0
VERTEX
  8
CSLAYER1
  6
CONTINUOUS
 62
     3
 10
108.112659
 20
164.946404
 30
0.0
  0
VERTEX
  8
CSLAYER1
  6
CONTINUOUS
 62
     3
 10
108.127406
 20
164.936363
 30
0.0
  0
VERTEX
  8
CSLAYER1
  6
CONTINUOUS
 62
     3
 10
108.142535
 20
164.928931
 30
0.0
  0
VERTEX
  8
CSLAYER1
  6
CONTINUOUS
 62
     3
 10
108.157930
 20
164.924165
 30
0.0
  0
VERTEX
  8
CSLAYER1
  6
CONTINUOUS
 62
     3
 10
108.173474
 20
164.922100
 30
0.0
  0
VERTEX
  8
CSLAYER1
  6
CONTINUOUS
 62
     3
 10
108.189049
 20
164.922752
 30
0.0
  0
VERTEX
  8
CSLAYER1
  6
CONTINUOUS
 62
     3
 10
108.204536
 20
164.926117
 30
0.0
  0
VERTEX
  8
CSLAYER1
  6
CONTINUOUS
 62
     3
 10
108.219818
 20
164.932169
 30
0.0
  0
VERTEX
  8
CSLAYER1
  6
CONTINUOUS
 62
     3
 10
108.234778
 20
164.940861
 30
0.0
  0
VERTEX
  8
CSLAYER1
  6
CONTINUOUS
 62
     3
 10
108.249302
 20
164.952128
 30
0.0
  0
VERTEX
  8
CSLAYER1
  6
CONTINUOUS
 62
     3
 10
108.263279
 20
164.965884
 30
0.0
  0
VERTEX
  8
CSLAYER1
  6
CONTINUOUS
 62
     3
 10
108.276605
 20
164.982024
 30
0.0
  0
VERTEX
  8
CSLAYER1
  6
CONTINUOUS
 62
     3
 10
108.289176
 20
165.000426
 30
0.0
  0
VERTEX
  8
CSLAYER1
  6
CONTINUOUS
 62
     3
 10
108.300897
 20
165.020948
 30
0.0
  0
VERTEX
  8
CSLAYER1
  6
CONTINUOUS
 62
     3
 10
108.311680
 20
165.043436
 30
0.0
  0
VERTEX
  8
CSLAYER1
  6
CONTINUOUS
 62
     3
 10
108.321441
 20
165.067717
 30
0.0
  0
VERTEX
  8
CSLAYER1
  6
CONTINUOUS
 62
     3
 10
108.330107
 20
165.093608
 30
0.0
  0
VERTEX
  8
CSLAYER1
  6
CONTINUOUS
 62
     3
 10
108.337612
 20
165.120911
 30
0.0
  0
VERTEX
  8
CSLAYER1
  6
CONTINUOUS
 62
     3
 10
108.343899
 20
165.149418
 30
0.0
  0
VERTEX
  8
CSLAYER1
  6
CONTINUOUS
 62
     3
 10
108.348919
 20
165.178913
 30
0.0
  0
VERTEX
  8
CSLAYER1
  6
CONTINUOUS
 62
     3
 10
108.352635
 20
165.209170
 30
0.0
  0
VERTEX
  8
CSLAYER1
  6
CONTINUOUS
 62
     3
 10
108.355018
 20
165.239960
 30
0.0
  0
VERTEX
  8
CSLAYER1
  6
CONTINUOUS
 62
     3
 10
108.356051
 20
165.271048
 30
0.0
  0
VERTEX
  8
CSLAYER1
  6
CONTINUOUS
 62
     3
 10
108.356097
 20
165.279151
 30
0.0
  0
SEQEND
  0
POLYLINE
  8
CSLAYER1
  6
CONTINUOUS
 62
     3
 66
     1
 10
0.0
 20
0.0
 30
0.0
  0
VERTEX
  8
CSLAYER1
  6
CONTINUOUS
 62
     3
 10
108.631096
 20
165.010842
 30
0.0
  0
VERTEX
  8
CSLAYER1
  6
CONTINUOUS
 62
     3
 10
108.643237
 20
164.991319
 30
0.0
  0
VERTEX
  8
CSLAYER1
  6
CONTINUOUS
 62
     3
 10
108.656183
 20
164.973987
 30
0.0
  0
VERTEX
  8
CSLAYER1
  6
CONTINUOUS
 62
     3
 10
108.669834
 20
164.958977
 30
0.0
  0
VERTEX
  8
CSLAYER1
  6
CONTINUOUS
 62
     3
 10
108.684088
 20
164.946404
 30
0.0
  0
VERTEX
  8
CSLAYER1
  6
CONTINUOUS
 62
     3
 10
108.698835
 20
164.936363
 30
0.0
  0
VERTEX
  8
CSLAYER1
  6
CONTINUOUS
 62
     3
 10
108.713963
 20
164.928931
 30
0.0
  0
VERTEX
  8
CSLAYER1
  6
CONTINUOUS
 62
     3
 10
108.729358
 20
164.924165
 30
0.0
  0
VERTEX
  8
CSLAYER1
  6
CONTINUOUS
 62
     3
 10
108.744903
 20
164.922100
 30
0.0
  0
VERTEX
  8
CSLAYER1
  6
CONTINUOUS
 62
     3
 10
108.760477
 20
164.922752
 30
0.0
  0
VERTEX
  8
CSLAYER1
  6
CONTINUOUS
 62
     3
 10
108.775965
 20
164.926117
 30
0.0
  0
VERTEX
  8
CSLAYER1
  6
CONTINUOUS
 62
     3
 10
108.791246
 20
164.932169
 30
0.0
  0
VERTEX
  8
CSLAYER1
  6
CONTINUOUS
 62
     3
 10
108.806206
 20
164.940861
 30
0.0
  0
VERTEX
  8
CSLAYER1
  6
CONTINUOUS
 62
     3
 10
108.820730
 20
164.952128
 30
0.0
  0
VERTEX
  8
CSLAYER1
  6
CONTINUOUS
 62
     3
 10
108.834708
 20
164.965884
 30
0.0
  0
VERTEX
  8
CSLAYER1
  6
CONTINUOUS
 62
     3
 10
108.848033
 20
164.982024
 30
0.0
  0
VERTEX
  8
CSLAYER1
  6
CONTINUOUS
 62
     3
 10
108.860604
 20
165.000426
 30
0.0
  0
VERTEX
  8
CSLAYER1
  6
CONTINUOUS
 62
     3
 10
108.872326
 20
165.020948
 30
0.0
  0
VERTEX
  8
CSLAYER1
  6
CONTINUOUS
 62
     3
 10
108.883108
 20
165.043436
 30
0.0
  0
VERTEX
  8
CSLAYER1
  6
CONTINUOUS
 62
     3
 10
108.892870
 20
165.067717
 30
0.0
  0
VERTEX
  8
CSLAYER1
  6
CONTINUOUS
 62
     3
 10
108.901536
 20
165.093608
 30
0.0
  0
VERTEX
  8
CSLAYER1
  6
CONTINUOUS
 62
     3
 10
108.909041
 20
165.120911
 30
0.0
  0
VERTEX
  8
CSLAYER1
  6
CONTINUOUS
 62
     3
 10
108.915327
 20
165.149418
 30
0.0
  0
VERTEX
  8
CSLAYER1
  6
CONTINUOUS
 62
     3
 10
108.920348
 20
165.178913
 30
0.0
  0
VERTEX
  8
CSLAYER1
  6
CONTINUOUS
 62
     3
 10
108.924064
 20
165.209170
 30
0.0
  0
VERTEX
  8
CSLAYER1
  6
CONTINUOUS
 62
     3
 10
108.926447
 20
165.239960
 30
0.0
  0
VERTEX
  8
CSLAYER1
  6
CONTINUOUS
 62
     3
 10
108.927479
 20
165.271048
 30
0.0
  0
VERTEX
  8
CSLAYER1
  6
CONTINUOUS
 62
     3
 10
108.927525
 20
165.279151
 30
0.0
  0
SEQEND
  0
POLYLINE
  8
CSLAYER1
  6
CONTINUOUS
 62
     3
 66
     1
 10
0.0
 20
0.0
 30
0.0
  0
VERTEX
  8
CSLAYER1
  6
CONTINUOUS
 62
     3
 10
108.845382
 20
165.010842
 30
0.0
  0
VERTEX
  8
CSLAYER1
  6
CONTINUOUS
 62
     3
 10
108.857523
 20
164.991319
 30
0.0
  0
VERTEX
  8
CSLAYER1
  6
CONTINUOUS
 62
     3
 10
108.870468
 20
164.973987
 30
0.0
  0
VERTEX
  8
CSLAYER1
  6
CONTINUOUS
 62
     3
 10
108.884120
 20
164.958977
 30
0.0
  0
VERTEX
  8
CSLAYER1
  6
CONTINUOUS
 62
     3
 10
108.898373
 20
164.946404
 30
0.0
  0
VERTEX
  8
CSLAYER1
  6
CONTINUOUS
 62
     3
 10
108.913121
 20
164.936363
 30
0.0
  0
VERTEX
  8
CSLAYER1
  6
CONTINUOUS
 62
     3
 10
108.928249
 20
164.928931
 30
0.0
  0
VERTEX
  8
CSLAYER1
  6
CONTINUOUS
 62
     3
 10
108.943644
 20
164.924165
 30
0.0
  0
VERTEX
  8
CSLAYER1
  6
CONTINUOUS
 62
     3
 10
108.959188
 20
164.922100
 30
0.0
  0
VERTEX
  8
CSLAYER1
  6
CONTINUOUS
 62
     3
 10
108.974763
 20
164.922752
 30
0.0
  0
VERTEX
  8
CSLAYER1
  6
CONTINUOUS
 62
     3
 10
108.990250
 20
164.926117
 30
0.0
  0
VERTEX
  8
CSLAYER1
  6
CONTINUOUS
 62
     3
 10
109.005532
 20
164.932169
 30
0.0
  0
VERTEX
  8
CSLAYER1
  6
CONTINUOUS
 62
     3
 10
109.020492
 20
164.940861
 30
0.0
  0
VERTEX
  8
CSLAYER1
  6
CONTINUOUS
 62
     3
 10
109.035016
 20
164.952128
 30
0.0
  0
VERTEX
  8
CSLAYER1
  6
CONTINUOUS
 62
     3
 10
109.048994
 20
164.965884
 30
0.0
  0
VERTEX
  8
CSLAYER1
  6
CONTINUOUS
 62
     3
 10
109.062319
 20
164.982024
 30
0.0
  0
VERTEX
  8
CSLAYER1
  6
CONTINUOUS
 62
     3
 10
109.074890
 20
165.000426
 30
0.0
  0
VERTEX
  8
CSLAYER1
  6
CONTINUOUS
 62
     3
 10
109.086611
 20
165.020948
 30
0.0
  0
VERTEX
  8
CSLAYER1
  6
CONTINUOUS
 62
     3
 10
109.097394
 20
165.043436
 30
0.0
  0
VERTEX
  8
CSLAYER1
  6
CONTINUOUS
 62
     3
 10
109.107155
 20
165.067717
 30
0.0
  0
VERTEX
  8
CSLAYER1
  6
CONTINUOUS
 62
     3
 10
109.115822
 20
165.093608
 30
0.0
  0
VERTEX
  8
CSLAYER1
  6
CONTINUOUS
 62
     3
 10
109.123326
 20
165.120911
 30
0.0
  0
VERTEX
  8
CSLAYER1
  6
CONTINUOUS
 62
     3
 10
109.129613
 20
165.149418
 30
0.0
  0
VERTEX
  8
CSLAYER1
  6
CONTINUOUS
 62
     3
 10
109.134633
 20
165.178913
 30
0.0
  0
VERTEX
  8
CSLAYER1
  6
CONTINUOUS
 62
     3
 10
109.138349
 20
165.209170
 30
0.0
  0
VERTEX
  8
CSLAYER1
  6
CONTINUOUS
 62
     3
 10
109.140733
 20
165.239960
 30
0.0
  0
VERTEX
  8
CSLAYER1
  6
CONTINUOUS
 62
     3
 10
109.141765
 20
165.271048
 30
0.0
  0
VERTEX
  8
CSLAYER1
  6
CONTINUOUS
 62
     3
 10
109.141811
 20
165.279151
 30
0.0
  0
SEQEND
  0
POLYLINE
  8
CSLAYER1
  6
CONTINUOUS
 62
     3
 66
     1
 10
0.0
 20
0.0
 30
0.0
  0
VERTEX
  8
CSLAYER1
  6
CONTINUOUS
 62
     3
 10
108.631096
 20
165.010842
 30
0.0
  0
VERTEX
  8
CSLAYER1
  6
CONTINUOUS
 62
     3
 10
108.643237
 20
164.991319
 30
0.0
  0
VERTEX
  8
CSLAYER1
  6
CONTINUOUS
 62
     3
 10
108.656183
 20
164.973987
 30
0.0
  0
VERTEX
  8
CSLAYER1
  6
CONTINUOUS
 62
     3
 10
108.669834
 20
164.958977
 30
0.0
  0
VERTEX
  8
CSLAYER1
  6
CONTINUOUS
 62
     3
 10
108.684088
 20
164.946404
 30
0.0
  0
VERTEX
  8
CSLAYER1
  6
CONTINUOUS
 62
     3
 10
108.698835
 20
164.936363
 30
0.0
  0
VERTEX
  8
CSLAYER1
  6
CONTINUOUS
 62
     3
 10
108.713963
 20
164.928931
 30
0.0
  0
VERTEX
  8
CSLAYER1
  6
CONTINUOUS
 62
     3
 10
108.729358
 20
164.924165
 30
0.0
  0
VERTEX
  8
CSLAYER1
  6
CONTINUOUS
 62
     3
 10
108.744903
 20
164.922100
 30
0.0
  0
VERTEX
  8
CSLAYER1
  6
CONTINUOUS
 62
     3
 10
108.760477
 20
164.922752
 30
0.0
  0
VERTEX
  8
CSLAYER1
  6
CONTINUOUS
 62
     3
 10
108.775965
 20
164.926117
 30
0.0
  0
VERTEX
  8
CSLAYER1
  6
CONTINUOUS
 62
     3
 10
108.791246
 20
164.932169
 30
0.0
  0
VERTEX
  8
CSLAYER1
  6
CONTINUOUS
 62
     3
 10
108.806206
 20
164.940861
 30
0.0
  0
VERTEX
  8
CSLAYER1
  6
CONTINUOUS
 62
     3
 10
108.820730
 20
164.952128
 30
0.0
  0
VERTEX
  8
CSLAYER1
  6
CONTINUOUS
 62
     3
 10
108.834708
 20
164.965884
 30
0.0
  0
VERTEX
  8
CSLAYER1
  6
CONTINUOUS
 62
     3
 10
108.848033
 20
164.982024
 30
0.0
  0
VERTEX
  8
CSLAYER1
  6
CONTINUOUS
 62
     3
 10
108.860604
 20
165.000426
 30
0.0
  0
VERTEX
  8
CSLAYER1
  6
CONTINUOUS
 62
     3
 10
108.872326
 20
165.020948
 30
0.0
  0
VERTEX
  8
CSLAYER1
  6
CONTINUOUS
 62
     3
 10
108.883108
 20
165.043436
 30
0.0
  0
VERTEX
  8
CSLAYER1
  6
CONTINUOUS
 62
     3
 10
108.892870
 20
165.067717
 30
0.0
  0
VERTEX
  8
CSLAYER1
  6
CONTINUOUS
 62
     3
 10
108.901536
 20
165.093608
 30
0.0
  0
VERTEX
  8
CSLAYER1
  6
CONTINUOUS
 62
     3
 10
108.909041
 20
165.120911
 30
0.0
  0
VERTEX
  8
CSLAYER1
  6
CONTINUOUS
 62
     3
 10
108.915327
 20
165.149418
 30
0.0
  0
VERTEX
  8
CSLAYER1
  6
CONTINUOUS
 62
     3
 10
108.920348
 20
165.178913
 30
0.0
  0
VERTEX
  8
CSLAYER1
  6
CONTINUOUS
 62
     3
 10
108.924064
 20
165.209170
 30
0.0
  0
VERTEX
  8
CSLAYER1
  6
CONTINUOUS
 62
     3
 10
108.926447
 20
165.239960
 30
0.0
  0
VERTEX
  8
CSLAYER1
  6
CONTINUOUS
 62
     3
 10
108.927479
 20
165.271048
 30
0.0
  0
VERTEX
  8
CSLAYER1
  6
CONTINUOUS
 62
     3
 10
108.927525
 20
165.279151
 30
0.0
  0
SEQEND
  0
POLYLINE
  8
CSLAYER1
  6
CONTINUOUS
 62
     3
 66
     1
 10
0.0
 20
0.0
 30
0.0
  0
VERTEX
  8
CSLAYER1
  6
CONTINUOUS
 62
     3
 10
108.416811
 20
165.010842
 30
0.0
  0
VERTEX
  8
CSLAYER1
  6
CONTINUOUS
 62
     3
 10
108.428952
 20
164.991319
 30
0.0
  0
VERTEX
  8
CSLAYER1
  6
CONTINUOUS
 62
     3
 10
108.441897
 20
164.973987
 30
0.0
  0
VERTEX
  8
CSLAYER1
  6
CONTINUOUS
 62
     3
 10
108.455548
 20
164.958977
 30
0.0
  0
VERTEX
  8
CSLAYER1
  6
CONTINUOUS
 62
     3
 10
108.469802
 20
164.946404
 30
0.0
  0
VERTEX
  8
CSLAYER1
  6
CONTINUOUS
 62
     3
 10
108.484549
 20
164.936363
 30
0.0
  0
VERTEX
  8
CSLAYER1
  6
CONTINUOUS
 62
     3
 10
108.499678
 20
164.928931
 30
0.0
  0
VERTEX
  8
CSLAYER1
  6
CONTINUOUS
 62
     3
 10
108.515073
 20
164.924165
 30
0.0
  0
VERTEX
  8
CSLAYER1
  6
CONTINUOUS
 62
     3
 10
108.530617
 20
164.922100
 30
0.0
  0
VERTEX
  8
CSLAYER1
  6
CONTINUOUS
 62
     3
 10
108.546192
 20
164.922752
 30
0.0
  0
VERTEX
  8
CSLAYER1
  6
CONTINUOUS
 62
     3
 10
108.561679
 20
164.926117
 30
0.0
  0
VERTEX
  8
CSLAYER1
  6
CONTINUOUS
 62
     3
 10
108.576961
 20
164.932169
 30
0.0
  0
VERTEX
  8
CSLAYER1
  6
CONTINUOUS
 62
     3
 10
108.591920
 20
164.940861
 30
0.0
  0
VERTEX
  8
CSLAYER1
  6
CONTINUOUS
 62
     3
 10
108.606445
 20
164.952128
 30
0.0
  0
VERTEX
  8
CSLAYER1
  6
CONTINUOUS
 62
     3
 10
108.620422
 20
164.965884
 30
0.0
  0
VERTEX
  8
CSLAYER1
  6
CONTINUOUS
 62
     3
 10
108.633748
 20
164.982024
 30
0.0
  0
VERTEX
  8
CSLAYER1
  6
CONTINUOUS
 62
     3
 10
108.646319
 20
165.000426
 30
0.0
  0
VERTEX
  8
CSLAYER1
  6
CONTINUOUS
 62
     3
 10
108.658040
 20
165.020948
 30
0.0
  0
VERTEX
  8
CSLAYER1
  6
CONTINUOUS
 62
     3
 10
108.668822
 20
165.043436
 30
0.0
  0
VERTEX
  8
CSLAYER1
  6
CONTINUOUS
 62
     3
 10
108.678584
 20
165.067717
 30
0.0
  0
VERTEX
  8
CSLAYER1
  6
CONTINUOUS
 62
     3
 10
108.687250
 20
165.093608
 30
0.0
  0
VERTEX
  8
CSLAYER1
  6
CONTINUOUS
 62
     3
 10
108.694755
 20
165.120911
 30
0.0
  0
VERTEX
  8
CSLAYER1
  6
CONTINUOUS
 62
     3
 10
108.701042
 20
165.149418
 30
0.0
  0
VERTEX
  8
CSLAYER1
  6
CONTINUOUS
 62
     3
 10
108.706062
 20
165.178913
 30
0.0
  0
VERTEX
  8
CSLAYER1
  6
CONTINUOUS
 62
     3
 10
108.709778
 20
165.209170
 30
0.0
  0
VERTEX
  8
CSLAYER1
  6
CONTINUOUS
 62
     3
 10
108.712161
 20
165.239960
 30
0.0
  0
VERTEX
  8
CSLAYER1
  6
CONTINUOUS
 62
     3
 10
108.713194
 20
165.271048
 30
0.0
  0
VERTEX
  8
CSLAYER1
  6
CONTINUOUS
 62
     3
 10
108.713240
 20
165.279151
 30
0.0
  0
SEQEND
  0
POLYLINE
  8
CSLAYER1
  6
CONTINUOUS
 62
     3
 66
     1
 10
0.0
 20
0.0
 30
0.0
  0
VERTEX
  8
CSLAYER1
  6
CONTINUOUS
 62
     3
 10
104.427525
 20
165.279150
 30
0.0
  0
VERTEX
  8
CSLAYER1
  6
CONTINUOUS
 62
     3
 10
104.428205
 20
165.248023
 30
0.0
  0
VERTEX
  8
CSLAYER1
  6
CONTINUOUS
 62
     3
 10
104.430238
 20
165.217133
 30
0.0
  0
VERTEX
  8
CSLAYER1
  6
CONTINUOUS
 62
     3
 10
104.433610
 20
165.186715
 30
0.0
  0
VERTEX
  8
CSLAYER1
  6
CONTINUOUS
 62
     3
 10
104.438294
 20
165.157000
 30
0.0
  0
VERTEX
  8
CSLAYER1
  6
CONTINUOUS
 62
     3
 10
104.444256
 20
165.128215
 30
0.0
  0
VERTEX
  8
CSLAYER1
  6
CONTINUOUS
 62
     3
 10
104.451449
 20
165.100579
 30
0.0
  0
VERTEX
  8
CSLAYER1
  6
CONTINUOUS
 62
     3
 10
104.459820
 20
165.074302
 30
0.0
  0
VERTEX
  8
CSLAYER1
  6
CONTINUOUS
 62
     3
 10
104.469303
 20
165.049583
 30
0.0
  0
VERTEX
  8
CSLAYER1
  6
CONTINUOUS
 62
     3
 10
104.479828
 20
165.026612
 30
0.0
  0
VERTEX
  8
CSLAYER1
  6
CONTINUOUS
 62
     3
 10
104.491313
 20
165.005563
 30
0.0
  0
VERTEX
  8
CSLAYER1
  6
CONTINUOUS
 62
     3
 10
104.503672
 20
164.986596
 30
0.0
  0
VERTEX
  8
CSLAYER1
  6
CONTINUOUS
 62
     3
 10
104.516811
 20
164.969856
 30
0.0
  0
VERTEX
  8
CSLAYER1
  6
CONTINUOUS
 62
     3
 10
104.530629
 20
164.955469
 30
0.0
  0
VERTEX
  8
CSLAYER1
  6
CONTINUOUS
 62
     3
 10
104.545022
 20
164.943546
 30
0.0
  0
VERTEX
  8
CSLAYER1
  6
CONTINUOUS
 62
     3
 10
104.559879
 20
164.934177
 30
0.0
  0
VERTEX
  8
CSLAYER1
  6
CONTINUOUS
 62
     3
 10
104.575088
 20
164.927433
 30
0.0
  0
VERTEX
  8
CSLAYER1
  6
CONTINUOUS
 62
     3
 10
104.590533
 20
164.923367
 30
0.0
  0
VERTEX
  8
CSLAYER1
  6
CONTINUOUS
 62
     3
 10
104.606097
 20
164.922008
 30
0.0
  0
VERTEX
  8
CSLAYER1
  6
CONTINUOUS
 62
     3
 10
104.621660
 20
164.923367
 30
0.0
  0
VERTEX
  8
CSLAYER1
  6
CONTINUOUS
 62
     3
 10
104.637105
 20
164.927433
 30
0.0
  0
VERTEX
  8
CSLAYER1
  6
CONTINUOUS
 62
     3
 10
104.652314
 20
164.934177
 30
0.0
  0
VERTEX
  8
CSLAYER1
  6
CONTINUOUS
 62
     3
 10
104.667172
 20
164.943546
 30
0.0
  0
VERTEX
  8
CSLAYER1
  6
CONTINUOUS
 62
     3
 10
104.681564
 20
164.955469
 30
0.0
  0
VERTEX
  8
CSLAYER1
  6
CONTINUOUS
 62
     3
 10
104.695382
 20
164.969856
 30
0.0
  0
VERTEX
  8
CSLAYER1
  6
CONTINUOUS
 62
     3
 10
104.708521
 20
164.986596
 30
0.0
  0
VERTEX
  8
CSLAYER1
  6
CONTINUOUS
 62
     3
 10
104.719200
 20
165.002779
 30
0.0
  0
SEQEND
  0
POLYLINE
  8
CSLAYER1
  6
CONTINUOUS
 62
     3
 66
     1
 10
0.0
 20
0.0
 30
0.0
  0
VERTEX
  8
CSLAYER1
  6
CONTINUOUS
 62
     3
 10
104.070382
 20
165.279151
 30
0.0
  0
VERTEX
  8
CSLAYER1
  6
CONTINUOUS
 62
     3
 10
104.071062
 20
165.248024
 30
0.0
  0
VERTEX
  8
CSLAYER1
  6
CONTINUOUS
 62
     3
 10
104.073095
 20
165.217133
 30
0.0
  0
VERTEX
  8
CSLAYER1
  6
CONTINUOUS
 62
     3
 10
104.076467
 20
165.186715
 30
0.0
  0
VERTEX
  8
CSLAYER1
  6
CONTINUOUS
 62
     3
 10
104.081152
 20
165.157001
 30
0.0
  0
VERTEX
  8
CSLAYER1
  6
CONTINUOUS
 62
     3
 10
104.087113
 20
165.128216
 30
0.0
  0
VERTEX
  8
CSLAYER1
  6
CONTINUOUS
 62
     3
 10
104.094306
 20
165.100579
 30
0.0
  0
VERTEX
  8
CSLAYER1
  6
CONTINUOUS
 62
     3
 10
104.102677
 20
165.074302
 30
0.0
  0
VERTEX
  8
CSLAYER1
  6
CONTINUOUS
 62
     3
 10
104.112160
 20
165.049584
 30
0.0
  0
VERTEX
  8
CSLAYER1
  6
CONTINUOUS
 62
     3
 10
104.122685
 20
165.026613
 30
0.0
  0
VERTEX
  8
CSLAYER1
  6
CONTINUOUS
 62
     3
 10
104.134170
 20
165.005563
 30
0.0
  0
VERTEX
  8
CSLAYER1
  6
CONTINUOUS
 62
     3
 10
104.146530
 20
164.986596
 30
0.0
  0
VERTEX
  8
CSLAYER1
  6
CONTINUOUS
 62
     3
 10
104.159668
 20
164.969856
 30
0.0
  0
VERTEX
  8
CSLAYER1
  6
CONTINUOUS
 62
     3
 10
104.173486
 20
164.955469
 30
0.0
  0
VERTEX
  8
CSLAYER1
  6
CONTINUOUS
 62
     3
 10
104.187879
 20
164.943546
 30
0.0
  0
VERTEX
  8
CSLAYER1
  6
CONTINUOUS
 62
     3
 10
104.202736
 20
164.934177
 30
0.0
  0
VERTEX
  8
CSLAYER1
  6
CONTINUOUS
 62
     3
 10
104.217945
 20
164.927434
 30
0.0
  0
VERTEX
  8
CSLAYER1
  6
CONTINUOUS
 62
     3
 10
104.233390
 20
164.923367
 30
0.0
  0
VERTEX
  8
CSLAYER1
  6
CONTINUOUS
 62
     3
 10
104.248954
 20
164.922008
 30
0.0
  0
VERTEX
  8
CSLAYER1
  6
CONTINUOUS
 62
     3
 10
104.264517
 20
164.923367
 30
0.0
  0
VERTEX
  8
CSLAYER1
  6
CONTINUOUS
 62
     3
 10
104.279962
 20
164.927434
 30
0.0
  0
VERTEX
  8
CSLAYER1
  6
CONTINUOUS
 62
     3
 10
104.295172
 20
164.934177
 30
0.0
  0
VERTEX
  8
CSLAYER1
  6
CONTINUOUS
 62
     3
 10
104.310029
 20
164.943546
 30
0.0
  0
VERTEX
  8
CSLAYER1
  6
CONTINUOUS
 62
     3
 10
104.324421
 20
164.955469
 30
0.0
  0
VERTEX
  8
CSLAYER1
  6
CONTINUOUS
 62
     3
 10
104.338240
 20
164.969856
 30
0.0
  0
VERTEX
  8
CSLAYER1
  6
CONTINUOUS
 62
     3
 10
104.351378
 20
164.986596
 30
0.0
  0
VERTEX
  8
CSLAYER1
  6
CONTINUOUS
 62
     3
 10
104.363737
 20
165.005563
 30
0.0
  0
VERTEX
  8
CSLAYER1
  6
CONTINUOUS
 62
     3
 10
104.366811
 20
165.010842
 30
0.0
  0
SEQEND
  0
POLYLINE
  8
CSLAYER1
  6
CONTINUOUS
 62
     3
 66
     1
 10
0.0
 20
0.0
 30
0.0
  0
VERTEX
  8
CSLAYER1
  6
CONTINUOUS
 62
     3
 10
103.570382
 20
165.279151
 30
0.0
  0
VERTEX
  8
CSLAYER1
  6
CONTINUOUS
 62
     3
 10
103.571062
 20
165.248024
 30
0.0
  0
VERTEX
  8
CSLAYER1
  6
CONTINUOUS
 62
     3
 10
103.573095
 20
165.217133
 30
0.0
  0
VERTEX
  8
CSLAYER1
  6
CONTINUOUS
 62
     3
 10
103.576467
 20
165.186715
 30
0.0
  0
VERTEX
  8
CSLAYER1
  6
CONTINUOUS
 62
     3
 10
103.581152
 20
165.157001
 30
0.0
  0
VERTEX
  8
CSLAYER1
  6
CONTINUOUS
 62
     3
 10
103.587113
 20
165.128216
 30
0.0
  0
VERTEX
  8
CSLAYER1
  6
CONTINUOUS
 62
     3
 10
103.594306
 20
165.100579
 30
0.0
  0
VERTEX
  8
CSLAYER1
  6
CONTINUOUS
 62
     3
 10
103.602677
 20
165.074302
 30
0.0
  0
VERTEX
  8
CSLAYER1
  6
CONTINUOUS
 62
     3
 10
103.612160
 20
165.049584
 30
0.0
  0
VERTEX
  8
CSLAYER1
  6
CONTINUOUS
 62
     3
 10
103.622685
 20
165.026613
 30
0.0
  0
VERTEX
  8
CSLAYER1
  6
CONTINUOUS
 62
     3
 10
103.634170
 20
165.005563
 30
0.0
  0
VERTEX
  8
CSLAYER1
  6
CONTINUOUS
 62
     3
 10
103.646530
 20
164.986596
 30
0.0
  0
VERTEX
  8
CSLAYER1
  6
CONTINUOUS
 62
     3
 10
103.659668
 20
164.969856
 30
0.0
  0
VERTEX
  8
CSLAYER1
  6
CONTINUOUS
 62
     3
 10
103.673486
 20
164.955469
 30
0.0
  0
VERTEX
  8
CSLAYER1
  6
CONTINUOUS
 62
     3
 10
103.687879
 20
164.943546
 30
0.0
  0
VERTEX
  8
CSLAYER1
  6
CONTINUOUS
 62
     3
 10
103.702736
 20
164.934177
 30
0.0
  0
VERTEX
  8
CSLAYER1
  6
CONTINUOUS
 62
     3
 10
103.717945
 20
164.927434
 30
0.0
  0
VERTEX
  8
CSLAYER1
  6
CONTINUOUS
 62
     3
 10
103.733390
 20
164.923367
 30
0.0
  0
VERTEX
  8
CSLAYER1
  6
CONTINUOUS
 62
     3
 10
103.748954
 20
164.922008
 30
0.0
  0
VERTEX
  8
CSLAYER1
  6
CONTINUOUS
 62
     3
 10
103.764517
 20
164.923367
 30
0.0
  0
VERTEX
  8
CSLAYER1
  6
CONTINUOUS
 62
     3
 10
103.779962
 20
164.927434
 30
0.0
  0
VERTEX
  8
CSLAYER1
  6
CONTINUOUS
 62
     3
 10
103.795172
 20
164.934177
 30
0.0
  0
VERTEX
  8
CSLAYER1
  6
CONTINUOUS
 62
     3
 10
103.810029
 20
164.943546
 30
0.0
  0
VERTEX
  8
CSLAYER1
  6
CONTINUOUS
 62
     3
 10
103.824421
 20
164.955469
 30
0.0
  0
VERTEX
  8
CSLAYER1
  6
CONTINUOUS
 62
     3
 10
103.838240
 20
164.969856
 30
0.0
  0
VERTEX
  8
CSLAYER1
  6
CONTINUOUS
 62
     3
 10
103.851378
 20
164.986596
 30
0.0
  0
VERTEX
  8
CSLAYER1
  6
CONTINUOUS
 62
     3
 10
103.863737
 20
165.005563
 30
0.0
  0
VERTEX
  8
CSLAYER1
  6
CONTINUOUS
 62
     3
 10
103.866811
 20
165.010842
 30
0.0
  0
SEQEND
  0
POLYLINE
  8
CSLAYER1
  6
CONTINUOUS
 62
     3
 66
     1
 10
0.0
 20
0.0
 30
0.0
  0
VERTEX
  8
CSLAYER1
  6
CONTINUOUS
 62
     3
 10
103.070382
 20
165.279151
 30
0.0
  0
VERTEX
  8
CSLAYER1
  6
CONTINUOUS
 62
     3
 10
103.071062
 20
165.248024
 30
0.0
  0
VERTEX
  8
CSLAYER1
  6
CONTINUOUS
 62
     3
 10
103.073095
 20
165.217133
 30
0.0
  0
VERTEX
  8
CSLAYER1
  6
CONTINUOUS
 62
     3
 10
103.076467
 20
165.186715
 30
0.0
  0
VERTEX
  8
CSLAYER1
  6
CONTINUOUS
 62
     3
 10
103.081152
 20
165.157001
 30
0.0
  0
VERTEX
  8
CSLAYER1
  6
CONTINUOUS
 62
     3
 10
103.087113
 20
165.128216
 30
0.0
  0
VERTEX
  8
CSLAYER1
  6
CONTINUOUS
 62
     3
 10
103.094306
 20
165.100579
 30
0.0
  0
VERTEX
  8
CSLAYER1
  6
CONTINUOUS
 62
     3
 10
103.102677
 20
165.074302
 30
0.0
  0
VERTEX
  8
CSLAYER1
  6
CONTINUOUS
 62
     3
 10
103.112160
 20
165.049584
 30
0.0
  0
VERTEX
  8
CSLAYER1
  6
CONTINUOUS
 62
     3
 10
103.122685
 20
165.026613
 30
0.0
  0
VERTEX
  8
CSLAYER1
  6
CONTINUOUS
 62
     3
 10
103.134170
 20
165.005563
 30
0.0
  0
VERTEX
  8
CSLAYER1
  6
CONTINUOUS
 62
     3
 10
103.146530
 20
164.986596
 30
0.0
  0
VERTEX
  8
CSLAYER1
  6
CONTINUOUS
 62
     3
 10
103.159668
 20
164.969856
 30
0.0
  0
VERTEX
  8
CSLAYER1
  6
CONTINUOUS
 62
     3
 10
103.173486
 20
164.955469
 30
0.0
  0
VERTEX
  8
CSLAYER1
  6
CONTINUOUS
 62
     3
 10
103.187879
 20
164.943546
 30
0.0
  0
VERTEX
  8
CSLAYER1
  6
CONTINUOUS
 62
     3
 10
103.202736
 20
164.934177
 30
0.0
  0
VERTEX
  8
CSLAYER1
  6
CONTINUOUS
 62
     3
 10
103.217945
 20
164.927434
 30
0.0
  0
VERTEX
  8
CSLAYER1
  6
CONTINUOUS
 62
     3
 10
103.233390
 20
164.923367
 30
0.0
  0
VERTEX
  8
CSLAYER1
  6
CONTINUOUS
 62
     3
 10
103.248954
 20
164.922008
 30
0.0
  0
VERTEX
  8
CSLAYER1
  6
CONTINUOUS
 62
     3
 10
103.264517
 20
164.923367
 30
0.0
  0
VERTEX
  8
CSLAYER1
  6
CONTINUOUS
 62
     3
 10
103.279962
 20
164.927434
 30
0.0
  0
VERTEX
  8
CSLAYER1
  6
CONTINUOUS
 62
     3
 10
103.295172
 20
164.934177
 30
0.0
  0
VERTEX
  8
CSLAYER1
  6
CONTINUOUS
 62
     3
 10
103.310029
 20
164.943546
 30
0.0
  0
VERTEX
  8
CSLAYER1
  6
CONTINUOUS
 62
     3
 10
103.324421
 20
164.955469
 30
0.0
  0
VERTEX
  8
CSLAYER1
  6
CONTINUOUS
 62
     3
 10
103.338240
 20
164.969856
 30
0.0
  0
VERTEX
  8
CSLAYER1
  6
CONTINUOUS
 62
     3
 10
103.351378
 20
164.986596
 30
0.0
  0
VERTEX
  8
CSLAYER1
  6
CONTINUOUS
 62
     3
 10
103.363737
 20
165.005563
 30
0.0
  0
VERTEX
  8
CSLAYER1
  6
CONTINUOUS
 62
     3
 10
103.366811
 20
165.010842
 30
0.0
  0
SEQEND
  0
POLYLINE
  8
CSLAYER1
  6
CONTINUOUS
 62
     3
 66
     1
 10
0.0
 20
0.0
 30
0.0
  0
VERTEX
  8
CSLAYER1
  6
CONTINUOUS
 62
     3
 10
102.498954
 20
165.279151
 30
0.0
  0
VERTEX
  8
CSLAYER1
  6
CONTINUOUS
 62
     3
 10
102.499633
 20
165.248024
 30
0.0
  0
VERTEX
  8
CSLAYER1
  6
CONTINUOUS
 62
     3
 10
102.501667
 20
165.217133
 30
0.0
  0
VERTEX
  8
CSLAYER1
  6
CONTINUOUS
 62
     3
 10
102.505039
 20
165.186715
 30
0.0
  0
VERTEX
  8
CSLAYER1
  6
CONTINUOUS
 62
     3
 10
102.509723
 20
165.157001
 30
0.0
  0
VERTEX
  8
CSLAYER1
  6
CONTINUOUS
 62
     3
 10
102.515685
 20
165.128216
 30
0.0
  0
VERTEX
  8
CSLAYER1
  6
CONTINUOUS
 62
     3
 10
102.522878
 20
165.100579
 30
0.0
  0
VERTEX
  8
CSLAYER1
  6
CONTINUOUS
 62
     3
 10
102.531248
 20
165.074302
 30
0.0
  0
VERTEX
  8
CSLAYER1
  6
CONTINUOUS
 62
     3
 10
102.540732
 20
165.049584
 30
0.0
  0
VERTEX
  8
CSLAYER1
  6
CONTINUOUS
 62
     3
 10
102.551256
 20
165.026613
 30
0.0
  0
VERTEX
  8
CSLAYER1
  6
CONTINUOUS
 62
     3
 10
102.562742
 20
165.005563
 30
0.0
  0
VERTEX
  8
CSLAYER1
  6
CONTINUOUS
 62
     3
 10
102.575101
 20
164.986596
 30
0.0
  0
VERTEX
  8
CSLAYER1
  6
CONTINUOUS
 62
     3
 10
102.588240
 20
164.969856
 30
0.0
  0
VERTEX
  8
CSLAYER1
  6
CONTINUOUS
 62
     3
 10
102.602058
 20
164.955469
 30
0.0
  0
VERTEX
  8
CSLAYER1
  6
CONTINUOUS
 62
     3
 10
102.616450
 20
164.943546
 30
0.0
  0
VERTEX
  8
CSLAYER1
  6
CONTINUOUS
 62
     3
 10
102.631308
 20
164.934177
 30
0.0
  0
VERTEX
  8
CSLAYER1
  6
CONTINUOUS
 62
     3
 10
102.646517
 20
164.927434
 30
0.0
  0
VERTEX
  8
CSLAYER1
  6
CONTINUOUS
 62
     3
 10
102.661962
 20
164.923367
 30
0.0
  0
VERTEX
  8
CSLAYER1
  6
CONTINUOUS
 62
     3
 10
102.677525
 20
164.922008
 30
0.0
  0
VERTEX
  8
CSLAYER1
  6
CONTINUOUS
 62
     3
 10
102.693089
 20
164.923367
 30
0.0
  0
VERTEX
  8
CSLAYER1
  6
CONTINUOUS
 62
     3
 10
102.708534
 20
164.927434
 30
0.0
  0
VERTEX
  8
CSLAYER1
  6
CONTINUOUS
 62
     3
 10
102.723743
 20
164.934177
 30
0.0
  0
VERTEX
  8
CSLAYER1
  6
CONTINUOUS
 62
     3
 10
102.738600
 20
164.943546
 30
0.0
  0
VERTEX
  8
CSLAYER1
  6
CONTINUOUS
 62
     3
 10
102.752993
 20
164.955469
 30
0.0
  0
VERTEX
  8
CSLAYER1
  6
CONTINUOUS
 62
     3
 10
102.766811
 20
164.969856
 30
0.0
  0
VERTEX
  8
CSLAYER1
  6
CONTINUOUS
 62
     3
 10
102.779950
 20
164.986596
 30
0.0
  0
VERTEX
  8
CSLAYER1
  6
CONTINUOUS
 62
     3
 10
102.792309
 20
165.005563
 30
0.0
  0
VERTEX
  8
CSLAYER1
  6
CONTINUOUS
 62
     3
 10
102.795383
 20
165.010842
 30
0.0
  0
SEQEND
  0
POLYLINE
  8
CSLAYER1
  6
CONTINUOUS
 62
     3
 66
     1
 10
0.0
 20
0.0
 30
0.0
  0
VERTEX
  8
CSLAYER1
  6
CONTINUOUS
 62
     3
 10
101.927525
 20
165.279151
 30
0.0
  0
VERTEX
  8
CSLAYER1
  6
CONTINUOUS
 62
     3
 10
101.928205
 20
165.248024
 30
0.0
  0
VERTEX
  8
CSLAYER1
  6
CONTINUOUS
 62
     3
 10
101.930238
 20
165.217133
 30
0.0
  0
VERTEX
  8
CSLAYER1
  6
CONTINUOUS
 62
     3
 10
101.933610
 20
165.186715
 30
0.0
  0
VERTEX
  8
CSLAYER1
  6
CONTINUOUS
 62
     3
 10
101.938294
 20
165.157001
 30
0.0
  0
VERTEX
  8
CSLAYER1
  6
CONTINUOUS
 62
     3
 10
101.944256
 20
165.128216
 30
0.0
  0
VERTEX
  8
CSLAYER1
  6
CONTINUOUS
 62
     3
 10
101.951449
 20
165.100579
 30
0.0
  0
VERTEX
  8
CSLAYER1
  6
CONTINUOUS
 62
     3
 10
101.959820
 20
165.074302
 30
0.0
  0
VERTEX
  8
CSLAYER1
  6
CONTINUOUS
 62
     3
 10
101.969303
 20
165.049584
 30
0.0
  0
VERTEX
  8
CSLAYER1
  6
CONTINUOUS
 62
     3
 10
101.979828
 20
165.026613
 30
0.0
  0
VERTEX
  8
CSLAYER1
  6
CONTINUOUS
 62
     3
 10
101.991313
 20
165.005563
 30
0.0
  0
VERTEX
  8
CSLAYER1
  6
CONTINUOUS
 62
     3
 10
102.003672
 20
164.986596
 30
0.0
  0
VERTEX
  8
CSLAYER1
  6
CONTINUOUS
 62
     3
 10
102.016811
 20
164.969856
 30
0.0
  0
VERTEX
  8
CSLAYER1
  6
CONTINUOUS
 62
     3
 10
102.030629
 20
164.955469
 30
0.0
  0
VERTEX
  8
CSLAYER1
  6
CONTINUOUS
 62
     3
 10
102.045022
 20
164.943546
 30
0.0
  0
VERTEX
  8
CSLAYER1
  6
CONTINUOUS
 62
     3
 10
102.059879
 20
164.934177
 30
0.0
  0
VERTEX
  8
CSLAYER1
  6
CONTINUOUS
 62
     3
 10
102.075088
 20
164.927434
 30
0.0
  0
VERTEX
  8
CSLAYER1
  6
CONTINUOUS
 62
     3
 10
102.090533
 20
164.923367
 30
0.0
  0
VERTEX
  8
CSLAYER1
  6
CONTINUOUS
 62
     3
 10
102.106097
 20
164.922008
 30
0.0
  0
VERTEX
  8
CSLAYER1
  6
CONTINUOUS
 62
     3
 10
102.121660
 20
164.923367
 30
0.0
  0
VERTEX
  8
CSLAYER1
  6
CONTINUOUS
 62
     3
 10
102.137105
 20
164.927434
 30
0.0
  0
VERTEX
  8
CSLAYER1
  6
CONTINUOUS
 62
     3
 10
102.152314
 20
164.934177
 30
0.0
  0
VERTEX
  8
CSLAYER1
  6
CONTINUOUS
 62
     3
 10
102.167172
 20
164.943546
 30
0.0
  0
VERTEX
  8
CSLAYER1
  6
CONTINUOUS
 62
     3
 10
102.181564
 20
164.955469
 30
0.0
  0
VERTEX
  8
CSLAYER1
  6
CONTINUOUS
 62
     3
 10
102.195382
 20
164.969856
 30
0.0
  0
VERTEX
  8
CSLAYER1
  6
CONTINUOUS
 62
     3
 10
102.208521
 20
164.986596
 30
0.0
  0
VERTEX
  8
CSLAYER1
  6
CONTINUOUS
 62
     3
 10
102.220880
 20
165.005563
 30
0.0
  0
VERTEX
  8
CSLAYER1
  6
CONTINUOUS
 62
     3
 10
102.223954
 20
165.010842
 30
0.0
  0
SEQEND
  0
POLYLINE
  8
CSLAYER1
  6
CONTINUOUS
 62
     3
 66
     1
 10
0.0
 20
0.0
 30
0.0
  0
VERTEX
  8
CSLAYER1
  6
CONTINUOUS
 62
     3
 10
101.356097
 20
165.279151
 30
0.0
  0
VERTEX
  8
CSLAYER1
  6
CONTINUOUS
 62
     3
 10
101.356776
 20
165.248024
 30
0.0
  0
VERTEX
  8
CSLAYER1
  6
CONTINUOUS
 62
     3
 10
101.358810
 20
165.217133
 30
0.0
  0
VERTEX
  8
CSLAYER1
  6
CONTINUOUS
 62
     3
 10
101.362181
 20
165.186715
 30
0.0
  0
VERTEX
  8
CSLAYER1
  6
CONTINUOUS
 62
     3
 10
101.366866
 20
165.157001
 30
0.0
  0
VERTEX
  8
CSLAYER1
  6
CONTINUOUS
 62
     3
 10
101.372827
 20
165.128216
 30
0.0
  0
VERTEX
  8
CSLAYER1
  6
CONTINUOUS
 62
     3
 10
101.380021
 20
165.100579
 30
0.0
  0
VERTEX
  8
CSLAYER1
  6
CONTINUOUS
 62
     3
 10
101.388391
 20
165.074302
 30
0.0
  0
VERTEX
  8
CSLAYER1
  6
CONTINUOUS
 62
     3
 10
101.397875
 20
165.049584
 30
0.0
  0
VERTEX
  8
CSLAYER1
  6
CONTINUOUS
 62
     3
 10
101.408399
 20
165.026613
 30
0.0
  0
VERTEX
  8
CSLAYER1
  6
CONTINUOUS
 62
     3
 10
101.419885
 20
165.005563
 30
0.0
  0
VERTEX
  8
CSLAYER1
  6
CONTINUOUS
 62
     3
 10
101.432244
 20
164.986596
 30
0.0
  0
VERTEX
  8
CSLAYER1
  6
CONTINUOUS
 62
     3
 10
101.445382
 20
164.969856
 30
0.0
  0
VERTEX
  8
CSLAYER1
  6
CONTINUOUS
 62
     3
 10
101.459201
 20
164.955469
 30
0.0
  0
VERTEX
  8
CSLAYER1
  6
CONTINUOUS
 62
     3
 10
101.473593
 20
164.943546
 30
0.0
  0
VERTEX
  8
CSLAYER1
  6
CONTINUOUS
 62
     3
 10
101.488450
 20
164.934177
 30
0.0
  0
VERTEX
  8
CSLAYER1
  6
CONTINUOUS
 62
     3
 10
101.503660
 20
164.927434
 30
0.0
  0
VERTEX
  8
CSLAYER1
  6
CONTINUOUS
 62
     3
 10
101.519105
 20
164.923367
 30
0.0
  0
VERTEX
  8
CSLAYER1
  6
CONTINUOUS
 62
     3
 10
101.534668
 20
164.922008
 30
0.0
  0
VERTEX
  8
CSLAYER1
  6
CONTINUOUS
 62
     3
 10
101.550232
 20
164.923367
 30
0.0
  0
VERTEX
  8
CSLAYER1
  6
CONTINUOUS
 62
     3
 10
101.565677
 20
164.927434
 30
0.0
  0
VERTEX
  8
CSLAYER1
  6
CONTINUOUS
 62
     3
 10
101.580886
 20
164.934177
 30
0.0
  0
VERTEX
  8
CSLAYER1
  6
CONTINUOUS
 62
     3
 10
101.595743
 20
164.943546
 30
0.0
  0
VERTEX
  8
CSLAYER1
  6
CONTINUOUS
 62
     3
 10
101.610136
 20
164.955469
 30
0.0
  0
VERTEX
  8
CSLAYER1
  6
CONTINUOUS
 62
     3
 10
101.623954
 20
164.969856
 30
0.0
  0
VERTEX
  8
CSLAYER1
  6
CONTINUOUS
 62
     3
 10
101.637093
 20
164.986596
 30
0.0
  0
VERTEX
  8
CSLAYER1
  6
CONTINUOUS
 62
     3
 10
101.649452
 20
165.005563
 30
0.0
  0
VERTEX
  8
CSLAYER1
  6
CONTINUOUS
 62
     3
 10
101.652526
 20
165.010842
 30
0.0
  0
SEQEND
  0
POLYLINE
  8
CSLAYER1
  6
CONTINUOUS
 62
     3
 66
     1
 10
0.0
 20
0.0
 30
0.0
  0
VERTEX
  8
CSLAYER1
  6
CONTINUOUS
 62
     3
 10
101.141811
 20
165.279151
 30
0.0
  0
VERTEX
  8
CSLAYER1
  6
CONTINUOUS
 62
     3
 10
101.142491
 20
165.248024
 30
0.0
  0
VERTEX
  8
CSLAYER1
  6
CONTINUOUS
 62
     3
 10
101.144524
 20
165.217133
 30
0.0
  0
VERTEX
  8
CSLAYER1
  6
CONTINUOUS
 62
     3
 10
101.147896
 20
165.186715
 30
0.0
  0
VERTEX
  8
CSLAYER1
  6
CONTINUOUS
 62
     3
 10
101.152580
 20
165.157001
 30
0.0
  0
VERTEX
  8
CSLAYER1
  6
CONTINUOUS
 62
     3
 10
101.158542
 20
165.128216
 30
0.0
  0
VERTEX
  8
CSLAYER1
  6
CONTINUOUS
 62
     3
 10
101.165735
 20
165.100579
 30
0.0
  0
VERTEX
  8
CSLAYER1
  6
CONTINUOUS
 62
     3
 10
101.174105
 20
165.074302
 30
0.0
  0
VERTEX
  8
CSLAYER1
  6
CONTINUOUS
 62
     3
 10
101.183589
 20
165.049584
 30
0.0
  0
VERTEX
  8
CSLAYER1
  6
CONTINUOUS
 62
     3
 10
101.194113
 20
165.026613
 30
0.0
  0
VERTEX
  8
CSLAYER1
  6
CONTINUOUS
 62
     3
 10
101.205599
 20
165.005563
 30
0.0
  0
VERTEX
  8
CSLAYER1
  6
CONTINUOUS
 62
     3
 10
101.217958
 20
164.986596
 30
0.0
  0
VERTEX
  8
CSLAYER1
  6
CONTINUOUS
 62
     3
 10
101.231097
 20
164.969856
 30
0.0
  0
VERTEX
  8
CSLAYER1
  6
CONTINUOUS
 62
     3
 10
101.244915
 20
164.955469
 30
0.0
  0
VERTEX
  8
CSLAYER1
  6
CONTINUOUS
 62
     3
 10
101.259307
 20
164.943546
 30
0.0
  0
VERTEX
  8
CSLAYER1
  6
CONTINUOUS
 62
     3
 10
101.274165
 20
164.934177
 30
0.0
  0
VERTEX
  8
CSLAYER1
  6
CONTINUOUS
 62
     3
 10
101.289374
 20
164.927434
 30
0.0
  0
VERTEX
  8
CSLAYER1
  6
CONTINUOUS
 62
     3
 10
101.304819
 20
164.923367
 30
0.0
  0
VERTEX
  8
CSLAYER1
  6
CONTINUOUS
 62
     3
 10
101.320382
 20
164.922008
 30
0.0
  0
VERTEX
  8
CSLAYER1
  6
CONTINUOUS
 62
     3
 10
101.335946
 20
164.923367
 30
0.0
  0
VERTEX
  8
CSLAYER1
  6
CONTINUOUS
 62
     3
 10
101.351391
 20
164.927434
 30
0.0
  0
VERTEX
  8
CSLAYER1
  6
CONTINUOUS
 62
     3
 10
101.366600
 20
164.934177
 30
0.0
  0
VERTEX
  8
CSLAYER1
  6
CONTINUOUS
 62
     3
 10
101.381457
 20
164.943546
 30
0.0
  0
VERTEX
  8
CSLAYER1
  6
CONTINUOUS
 62
     3
 10
101.395850
 20
164.955469
 30
0.0
  0
VERTEX
  8
CSLAYER1
  6
CONTINUOUS
 62
     3
 10
101.409668
 20
164.969856
 30
0.0
  0
VERTEX
  8
CSLAYER1
  6
CONTINUOUS
 62
     3
 10
101.422807
 20
164.986596
 30
0.0
  0
VERTEX
  8
CSLAYER1
  6
CONTINUOUS
 62
     3
 10
101.435166
 20
165.005563
 30
0.0
  0
VERTEX
  8
CSLAYER1
  6
CONTINUOUS
 62
     3
 10
101.438240
 20
165.010842
 30
0.0
  0
SEQEND
  0
POLYLINE
  8
CSLAYER1
  6
CONTINUOUS
 62
     3
 66
     1
 10
0.0
 20
0.0
 30
0.0
  0
VERTEX
  8
CSLAYER1
  6
CONTINUOUS
 62
     3
 10
101.356097
 20
165.279151
 30
0.0
  0
VERTEX
  8
CSLAYER1
  6
CONTINUOUS
 62
     3
 10
101.356776
 20
165.248024
 30
0.0
  0
VERTEX
  8
CSLAYER1
  6
CONTINUOUS
 62
     3
 10
101.358810
 20
165.217133
 30
0.0
  0
VERTEX
  8
CSLAYER1
  6
CONTINUOUS
 62
     3
 10
101.362181
 20
165.186715
 30
0.0
  0
VERTEX
  8
CSLAYER1
  6
CONTINUOUS
 62
     3
 10
101.366866
 20
165.157001
 30
0.0
  0
VERTEX
  8
CSLAYER1
  6
CONTINUOUS
 62
     3
 10
101.372827
 20
165.128216
 30
0.0
  0
VERTEX
  8
CSLAYER1
  6
CONTINUOUS
 62
     3
 10
101.380021
 20
165.100579
 30
0.0
  0
VERTEX
  8
CSLAYER1
  6
CONTINUOUS
 62
     3
 10
101.388391
 20
165.074302
 30
0.0
  0
VERTEX
  8
CSLAYER1
  6
CONTINUOUS
 62
     3
 10
101.397875
 20
165.049584
 30
0.0
  0
VERTEX
  8
CSLAYER1
  6
CONTINUOUS
 62
     3
 10
101.408399
 20
165.026613
 30
0.0
  0
VERTEX
  8
CSLAYER1
  6
CONTINUOUS
 62
     3
 10
101.419885
 20
165.005563
 30
0.0
  0
VERTEX
  8
CSLAYER1
  6
CONTINUOUS
 62
     3
 10
101.432244
 20
164.986596
 30
0.0
  0
VERTEX
  8
CSLAYER1
  6
CONTINUOUS
 62
     3
 10
101.445382
 20
164.969856
 30
0.0
  0
VERTEX
  8
CSLAYER1
  6
CONTINUOUS
 62
     3
 10
101.459201
 20
164.955469
 30
0.0
  0
VERTEX
  8
CSLAYER1
  6
CONTINUOUS
 62
     3
 10
101.473593
 20
164.943546
 30
0.0
  0
VERTEX
  8
CSLAYER1
  6
CONTINUOUS
 62
     3
 10
101.488450
 20
164.934177
 30
0.0
  0
VERTEX
  8
CSLAYER1
  6
CONTINUOUS
 62
     3
 10
101.503660
 20
164.927434
 30
0.0
  0
VERTEX
  8
CSLAYER1
  6
CONTINUOUS
 62
     3
 10
101.519105
 20
164.923367
 30
0.0
  0
VERTEX
  8
CSLAYER1
  6
CONTINUOUS
 62
     3
 10
101.534668
 20
164.922008
 30
0.0
  0
VERTEX
  8
CSLAYER1
  6
CONTINUOUS
 62
     3
 10
101.550232
 20
164.923367
 30
0.0
  0
VERTEX
  8
CSLAYER1
  6
CONTINUOUS
 62
     3
 10
101.565677
 20
164.927434
 30
0.0
  0
VERTEX
  8
CSLAYER1
  6
CONTINUOUS
 62
     3
 10
101.580886
 20
164.934177
 30
0.0
  0
VERTEX
  8
CSLAYER1
  6
CONTINUOUS
 62
     3
 10
101.595743
 20
164.943546
 30
0.0
  0
VERTEX
  8
CSLAYER1
  6
CONTINUOUS
 62
     3
 10
101.610136
 20
164.955469
 30
0.0
  0
VERTEX
  8
CSLAYER1
  6
CONTINUOUS
 62
     3
 10
101.623954
 20
164.969856
 30
0.0
  0
VERTEX
  8
CSLAYER1
  6
CONTINUOUS
 62
     3
 10
101.637093
 20
164.986596
 30
0.0
  0
VERTEX
  8
CSLAYER1
  6
CONTINUOUS
 62
     3
 10
101.649452
 20
165.005563
 30
0.0
  0
VERTEX
  8
CSLAYER1
  6
CONTINUOUS
 62
     3
 10
101.652526
 20
165.010842
 30
0.0
  0
SEQEND
  0
POLYLINE
  8
CSLAYER1
  6
CONTINUOUS
 62
     3
 66
     1
 10
0.0
 20
0.0
 30
0.0
  0
VERTEX
  8
CSLAYER1
  6
CONTINUOUS
 62
     3
 10
101.570382
 20
165.279151
 30
0.0
  0
VERTEX
  8
CSLAYER1
  6
CONTINUOUS
 62
     3
 10
101.571062
 20
165.248024
 30
0.0
  0
VERTEX
  8
CSLAYER1
  6
CONTINUOUS
 62
     3
 10
101.573095
 20
165.217133
 30
0.0
  0
VERTEX
  8
CSLAYER1
  6
CONTINUOUS
 62
     3
 10
101.576467
 20
165.186715
 30
0.0
  0
VERTEX
  8
CSLAYER1
  6
CONTINUOUS
 62
     3
 10
101.581152
 20
165.157001
 30
0.0
  0
VERTEX
  8
CSLAYER1
  6
CONTINUOUS
 62
     3
 10
101.587113
 20
165.128216
 30
0.0
  0
VERTEX
  8
CSLAYER1
  6
CONTINUOUS
 62
     3
 10
101.594306
 20
165.100579
 30
0.0
  0
VERTEX
  8
CSLAYER1
  6
CONTINUOUS
 62
     3
 10
101.602677
 20
165.074302
 30
0.0
  0
VERTEX
  8
CSLAYER1
  6
CONTINUOUS
 62
     3
 10
101.612160
 20
165.049584
 30
0.0
  0
VERTEX
  8
CSLAYER1
  6
CONTINUOUS
 62
     3
 10
101.622685
 20
165.026613
 30
0.0
  0
VERTEX
  8
CSLAYER1
  6
CONTINUOUS
 62
     3
 10
101.634170
 20
165.005563
 30
0.0
  0
VERTEX
  8
CSLAYER1
  6
CONTINUOUS
 62
     3
 10
101.646530
 20
164.986596
 30
0.0
  0
VERTEX
  8
CSLAYER1
  6
CONTINUOUS
 62
     3
 10
101.659668
 20
164.969856
 30
0.0
  0
VERTEX
  8
CSLAYER1
  6
CONTINUOUS
 62
     3
 10
101.673486
 20
164.955469
 30
0.0
  0
VERTEX
  8
CSLAYER1
  6
CONTINUOUS
 62
     3
 10
101.687879
 20
164.943546
 30
0.0
  0
VERTEX
  8
CSLAYER1
  6
CONTINUOUS
 62
     3
 10
101.702736
 20
164.934177
 30
0.0
  0
VERTEX
  8
CSLAYER1
  6
CONTINUOUS
 62
     3
 10
101.717945
 20
164.927434
 30
0.0
  0
VERTEX
  8
CSLAYER1
  6
CONTINUOUS
 62
     3
 10
101.733390
 20
164.923367
 30
0.0
  0
VERTEX
  8
CSLAYER1
  6
CONTINUOUS
 62
     3
 10
101.748954
 20
164.922008
 30
0.0
  0
VERTEX
  8
CSLAYER1
  6
CONTINUOUS
 62
     3
 10
101.764517
 20
164.923367
 30
0.0
  0
VERTEX
  8
CSLAYER1
  6
CONTINUOUS
 62
     3
 10
101.779962
 20
164.927434
 30
0.0
  0
VERTEX
  8
CSLAYER1
  6
CONTINUOUS
 62
     3
 10
101.795172
 20
164.934177
 30
0.0
  0
VERTEX
  8
CSLAYER1
  6
CONTINUOUS
 62
     3
 10
101.810029
 20
164.943546
 30
0.0
  0
VERTEX
  8
CSLAYER1
  6
CONTINUOUS
 62
     3
 10
101.824421
 20
164.955469
 30
0.0
  0
VERTEX
  8
CSLAYER1
  6
CONTINUOUS
 62
     3
 10
101.838240
 20
164.969856
 30
0.0
  0
VERTEX
  8
CSLAYER1
  6
CONTINUOUS
 62
     3
 10
101.851378
 20
164.986596
 30
0.0
  0
VERTEX
  8
CSLAYER1
  6
CONTINUOUS
 62
     3
 10
101.863737
 20
165.005563
 30
0.0
  0
VERTEX
  8
CSLAYER1
  6
CONTINUOUS
 62
     3
 10
101.866811
 20
165.010842
 30
0.0
  0
SEQEND
  0
LINE
  8
CSLAYER1
  6
CONTINUOUS
 62
     3
 10
105.141811
 20
165.279151
 11
105.141811
 21
168.564865
  0
POLYLINE
  8
CSLAYER1
  6
CONTINUOUS
 62
     3
 66
     1
 10
0.0
 20
0.0
 30
0.0
  0
VERTEX
  8
CSLAYER1
  6
CONTINUOUS
 62
     3
 10
105.141811
 20
168.564865
 30
0.0
  0
VERTEX
  8
CSLAYER1
  6
CONTINUOUS
 62
     3
 10
105.141267
 20
168.589767
 30
0.0
  0
VERTEX
  8
CSLAYER1
  6
CONTINUOUS
 62
     3
 10
105.139641
 20
168.614479
 30
0.0
  0
VERTEX
  8
CSLAYER1
  6
CONTINUOUS
 62
     3
 10
105.136943
 20
168.638813
 30
0.0
  0
VERTEX
  8
CSLAYER1
  6
CONTINUOUS
 62
     3
 10
105.133196
 20
168.662585
 30
0.0
  0
VERTEX
  8
CSLAYER1
  6
CONTINUOUS
 62
     3
 10
105.128426
 20
168.685613
 30
0.0
  0
VERTEX
  8
CSLAYER1
  6
CONTINUOUS
 62
     3
 10
105.122672
 20
168.707722
 30
0.0
  0
VERTEX
  8
CSLAYER1
  6
CONTINUOUS
 62
     3
 10
105.115976
 20
168.728744
 30
0.0
  0
VERTEX
  8
CSLAYER1
  6
CONTINUOUS
 62
     3
 10
105.108389
 20
168.748519
 30
0.0
  0
VERTEX
  8
CSLAYER1
  6
CONTINUOUS
 62
     3
 10
105.099969
 20
168.766895
 30
0.0
  0
VERTEX
  8
CSLAYER1
  6
CONTINUOUS
 62
     3
 10
105.090781
 20
168.783735
 30
0.0
  0
VERTEX
  8
CSLAYER1
  6
CONTINUOUS
 62
     3
 10
105.080893
 20
168.798908
 30
0.0
  0
VERTEX
  8
CSLAYER1
  6
CONTINUOUS
 62
     3
 10
105.070382
 20
168.812301
 30
0.0
  0
VERTEX
  8
CSLAYER1
  6
CONTINUOUS
 62
     3
 10
105.059328
 20
168.823810
 30
0.0
  0
VERTEX
  8
CSLAYER1
  6
CONTINUOUS
 62
     3
 10
105.047814
 20
168.833349
 30
0.0
  0
VERTEX
  8
CSLAYER1
  6
CONTINUOUS
 62
     3
 10
105.035928
 20
168.840844
 30
0.0
  0
VERTEX
  8
CSLAYER1
  6
CONTINUOUS
 62
     3
 10
105.023761
 20
168.846239
 30
0.0
  0
VERTEX
  8
CSLAYER1
  6
CONTINUOUS
 62
     3
 10
105.011405
 20
168.849492
 30
0.0
  0
VERTEX
  8
CSLAYER1
  6
CONTINUOUS
 62
     3
 10
104.998954
 20
168.850579
 30
0.0
  0
SEQEND
  0
POLYLINE
  8
CSLAYER1
  6
CONTINUOUS
 62
     3
 66
     1
 10
0.0
 20
0.0
 30
0.0
  0
VERTEX
  8
CSLAYER1
  6
CONTINUOUS
 62
     3
 10
104.998954
 20
164.993436
 30
0.0
  0
VERTEX
  8
CSLAYER1
  6
CONTINUOUS
 62
     3
 10
105.011405
 20
164.994524
 30
0.0
  0
VERTEX
  8
CSLAYER1
  6
CONTINUOUS
 62
     3
 10
105.023761
 20
164.997777
 30
0.0
  0
VERTEX
  8
CSLAYER1
  6
CONTINUOUS
 62
     3
 10
105.035928
 20
165.003172
 30
0.0
  0
VERTEX
  8
CSLAYER1
  6
CONTINUOUS
 62
     3
 10
105.047814
 20
165.010667
 30
0.0
  0
VERTEX
  8
CSLAYER1
  6
CONTINUOUS
 62
     3
 10
105.059328
 20
165.020206
 30
0.0
  0
VERTEX
  8
CSLAYER1
  6
CONTINUOUS
 62
     3
 10
105.070382
 20
165.031715
 30
0.0
  0
VERTEX
  8
CSLAYER1
  6
CONTINUOUS
 62
     3
 10
105.080893
 20
165.045107
 30
0.0
  0
VERTEX
  8
CSLAYER1
  6
CONTINUOUS
 62
     3
 10
105.090781
 20
165.060281
 30
0.0
  0
VERTEX
  8
CSLAYER1
  6
CONTINUOUS
 62
     3
 10
105.099969
 20
165.077120
 30
0.0
  0
VERTEX
  8
CSLAYER1
  6
CONTINUOUS
 62
     3
 10
105.108389
 20
165.095497
 30
0.0
  0
VERTEX
  8
CSLAYER1
  6
CONTINUOUS
 62
     3
 10
105.115976
 20
165.115272
 30
0.0
  0
VERTEX
  8
CSLAYER1
  6
CONTINUOUS
 62
     3
 10
105.122672
 20
165.136294
 30
0.0
  0
VERTEX
  8
CSLAYER1
  6
CONTINUOUS
 62
     3
 10
105.128426
 20
165.158403
 30
0.0
  0
VERTEX
  8
CSLAYER1
  6
CONTINUOUS
 62
     3
 10
105.133196
 20
165.181431
 30
0.0
  0
VERTEX
  8
CSLAYER1
  6
CONTINUOUS
 62
     3
 10
105.136943
 20
165.205202
 30
0.0
  0
VERTEX
  8
CSLAYER1
  6
CONTINUOUS
 62
     3
 10
105.139641
 20
165.229537
 30
0.0
  0
VERTEX
  8
CSLAYER1
  6
CONTINUOUS
 62
     3
 10
105.141267
 20
165.254249
 30
0.0
  0
VERTEX
  8
CSLAYER1
  6
CONTINUOUS
 62
     3
 10
105.141811
 20
165.279150
 30
0.0
  0
SEQEND
  0
LINE
  8
CSLAYER1
  6
CONTINUOUS
 62
     3
 10
105.498954
 20
165.279151
 11
105.498954
 21
168.564865
  0
POLYLINE
  8
CSLAYER1
  6
CONTINUOUS
 62
     3
 66
     1
 10
0.0
 20
0.0
 30
0.0
  0
VERTEX
  8
CSLAYER1
  6
CONTINUOUS
 62
     3
 10
105.498954
 20
168.564865
 30
0.0
  0
VERTEX
  8
CSLAYER1
  6
CONTINUOUS
 62
     3
 10
105.498410
 20
168.589767
 30
0.0
  0
VERTEX
  8
CSLAYER1
  6
CONTINUOUS
 62
     3
 10
105.496784
 20
168.614479
 30
0.0
  0
VERTEX
  8
CSLAYER1
  6
CONTINUOUS
 62
     3
 10
105.494086
 20
168.638813
 30
0.0
  0
VERTEX
  8
CSLAYER1
  6
CONTINUOUS
 62
     3
 10
105.490339
 20
168.662585
 30
0.0
  0
VERTEX
  8
CSLAYER1
  6
CONTINUOUS
 62
     3
 10
105.485569
 20
168.685613
 30
0.0
  0
VERTEX
  8
CSLAYER1
  6
CONTINUOUS
 62
     3
 10
105.479815
 20
168.707722
 30
0.0
  0
VERTEX
  8
CSLAYER1
  6
CONTINUOUS
 62
     3
 10
105.473118
 20
168.728744
 30
0.0
  0
VERTEX
  8
CSLAYER1
  6
CONTINUOUS
 62
     3
 10
105.465532
 20
168.748519
 30
0.0
  0
VERTEX
  8
CSLAYER1
  6
CONTINUOUS
 62
     3
 10
105.457112
 20
168.766895
 30
0.0
  0
VERTEX
  8
CSLAYER1
  6
CONTINUOUS
 62
     3
 10
105.447923
 20
168.783735
 30
0.0
  0
VERTEX
  8
CSLAYER1
  6
CONTINUOUS
 62
     3
 10
105.438036
 20
168.798908
 30
0.0
  0
VERTEX
  8
CSLAYER1
  6
CONTINUOUS
 62
     3
 10
105.427525
 20
168.812301
 30
0.0
  0
VERTEX
  8
CSLAYER1
  6
CONTINUOUS
 62
     3
 10
105.416471
 20
168.823810
 30
0.0
  0
VERTEX
  8
CSLAYER1
  6
CONTINUOUS
 62
     3
 10
105.404957
 20
168.833349
 30
0.0
  0
VERTEX
  8
CSLAYER1
  6
CONTINUOUS
 62
     3
 10
105.393071
 20
168.840844
 30
0.0
  0
VERTEX
  8
CSLAYER1
  6
CONTINUOUS
 62
     3
 10
105.380904
 20
168.846239
 30
0.0
  0
VERTEX
  8
CSLAYER1
  6
CONTINUOUS
 62
     3
 10
105.368548
 20
168.849492
 30
0.0
  0
VERTEX
  8
CSLAYER1
  6
CONTINUOUS
 62
     3
 10
105.356097
 20
168.850579
 30
0.0
  0
VERTEX
  8
CSLAYER1
  6
CONTINUOUS
 62
     3
 10
105.343646
 20
168.849492
 30
0.0
  0
VERTEX
  8
CSLAYER1
  6
CONTINUOUS
 62
     3
 10
105.331290
 20
168.846239
 30
0.0
  0
VERTEX
  8
CSLAYER1
  6
CONTINUOUS
 62
     3
 10
105.319123
 20
168.840844
 30
0.0
  0
VERTEX
  8
CSLAYER1
  6
CONTINUOUS
 62
     3
 10
105.307237
 20
168.833348
 30
0.0
  0
VERTEX
  8
CSLAYER1
  6
CONTINUOUS
 62
     3
 10
105.295723
 20
168.823810
 30
0.0
  0
VERTEX
  8
CSLAYER1
  6
CONTINUOUS
 62
     3
 10
105.284668
 20
168.812301
 30
0.0
  0
VERTEX
  8
CSLAYER1
  6
CONTINUOUS
 62
     3
 10
105.274157
 20
168.798908
 30
0.0
  0
VERTEX
  8
CSLAYER1
  6
CONTINUOUS
 62
     3
 10
105.264270
 20
168.783735
 30
0.0
  0
VERTEX
  8
CSLAYER1
  6
CONTINUOUS
 62
     3
 10
105.255258
 20
168.767248
 30
0.0
  0
SEQEND
  0
POLYLINE
  8
CSLAYER1
  6
CONTINUOUS
 62
     3
 66
     1
 10
0.0
 20
0.0
 30
0.0
  0
VERTEX
  8
CSLAYER1
  6
CONTINUOUS
 62
     3
 10
105.255258
 20
165.076768
 30
0.0
  0
VERTEX
  8
CSLAYER1
  6
CONTINUOUS
 62
     3
 10
105.264461
 20
165.059961
 30
0.0
  0
VERTEX
  8
CSLAYER1
  6
CONTINUOUS
 62
     3
 10
105.274362
 20
165.044822
 30
0.0
  0
VERTEX
  8
CSLAYER1
  6
CONTINUOUS
 62
     3
 10
105.284884
 20
165.031466
 30
0.0
  0
VERTEX
  8
CSLAYER1
  6
CONTINUOUS
 62
     3
 10
105.295949
 20
165.019995
 30
0.0
  0
VERTEX
  8
CSLAYER1
  6
CONTINUOUS
 62
     3
 10
105.307471
 20
165.010497
 30
0.0
  0
VERTEX
  8
CSLAYER1
  6
CONTINUOUS
 62
     3
 10
105.319363
 20
165.003043
 30
0.0
  0
VERTEX
  8
CSLAYER1
  6
CONTINUOUS
 62
     3
 10
105.331535
 20
164.997691
 30
0.0
  0
VERTEX
  8
CSLAYER1
  6
CONTINUOUS
 62
     3
 10
105.343894
 20
164.994481
 30
0.0
  0
VERTEX
  8
CSLAYER1
  6
CONTINUOUS
 62
     3
 10
105.356346
 20
164.993437
 30
0.0
  0
VERTEX
  8
CSLAYER1
  6
CONTINUOUS
 62
     3
 10
105.368796
 20
164.994567
 30
0.0
  0
VERTEX
  8
CSLAYER1
  6
CONTINUOUS
 62
     3
 10
105.381149
 20
164.997864
 30
0.0
  0
VERTEX
  8
CSLAYER1
  6
CONTINUOUS
 62
     3
 10
105.393312
 20
165.003301
 30
0.0
  0
VERTEX
  8
CSLAYER1
  6
CONTINUOUS
 62
     3
 10
105.405191
 20
165.010838
 30
0.0
  0
VERTEX
  8
CSLAYER1
  6
CONTINUOUS
 62
     3
 10
105.416697
 20
165.020417
 30
0.0
  0
VERTEX
  8
CSLAYER1
  6
CONTINUOUS
 62
     3
 10
105.427741
 20
165.031964
 30
0.0
  0
VERTEX
  8
CSLAYER1
  6
CONTINUOUS
 62
     3
 10
105.438240
 20
165.045393
 30
0.0
  0
VERTEX
  8
CSLAYER1
  6
CONTINUOUS
 62
     3
 10
105.448114
 20
165.060602
 30
0.0
  0
VERTEX
  8
CSLAYER1
  6
CONTINUOUS
 62
     3
 10
105.457288
 20
165.077473
 30
0.0
  0
VERTEX
  8
CSLAYER1
  6
CONTINUOUS
 62
     3
 10
105.465692
 20
165.095879
 30
0.0
  0
VERTEX
  8
CSLAYER1
  6
CONTINUOUS
 62
     3
 10
105.473261
 20
165.115680
 30
0.0
  0
VERTEX
  8
CSLAYER1
  6
CONTINUOUS
 62
     3
 10
105.479939
 20
165.136725
 30
0.0
  0
VERTEX
  8
CSLAYER1
  6
CONTINUOUS
 62
     3
 10
105.485674
 20
165.158855
 30
0.0
  0
VERTEX
  8
CSLAYER1
  6
CONTINUOUS
 62
     3
 10
105.490424
 20
165.181899
 30
0.0
  0
VERTEX
  8
CSLAYER1
  6
CONTINUOUS
 62
     3
 10
105.494150
 20
165.205684
 30
0.0
  0
VERTEX
  8
CSLAYER1
  6
CONTINUOUS
 62
     3
 10
105.496827
 20
165.230028
 30
0.0
  0
VERTEX
  8
CSLAYER1
  6
CONTINUOUS
 62
     3
 10
105.498432
 20
165.254746
 30
0.0
  0
VERTEX
  8
CSLAYER1
  6
CONTINUOUS
 62
     3
 10
105.498954
 20
165.279150
 30
0.0
  0
SEQEND
  0
LINE
  8
CSLAYER1
  6
CONTINUOUS
 62
     3
 10
105.856097
 20
165.279151
 11
105.856097
 21
168.564865
  0
POLYLINE
  8
CSLAYER1
  6
CONTINUOUS
 62
     3
 66
     1
 10
0.0
 20
0.0
 30
0.0
  0
VERTEX
  8
CSLAYER1
  6
CONTINUOUS
 62
     3
 10
105.856097
 20
168.564865
 30
0.0
  0
VERTEX
  8
CSLAYER1
  6
CONTINUOUS
 62
     3
 10
105.855553
 20
168.589767
 30
0.0
  0
VERTEX
  8
CSLAYER1
  6
CONTINUOUS
 62
     3
 10
105.853926
 20
168.614479
 30
0.0
  0
VERTEX
  8
CSLAYER1
  6
CONTINUOUS
 62
     3
 10
105.851229
 20
168.638813
 30
0.0
  0
VERTEX
  8
CSLAYER1
  6
CONTINUOUS
 62
     3
 10
105.847481
 20
168.662585
 30
0.0
  0
VERTEX
  8
CSLAYER1
  6
CONTINUOUS
 62
     3
 10
105.842712
 20
168.685613
 30
0.0
  0
VERTEX
  8
CSLAYER1
  6
CONTINUOUS
 62
     3
 10
105.836957
 20
168.707722
 30
0.0
  0
VERTEX
  8
CSLAYER1
  6
CONTINUOUS
 62
     3
 10
105.830261
 20
168.728744
 30
0.0
  0
VERTEX
  8
CSLAYER1
  6
CONTINUOUS
 62
     3
 10
105.822674
 20
168.748519
 30
0.0
  0
VERTEX
  8
CSLAYER1
  6
CONTINUOUS
 62
     3
 10
105.814255
 20
168.766895
 30
0.0
  0
VERTEX
  8
CSLAYER1
  6
CONTINUOUS
 62
     3
 10
105.805066
 20
168.783735
 30
0.0
  0
VERTEX
  8
CSLAYER1
  6
CONTINUOUS
 62
     3
 10
105.795179
 20
168.798908
 30
0.0
  0
VERTEX
  8
CSLAYER1
  6
CONTINUOUS
 62
     3
 10
105.784668
 20
168.812301
 30
0.0
  0
VERTEX
  8
CSLAYER1
  6
CONTINUOUS
 62
     3
 10
105.773614
 20
168.823810
 30
0.0
  0
VERTEX
  8
CSLAYER1
  6
CONTINUOUS
 62
     3
 10
105.762100
 20
168.833349
 30
0.0
  0
VERTEX
  8
CSLAYER1
  6
CONTINUOUS
 62
     3
 10
105.750214
 20
168.840844
 30
0.0
  0
VERTEX
  8
CSLAYER1
  6
CONTINUOUS
 62
     3
 10
105.738046
 20
168.846239
 30
0.0
  0
VERTEX
  8
CSLAYER1
  6
CONTINUOUS
 62
     3
 10
105.725690
 20
168.849492
 30
0.0
  0
VERTEX
  8
CSLAYER1
  6
CONTINUOUS
 62
     3
 10
105.713240
 20
168.850579
 30
0.0
  0
VERTEX
  8
CSLAYER1
  6
CONTINUOUS
 62
     3
 10
105.700789
 20
168.849492
 30
0.0
  0
VERTEX
  8
CSLAYER1
  6
CONTINUOUS
 62
     3
 10
105.688433
 20
168.846239
 30
0.0
  0
VERTEX
  8
CSLAYER1
  6
CONTINUOUS
 62
     3
 10
105.676265
 20
168.840844
 30
0.0
  0
VERTEX
  8
CSLAYER1
  6
CONTINUOUS
 62
     3
 10
105.664380
 20
168.833348
 30
0.0
  0
VERTEX
  8
CSLAYER1
  6
CONTINUOUS
 62
     3
 10
105.652866
 20
168.823810
 30
0.0
  0
VERTEX
  8
CSLAYER1
  6
CONTINUOUS
 62
     3
 10
105.641811
 20
168.812301
 30
0.0
  0
VERTEX
  8
CSLAYER1
  6
CONTINUOUS
 62
     3
 10
105.631300
 20
168.798908
 30
0.0
  0
VERTEX
  8
CSLAYER1
  6
CONTINUOUS
 62
     3
 10
105.621413
 20
168.783735
 30
0.0
  0
VERTEX
  8
CSLAYER1
  6
CONTINUOUS
 62
     3
 10
105.612401
 20
168.767248
 30
0.0
  0
SEQEND
  0
LINE
  8
CSLAYER1
  6
CONTINUOUS
 62
     3
 10
106.213240
 20
165.279151
 11
106.213240
 21
168.564865
  0
POLYLINE
  8
CSLAYER1
  6
CONTINUOUS
 62
     3
 66
     1
 10
0.0
 20
0.0
 30
0.0
  0
VERTEX
  8
CSLAYER1
  6
CONTINUOUS
 62
     3
 10
106.213240
 20
168.564865
 30
0.0
  0
VERTEX
  8
CSLAYER1
  6
CONTINUOUS
 62
     3
 10
106.212696
 20
168.589767
 30
0.0
  0
VERTEX
  8
CSLAYER1
  6
CONTINUOUS
 62
     3
 10
106.211069
 20
168.614479
 30
0.0
  0
VERTEX
  8
CSLAYER1
  6
CONTINUOUS
 62
     3
 10
106.208372
 20
168.638813
 30
0.0
  0
VERTEX
  8
CSLAYER1
  6
CONTINUOUS
 62
     3
 10
106.204624
 20
168.662585
 30
0.0
  0
VERTEX
  8
CSLAYER1
  6
CONTINUOUS
 62
     3
 10
106.199855
 20
168.685613
 30
0.0
  0
VERTEX
  8
CSLAYER1
  6
CONTINUOUS
 62
     3
 10
106.194100
 20
168.707722
 30
0.0
  0
VERTEX
  8
CSLAYER1
  6
CONTINUOUS
 62
     3
 10
106.187404
 20
168.728744
 30
0.0
  0
VERTEX
  8
CSLAYER1
  6
CONTINUOUS
 62
     3
 10
106.179817
 20
168.748519
 30
0.0
  0
VERTEX
  8
CSLAYER1
  6
CONTINUOUS
 62
     3
 10
106.171398
 20
168.766895
 30
0.0
  0
VERTEX
  8
CSLAYER1
  6
CONTINUOUS
 62
     3
 10
106.162209
 20
168.783735
 30
0.0
  0
VERTEX
  8
CSLAYER1
  6
CONTINUOUS
 62
     3
 10
106.152322
 20
168.798908
 30
0.0
  0
VERTEX
  8
CSLAYER1
  6
CONTINUOUS
 62
     3
 10
106.141811
 20
168.812301
 30
0.0
  0
VERTEX
  8
CSLAYER1
  6
CONTINUOUS
 62
     3
 10
106.130756
 20
168.823810
 30
0.0
  0
VERTEX
  8
CSLAYER1
  6
CONTINUOUS
 62
     3
 10
106.119242
 20
168.833349
 30
0.0
  0
VERTEX
  8
CSLAYER1
  6
CONTINUOUS
 62
     3
 10
106.107357
 20
168.840844
 30
0.0
  0
VERTEX
  8
CSLAYER1
  6
CONTINUOUS
 62
     3
 10
106.095189
 20
168.846239
 30
0.0
  0
VERTEX
  8
CSLAYER1
  6
CONTINUOUS
 62
     3
 10
106.082833
 20
168.849492
 30
0.0
  0
VERTEX
  8
CSLAYER1
  6
CONTINUOUS
 62
     3
 10
106.070382
 20
168.850579
 30
0.0
  0
VERTEX
  8
CSLAYER1
  6
CONTINUOUS
 62
     3
 10
106.057932
 20
168.849492
 30
0.0
  0
VERTEX
  8
CSLAYER1
  6
CONTINUOUS
 62
     3
 10
106.045576
 20
168.846239
 30
0.0
  0
VERTEX
  8
CSLAYER1
  6
CONTINUOUS
 62
     3
 10
106.033408
 20
168.840844
 30
0.0
  0
VERTEX
  8
CSLAYER1
  6
CONTINUOUS
 62
     3
 10
106.021522
 20
168.833348
 30
0.0
  0
VERTEX
  8
CSLAYER1
  6
CONTINUOUS
 62
     3
 10
106.010008
 20
168.823810
 30
0.0
  0
VERTEX
  8
CSLAYER1
  6
CONTINUOUS
 62
     3
 10
105.998954
 20
168.812301
 30
0.0
  0
VERTEX
  8
CSLAYER1
  6
CONTINUOUS
 62
     3
 10
105.988443
 20
168.798908
 30
0.0
  0
VERTEX
  8
CSLAYER1
  6
CONTINUOUS
 62
     3
 10
105.978556
 20
168.783735
 30
0.0
  0
VERTEX
  8
CSLAYER1
  6
CONTINUOUS
 62
     3
 10
105.969544
 20
168.767248
 30
0.0
  0
SEQEND
  0
LINE
  8
CSLAYER1
  6
CONTINUOUS
 62
     3
 10
106.713240
 20
165.279151
 11
106.713240
 21
168.564865
  0
POLYLINE
  8
CSLAYER1
  6
CONTINUOUS
 62
     3
 66
     1
 10
0.0
 20
0.0
 30
0.0
  0
VERTEX
  8
CSLAYER1
  6
CONTINUOUS
 62
     3
 10
106.713240
 20
168.564865
 30
0.0
  0
VERTEX
  8
CSLAYER1
  6
CONTINUOUS
 62
     3
 10
106.712696
 20
168.589767
 30
0.0
  0
VERTEX
  8
CSLAYER1
  6
CONTINUOUS
 62
     3
 10
106.711069
 20
168.614479
 30
0.0
  0
VERTEX
  8
CSLAYER1
  6
CONTINUOUS
 62
     3
 10
106.708372
 20
168.638813
 30
0.0
  0
VERTEX
  8
CSLAYER1
  6
CONTINUOUS
 62
     3
 10
106.704624
 20
168.662585
 30
0.0
  0
VERTEX
  8
CSLAYER1
  6
CONTINUOUS
 62
     3
 10
106.699855
 20
168.685613
 30
0.0
  0
VERTEX
  8
CSLAYER1
  6
CONTINUOUS
 62
     3
 10
106.694100
 20
168.707722
 30
0.0
  0
VERTEX
  8
CSLAYER1
  6
CONTINUOUS
 62
     3
 10
106.687404
 20
168.728744
 30
0.0
  0
VERTEX
  8
CSLAYER1
  6
CONTINUOUS
 62
     3
 10
106.679817
 20
168.748519
 30
0.0
  0
VERTEX
  8
CSLAYER1
  6
CONTINUOUS
 62
     3
 10
106.671398
 20
168.766895
 30
0.0
  0
VERTEX
  8
CSLAYER1
  6
CONTINUOUS
 62
     3
 10
106.662209
 20
168.783735
 30
0.0
  0
VERTEX
  8
CSLAYER1
  6
CONTINUOUS
 62
     3
 10
106.652322
 20
168.798908
 30
0.0
  0
VERTEX
  8
CSLAYER1
  6
CONTINUOUS
 62
     3
 10
106.641811
 20
168.812301
 30
0.0
  0
VERTEX
  8
CSLAYER1
  6
CONTINUOUS
 62
     3
 10
106.630756
 20
168.823810
 30
0.0
  0
VERTEX
  8
CSLAYER1
  6
CONTINUOUS
 62
     3
 10
106.619242
 20
168.833349
 30
0.0
  0
VERTEX
  8
CSLAYER1
  6
CONTINUOUS
 62
     3
 10
106.607357
 20
168.840844
 30
0.0
  0
VERTEX
  8
CSLAYER1
  6
CONTINUOUS
 62
     3
 10
106.595189
 20
168.846239
 30
0.0
  0
VERTEX
  8
CSLAYER1
  6
CONTINUOUS
 62
     3
 10
106.582833
 20
168.849492
 30
0.0
  0
VERTEX
  8
CSLAYER1
  6
CONTINUOUS
 62
     3
 10
106.570382
 20
168.850579
 30
0.0
  0
VERTEX
  8
CSLAYER1
  6
CONTINUOUS
 62
     3
 10
106.557932
 20
168.849492
 30
0.0
  0
VERTEX
  8
CSLAYER1
  6
CONTINUOUS
 62
     3
 10
106.545576
 20
168.846239
 30
0.0
  0
VERTEX
  8
CSLAYER1
  6
CONTINUOUS
 62
     3
 10
106.533408
 20
168.840844
 30
0.0
  0
VERTEX
  8
CSLAYER1
  6
CONTINUOUS
 62
     3
 10
106.521522
 20
168.833348
 30
0.0
  0
VERTEX
  8
CSLAYER1
  6
CONTINUOUS
 62
     3
 10
106.510008
 20
168.823810
 30
0.0
  0
VERTEX
  8
CSLAYER1
  6
CONTINUOUS
 62
     3
 10
106.498954
 20
168.812301
 30
0.0
  0
VERTEX
  8
CSLAYER1
  6
CONTINUOUS
 62
     3
 10
106.488443
 20
168.798908
 30
0.0
  0
VERTEX
  8
CSLAYER1
  6
CONTINUOUS
 62
     3
 10
106.478556
 20
168.783735
 30
0.0
  0
VERTEX
  8
CSLAYER1
  6
CONTINUOUS
 62
     3
 10
106.469544
 20
168.767248
 30
0.0
  0
SEQEND
  0
LINE
  8
CSLAYER1
  6
CONTINUOUS
 62
     3
 10
107.213240
 20
165.279151
 11
107.213240
 21
168.564865
  0
POLYLINE
  8
CSLAYER1
  6
CONTINUOUS
 62
     3
 66
     1
 10
0.0
 20
0.0
 30
0.0
  0
VERTEX
  8
CSLAYER1
  6
CONTINUOUS
 62
     3
 10
107.213240
 20
168.564865
 30
0.0
  0
VERTEX
  8
CSLAYER1
  6
CONTINUOUS
 62
     3
 10
107.212696
 20
168.589767
 30
0.0
  0
VERTEX
  8
CSLAYER1
  6
CONTINUOUS
 62
     3
 10
107.211069
 20
168.614479
 30
0.0
  0
VERTEX
  8
CSLAYER1
  6
CONTINUOUS
 62
     3
 10
107.208372
 20
168.638813
 30
0.0
  0
VERTEX
  8
CSLAYER1
  6
CONTINUOUS
 62
     3
 10
107.204624
 20
168.662585
 30
0.0
  0
VERTEX
  8
CSLAYER1
  6
CONTINUOUS
 62
     3
 10
107.199855
 20
168.685613
 30
0.0
  0
VERTEX
  8
CSLAYER1
  6
CONTINUOUS
 62
     3
 10
107.194100
 20
168.707722
 30
0.0
  0
VERTEX
  8
CSLAYER1
  6
CONTINUOUS
 62
     3
 10
107.187404
 20
168.728744
 30
0.0
  0
VERTEX
  8
CSLAYER1
  6
CONTINUOUS
 62
     3
 10
107.179817
 20
168.748519
 30
0.0
  0
VERTEX
  8
CSLAYER1
  6
CONTINUOUS
 62
     3
 10
107.171398
 20
168.766895
 30
0.0
  0
VERTEX
  8
CSLAYER1
  6
CONTINUOUS
 62
     3
 10
107.162209
 20
168.783735
 30
0.0
  0
VERTEX
  8
CSLAYER1
  6
CONTINUOUS
 62
     3
 10
107.152322
 20
168.798908
 30
0.0
  0
VERTEX
  8
CSLAYER1
  6
CONTINUOUS
 62
     3
 10
107.141811
 20
168.812301
 30
0.0
  0
VERTEX
  8
CSLAYER1
  6
CONTINUOUS
 62
     3
 10
107.130756
 20
168.823810
 30
0.0
  0
VERTEX
  8
CSLAYER1
  6
CONTINUOUS
 62
     3
 10
107.119242
 20
168.833349
 30
0.0
  0
VERTEX
  8
CSLAYER1
  6
CONTINUOUS
 62
     3
 10
107.107357
 20
168.840844
 30
0.0
  0
VERTEX
  8
CSLAYER1
  6
CONTINUOUS
 62
     3
 10
107.095189
 20
168.846239
 30
0.0
  0
VERTEX
  8
CSLAYER1
  6
CONTINUOUS
 62
     3
 10
107.082833
 20
168.849492
 30
0.0
  0
VERTEX
  8
CSLAYER1
  6
CONTINUOUS
 62
     3
 10
107.070382
 20
168.850579
 30
0.0
  0
VERTEX
  8
CSLAYER1
  6
CONTINUOUS
 62
     3
 10
107.057932
 20
168.849492
 30
0.0
  0
VERTEX
  8
CSLAYER1
  6
CONTINUOUS
 62
     3
 10
107.045576
 20
168.846239
 30
0.0
  0
VERTEX
  8
CSLAYER1
  6
CONTINUOUS
 62
     3
 10
107.033408
 20
168.840844
 30
0.0
  0
VERTEX
  8
CSLAYER1
  6
CONTINUOUS
 62
     3
 10
107.021522
 20
168.833348
 30
0.0
  0
VERTEX
  8
CSLAYER1
  6
CONTINUOUS
 62
     3
 10
107.010008
 20
168.823810
 30
0.0
  0
VERTEX
  8
CSLAYER1
  6
CONTINUOUS
 62
     3
 10
106.998954
 20
168.812301
 30
0.0
  0
VERTEX
  8
CSLAYER1
  6
CONTINUOUS
 62
     3
 10
106.988443
 20
168.798908
 30
0.0
  0
VERTEX
  8
CSLAYER1
  6
CONTINUOUS
 62
     3
 10
106.978556
 20
168.783735
 30
0.0
  0
VERTEX
  8
CSLAYER1
  6
CONTINUOUS
 62
     3
 10
106.969544
 20
168.767248
 30
0.0
  0
SEQEND
  0
LINE
  8
CSLAYER1
  6
CONTINUOUS
 62
     3
 10
107.784668
 20
165.279151
 11
107.784668
 21
168.564865
  0
POLYLINE
  8
CSLAYER1
  6
CONTINUOUS
 62
     3
 66
     1
 10
0.0
 20
0.0
 30
0.0
  0
VERTEX
  8
CSLAYER1
  6
CONTINUOUS
 62
     3
 10
107.784668
 20
168.564865
 30
0.0
  0
VERTEX
  8
CSLAYER1
  6
CONTINUOUS
 62
     3
 10
107.784125
 20
168.589767
 30
0.0
  0
VERTEX
  8
CSLAYER1
  6
CONTINUOUS
 62
     3
 10
107.782498
 20
168.614479
 30
0.0
  0
VERTEX
  8
CSLAYER1
  6
CONTINUOUS
 62
     3
 10
107.779800
 20
168.638813
 30
0.0
  0
VERTEX
  8
CSLAYER1
  6
CONTINUOUS
 62
     3
 10
107.776053
 20
168.662585
 30
0.0
  0
VERTEX
  8
CSLAYER1
  6
CONTINUOUS
 62
     3
 10
107.771284
 20
168.685613
 30
0.0
  0
VERTEX
  8
CSLAYER1
  6
CONTINUOUS
 62
     3
 10
107.765529
 20
168.707722
 30
0.0
  0
VERTEX
  8
CSLAYER1
  6
CONTINUOUS
 62
     3
 10
107.758833
 20
168.728744
 30
0.0
  0
VERTEX
  8
CSLAYER1
  6
CONTINUOUS
 62
     3
 10
107.751246
 20
168.748519
 30
0.0
  0
VERTEX
  8
CSLAYER1
  6
CONTINUOUS
 62
     3
 10
107.742826
 20
168.766895
 30
0.0
  0
VERTEX
  8
CSLAYER1
  6
CONTINUOUS
 62
     3
 10
107.733638
 20
168.783735
 30
0.0
  0
VERTEX
  8
CSLAYER1
  6
CONTINUOUS
 62
     3
 10
107.723750
 20
168.798908
 30
0.0
  0
VERTEX
  8
CSLAYER1
  6
CONTINUOUS
 62
     3
 10
107.713240
 20
168.812301
 30
0.0
  0
VERTEX
  8
CSLAYER1
  6
CONTINUOUS
 62
     3
 10
107.702185
 20
168.823810
 30
0.0
  0
VERTEX
  8
CSLAYER1
  6
CONTINUOUS
 62
     3
 10
107.690671
 20
168.833349
 30
0.0
  0
VERTEX
  8
CSLAYER1
  6
CONTINUOUS
 62
     3
 10
107.678785
 20
168.840844
 30
0.0
  0
VERTEX
  8
CSLAYER1
  6
CONTINUOUS
 62
     3
 10
107.666618
 20
168.846239
 30
0.0
  0
VERTEX
  8
CSLAYER1
  6
CONTINUOUS
 62
     3
 10
107.654262
 20
168.849492
 30
0.0
  0
VERTEX
  8
CSLAYER1
  6
CONTINUOUS
 62
     3
 10
107.641811
 20
168.850579
 30
0.0
  0
VERTEX
  8
CSLAYER1
  6
CONTINUOUS
 62
     3
 10
107.629360
 20
168.849492
 30
0.0
  0
VERTEX
  8
CSLAYER1
  6
CONTINUOUS
 62
     3
 10
107.617004
 20
168.846239
 30
0.0
  0
VERTEX
  8
CSLAYER1
  6
CONTINUOUS
 62
     3
 10
107.604837
 20
168.840844
 30
0.0
  0
VERTEX
  8
CSLAYER1
  6
CONTINUOUS
 62
     3
 10
107.592951
 20
168.833348
 30
0.0
  0
VERTEX
  8
CSLAYER1
  6
CONTINUOUS
 62
     3
 10
107.581437
 20
168.823810
 30
0.0
  0
VERTEX
  8
CSLAYER1
  6
CONTINUOUS
 62
     3
 10
107.570382
 20
168.812301
 30
0.0
  0
VERTEX
  8
CSLAYER1
  6
CONTINUOUS
 62
     3
 10
107.559871
 20
168.798908
 30
0.0
  0
VERTEX
  8
CSLAYER1
  6
CONTINUOUS
 62
     3
 10
107.549984
 20
168.783735
 30
0.0
  0
VERTEX
  8
CSLAYER1
  6
CONTINUOUS
 62
     3
 10
107.540972
 20
168.767248
 30
0.0
  0
SEQEND
  0
LINE
  8
CSLAYER1
  6
CONTINUOUS
 62
     3
 10
108.356097
 20
165.279151
 11
108.356097
 21
168.564865
  0
POLYLINE
  8
CSLAYER1
  6
CONTINUOUS
 62
     3
 66
     1
 10
0.0
 20
0.0
 30
0.0
  0
VERTEX
  8
CSLAYER1
  6
CONTINUOUS
 62
     3
 10
108.356097
 20
168.564865
 30
0.0
  0
VERTEX
  8
CSLAYER1
  6
CONTINUOUS
 62
     3
 10
108.355553
 20
168.589767
 30
0.0
  0
VERTEX
  8
CSLAYER1
  6
CONTINUOUS
 62
     3
 10
108.353926
 20
168.614479
 30
0.0
  0
VERTEX
  8
CSLAYER1
  6
CONTINUOUS
 62
     3
 10
108.351229
 20
168.638813
 30
0.0
  0
VERTEX
  8
CSLAYER1
  6
CONTINUOUS
 62
     3
 10
108.347481
 20
168.662585
 30
0.0
  0
VERTEX
  8
CSLAYER1
  6
CONTINUOUS
 62
     3
 10
108.342712
 20
168.685613
 30
0.0
  0
VERTEX
  8
CSLAYER1
  6
CONTINUOUS
 62
     3
 10
108.336957
 20
168.707722
 30
0.0
  0
VERTEX
  8
CSLAYER1
  6
CONTINUOUS
 62
     3
 10
108.330261
 20
168.728744
 30
0.0
  0
VERTEX
  8
CSLAYER1
  6
CONTINUOUS
 62
     3
 10
108.322674
 20
168.748519
 30
0.0
  0
VERTEX
  8
CSLAYER1
  6
CONTINUOUS
 62
     3
 10
108.314255
 20
168.766895
 30
0.0
  0
VERTEX
  8
CSLAYER1
  6
CONTINUOUS
 62
     3
 10
108.305066
 20
168.783735
 30
0.0
  0
VERTEX
  8
CSLAYER1
  6
CONTINUOUS
 62
     3
 10
108.295179
 20
168.798908
 30
0.0
  0
VERTEX
  8
CSLAYER1
  6
CONTINUOUS
 62
     3
 10
108.284668
 20
168.812301
 30
0.0
  0
VERTEX
  8
CSLAYER1
  6
CONTINUOUS
 62
     3
 10
108.273614
 20
168.823810
 30
0.0
  0
VERTEX
  8
CSLAYER1
  6
CONTINUOUS
 62
     3
 10
108.262100
 20
168.833349
 30
0.0
  0
VERTEX
  8
CSLAYER1
  6
CONTINUOUS
 62
     3
 10
108.250214
 20
168.840844
 30
0.0
  0
VERTEX
  8
CSLAYER1
  6
CONTINUOUS
 62
     3
 10
108.238046
 20
168.846239
 30
0.0
  0
VERTEX
  8
CSLAYER1
  6
CONTINUOUS
 62
     3
 10
108.225690
 20
168.849492
 30
0.0
  0
VERTEX
  8
CSLAYER1
  6
CONTINUOUS
 62
     3
 10
108.213240
 20
168.850579
 30
0.0
  0
VERTEX
  8
CSLAYER1
  6
CONTINUOUS
 62
     3
 10
108.200789
 20
168.849492
 30
0.0
  0
VERTEX
  8
CSLAYER1
  6
CONTINUOUS
 62
     3
 10
108.188433
 20
168.846239
 30
0.0
  0
VERTEX
  8
CSLAYER1
  6
CONTINUOUS
 62
     3
 10
108.176265
 20
168.840844
 30
0.0
  0
VERTEX
  8
CSLAYER1
  6
CONTINUOUS
 62
     3
 10
108.164380
 20
168.833348
 30
0.0
  0
VERTEX
  8
CSLAYER1
  6
CONTINUOUS
 62
     3
 10
108.152866
 20
168.823810
 30
0.0
  0
VERTEX
  8
CSLAYER1
  6
CONTINUOUS
 62
     3
 10
108.141811
 20
168.812301
 30
0.0
  0
VERTEX
  8
CSLAYER1
  6
CONTINUOUS
 62
     3
 10
108.131300
 20
168.798908
 30
0.0
  0
VERTEX
  8
CSLAYER1
  6
CONTINUOUS
 62
     3
 10
108.121413
 20
168.783735
 30
0.0
  0
VERTEX
  8
CSLAYER1
  6
CONTINUOUS
 62
     3
 10
108.112401
 20
168.767248
 30
0.0
  0
SEQEND
  0
LINE
  8
CSLAYER1
  6
CONTINUOUS
 62
     3
 10
109.141811
 20
165.279151
 11
109.141811
 21
168.564865
  0
POLYLINE
  8
CSLAYER1
  6
CONTINUOUS
 62
     3
 66
     1
 10
0.0
 20
0.0
 30
0.0
  0
VERTEX
  8
CSLAYER1
  6
CONTINUOUS
 62
     3
 10
109.141811
 20
168.564865
 30
0.0
  0
VERTEX
  8
CSLAYER1
  6
CONTINUOUS
 62
     3
 10
109.141267
 20
168.589767
 30
0.0
  0
VERTEX
  8
CSLAYER1
  6
CONTINUOUS
 62
     3
 10
109.139641
 20
168.614479
 30
0.0
  0
VERTEX
  8
CSLAYER1
  6
CONTINUOUS
 62
     3
 10
109.136943
 20
168.638813
 30
0.0
  0
VERTEX
  8
CSLAYER1
  6
CONTINUOUS
 62
     3
 10
109.133196
 20
168.662585
 30
0.0
  0
VERTEX
  8
CSLAYER1
  6
CONTINUOUS
 62
     3
 10
109.128426
 20
168.685613
 30
0.0
  0
VERTEX
  8
CSLAYER1
  6
CONTINUOUS
 62
     3
 10
109.122672
 20
168.707722
 30
0.0
  0
VERTEX
  8
CSLAYER1
  6
CONTINUOUS
 62
     3
 10
109.115976
 20
168.728744
 30
0.0
  0
VERTEX
  8
CSLAYER1
  6
CONTINUOUS
 62
     3
 10
109.108389
 20
168.748519
 30
0.0
  0
VERTEX
  8
CSLAYER1
  6
CONTINUOUS
 62
     3
 10
109.099969
 20
168.766895
 30
0.0
  0
VERTEX
  8
CSLAYER1
  6
CONTINUOUS
 62
     3
 10
109.090781
 20
168.783735
 30
0.0
  0
VERTEX
  8
CSLAYER1
  6
CONTINUOUS
 62
     3
 10
109.080893
 20
168.798908
 30
0.0
  0
VERTEX
  8
CSLAYER1
  6
CONTINUOUS
 62
     3
 10
109.070382
 20
168.812301
 30
0.0
  0
VERTEX
  8
CSLAYER1
  6
CONTINUOUS
 62
     3
 10
109.059328
 20
168.823810
 30
0.0
  0
VERTEX
  8
CSLAYER1
  6
CONTINUOUS
 62
     3
 10
109.047814
 20
168.833349
 30
0.0
  0
VERTEX
  8
CSLAYER1
  6
CONTINUOUS
 62
     3
 10
109.035928
 20
168.840844
 30
0.0
  0
VERTEX
  8
CSLAYER1
  6
CONTINUOUS
 62
     3
 10
109.023761
 20
168.846239
 30
0.0
  0
VERTEX
  8
CSLAYER1
  6
CONTINUOUS
 62
     3
 10
109.011405
 20
168.849492
 30
0.0
  0
VERTEX
  8
CSLAYER1
  6
CONTINUOUS
 62
     3
 10
108.998954
 20
168.850579
 30
0.0
  0
VERTEX
  8
CSLAYER1
  6
CONTINUOUS
 62
     3
 10
108.986503
 20
168.849492
 30
0.0
  0
VERTEX
  8
CSLAYER1
  6
CONTINUOUS
 62
     3
 10
108.974147
 20
168.846239
 30
0.0
  0
VERTEX
  8
CSLAYER1
  6
CONTINUOUS
 62
     3
 10
108.961980
 20
168.840844
 30
0.0
  0
VERTEX
  8
CSLAYER1
  6
CONTINUOUS
 62
     3
 10
108.950094
 20
168.833348
 30
0.0
  0
VERTEX
  8
CSLAYER1
  6
CONTINUOUS
 62
     3
 10
108.938580
 20
168.823810
 30
0.0
  0
VERTEX
  8
CSLAYER1
  6
CONTINUOUS
 62
     3
 10
108.927525
 20
168.812301
 30
0.0
  0
VERTEX
  8
CSLAYER1
  6
CONTINUOUS
 62
     3
 10
108.917014
 20
168.798908
 30
0.0
  0
VERTEX
  8
CSLAYER1
  6
CONTINUOUS
 62
     3
 10
108.907127
 20
168.783735
 30
0.0
  0
VERTEX
  8
CSLAYER1
  6
CONTINUOUS
 62
     3
 10
108.898115
 20
168.767248
 30
0.0
  0
SEQEND
  0
LINE
  8
CSLAYER1
  6
CONTINUOUS
 62
     3
 10
108.927525
 20
165.279151
 11
108.927525
 21
168.564865
  0
POLYLINE
  8
CSLAYER1
  6
CONTINUOUS
 62
     3
 66
     1
 10
0.0
 20
0.0
 30
0.0
  0
VERTEX
  8
CSLAYER1
  6
CONTINUOUS
 62
     3
 10
108.927525
 20
168.564865
 30
0.0
  0
VERTEX
  8
CSLAYER1
  6
CONTINUOUS
 62
     3
 10
108.926982
 20
168.589767
 30
0.0
  0
VERTEX
  8
CSLAYER1
  6
CONTINUOUS
 62
     3
 10
108.925355
 20
168.614479
 30
0.0
  0
VERTEX
  8
CSLAYER1
  6
CONTINUOUS
 62
     3
 10
108.922658
 20
168.638813
 30
0.0
  0
VERTEX
  8
CSLAYER1
  6
CONTINUOUS
 62
     3
 10
108.918910
 20
168.662585
 30
0.0
  0
VERTEX
  8
CSLAYER1
  6
CONTINUOUS
 62
     3
 10
108.914141
 20
168.685613
 30
0.0
  0
VERTEX
  8
CSLAYER1
  6
CONTINUOUS
 62
     3
 10
108.908386
 20
168.707722
 30
0.0
  0
VERTEX
  8
CSLAYER1
  6
CONTINUOUS
 62
     3
 10
108.901690
 20
168.728744
 30
0.0
  0
VERTEX
  8
CSLAYER1
  6
CONTINUOUS
 62
     3
 10
108.894103
 20
168.748519
 30
0.0
  0
VERTEX
  8
CSLAYER1
  6
CONTINUOUS
 62
     3
 10
108.885683
 20
168.766895
 30
0.0
  0
VERTEX
  8
CSLAYER1
  6
CONTINUOUS
 62
     3
 10
108.876495
 20
168.783735
 30
0.0
  0
VERTEX
  8
CSLAYER1
  6
CONTINUOUS
 62
     3
 10
108.866608
 20
168.798908
 30
0.0
  0
VERTEX
  8
CSLAYER1
  6
CONTINUOUS
 62
     3
 10
108.856097
 20
168.812301
 30
0.0
  0
VERTEX
  8
CSLAYER1
  6
CONTINUOUS
 62
     3
 10
108.845042
 20
168.823810
 30
0.0
  0
VERTEX
  8
CSLAYER1
  6
CONTINUOUS
 62
     3
 10
108.833528
 20
168.833349
 30
0.0
  0
VERTEX
  8
CSLAYER1
  6
CONTINUOUS
 62
     3
 10
108.821642
 20
168.840844
 30
0.0
  0
VERTEX
  8
CSLAYER1
  6
CONTINUOUS
 62
     3
 10
108.809475
 20
168.846239
 30
0.0
  0
VERTEX
  8
CSLAYER1
  6
CONTINUOUS
 62
     3
 10
108.797119
 20
168.849492
 30
0.0
  0
VERTEX
  8
CSLAYER1
  6
CONTINUOUS
 62
     3
 10
108.784668
 20
168.850579
 30
0.0
  0
VERTEX
  8
CSLAYER1
  6
CONTINUOUS
 62
     3
 10
108.772217
 20
168.849492
 30
0.0
  0
VERTEX
  8
CSLAYER1
  6
CONTINUOUS
 62
     3
 10
108.759861
 20
168.846239
 30
0.0
  0
VERTEX
  8
CSLAYER1
  6
CONTINUOUS
 62
     3
 10
108.747694
 20
168.840844
 30
0.0
  0
VERTEX
  8
CSLAYER1
  6
CONTINUOUS
 62
     3
 10
108.735808
 20
168.833348
 30
0.0
  0
VERTEX
  8
CSLAYER1
  6
CONTINUOUS
 62
     3
 10
108.724294
 20
168.823810
 30
0.0
  0
VERTEX
  8
CSLAYER1
  6
CONTINUOUS
 62
     3
 10
108.713240
 20
168.812301
 30
0.0
  0
VERTEX
  8
CSLAYER1
  6
CONTINUOUS
 62
     3
 10
108.702729
 20
168.798908
 30
0.0
  0
VERTEX
  8
CSLAYER1
  6
CONTINUOUS
 62
     3
 10
108.692841
 20
168.783735
 30
0.0
  0
VERTEX
  8
CSLAYER1
  6
CONTINUOUS
 62
     3
 10
108.683829
 20
168.767248
 30
0.0
  0
SEQEND
  0
LINE
  8
CSLAYER1
  6
CONTINUOUS
 62
     3
 10
108.713240
 20
165.279151
 11
108.713240
 21
168.564865
  0
POLYLINE
  8
CSLAYER1
  6
CONTINUOUS
 62
     3
 66
     1
 10
0.0
 20
0.0
 30
0.0
  0
VERTEX
  8
CSLAYER1
  6
CONTINUOUS
 62
     3
 10
108.713240
 20
168.564865
 30
0.0
  0
VERTEX
  8
CSLAYER1
  6
CONTINUOUS
 62
     3
 10
108.712696
 20
168.589767
 30
0.0
  0
VERTEX
  8
CSLAYER1
  6
CONTINUOUS
 62
     3
 10
108.711069
 20
168.614479
 30
0.0
  0
VERTEX
  8
CSLAYER1
  6
CONTINUOUS
 62
     3
 10
108.708372
 20
168.638813
 30
0.0
  0
VERTEX
  8
CSLAYER1
  6
CONTINUOUS
 62
     3
 10
108.704624
 20
168.662585
 30
0.0
  0
VERTEX
  8
CSLAYER1
  6
CONTINUOUS
 62
     3
 10
108.699855
 20
168.685613
 30
0.0
  0
VERTEX
  8
CSLAYER1
  6
CONTINUOUS
 62
     3
 10
108.694100
 20
168.707722
 30
0.0
  0
VERTEX
  8
CSLAYER1
  6
CONTINUOUS
 62
     3
 10
108.687404
 20
168.728744
 30
0.0
  0
VERTEX
  8
CSLAYER1
  6
CONTINUOUS
 62
     3
 10
108.679817
 20
168.748519
 30
0.0
  0
VERTEX
  8
CSLAYER1
  6
CONTINUOUS
 62
     3
 10
108.671398
 20
168.766895
 30
0.0
  0
VERTEX
  8
CSLAYER1
  6
CONTINUOUS
 62
     3
 10
108.662209
 20
168.783735
 30
0.0
  0
VERTEX
  8
CSLAYER1
  6
CONTINUOUS
 62
     3
 10
108.652322
 20
168.798908
 30
0.0
  0
VERTEX
  8
CSLAYER1
  6
CONTINUOUS
 62
     3
 10
108.641811
 20
168.812301
 30
0.0
  0
VERTEX
  8
CSLAYER1
  6
CONTINUOUS
 62
     3
 10
108.630756
 20
168.823810
 30
0.0
  0
VERTEX
  8
CSLAYER1
  6
CONTINUOUS
 62
     3
 10
108.619242
 20
168.833349
 30
0.0
  0
VERTEX
  8
CSLAYER1
  6
CONTINUOUS
 62
     3
 10
108.607357
 20
168.840844
 30
0.0
  0
VERTEX
  8
CSLAYER1
  6
CONTINUOUS
 62
     3
 10
108.595189
 20
168.846239
 30
0.0
  0
VERTEX
  8
CSLAYER1
  6
CONTINUOUS
 62
     3
 10
108.582833
 20
168.849492
 30
0.0
  0
VERTEX
  8
CSLAYER1
  6
CONTINUOUS
 62
     3
 10
108.570382
 20
168.850579
 30
0.0
  0
VERTEX
  8
CSLAYER1
  6
CONTINUOUS
 62
     3
 10
108.557932
 20
168.849492
 30
0.0
  0
VERTEX
  8
CSLAYER1
  6
CONTINUOUS
 62
     3
 10
108.545576
 20
168.846239
 30
0.0
  0
VERTEX
  8
CSLAYER1
  6
CONTINUOUS
 62
     3
 10
108.533408
 20
168.840844
 30
0.0
  0
VERTEX
  8
CSLAYER1
  6
CONTINUOUS
 62
     3
 10
108.521522
 20
168.833348
 30
0.0
  0
VERTEX
  8
CSLAYER1
  6
CONTINUOUS
 62
     3
 10
108.510008
 20
168.823810
 30
0.0
  0
VERTEX
  8
CSLAYER1
  6
CONTINUOUS
 62
     3
 10
108.498954
 20
168.812301
 30
0.0
  0
VERTEX
  8
CSLAYER1
  6
CONTINUOUS
 62
     3
 10
108.488443
 20
168.798908
 30
0.0
  0
VERTEX
  8
CSLAYER1
  6
CONTINUOUS
 62
     3
 10
108.478556
 20
168.783735
 30
0.0
  0
VERTEX
  8
CSLAYER1
  6
CONTINUOUS
 62
     3
 10
108.469544
 20
168.767248
 30
0.0
  0
SEQEND
  0
LINE
  8
CSLAYER1
  6
CONTINUOUS
 62
     3
 10
104.784668
 20
165.279151
 11
104.784668
 21
168.564865
  0
POLYLINE
  8
CSLAYER1
  6
CONTINUOUS
 62
     3
 66
     1
 10
0.0
 20
0.0
 30
0.0
  0
VERTEX
  8
CSLAYER1
  6
CONTINUOUS
 62
     3
 10
104.963240
 20
168.841507
 30
0.0
  0
VERTEX
  8
CSLAYER1
  6
CONTINUOUS
 62
     3
 10
104.951048
 20
168.846679
 30
0.0
  0
VERTEX
  8
CSLAYER1
  6
CONTINUOUS
 62
     3
 10
104.938678
 20
168.849707
 30
0.0
  0
VERTEX
  8
CSLAYER1
  6
CONTINUOUS
 62
     3
 10
104.926223
 20
168.850567
 30
0.0
  0
VERTEX
  8
CSLAYER1
  6
CONTINUOUS
 62
     3
 10
104.913777
 20
168.849253
 30
0.0
  0
VERTEX
  8
CSLAYER1
  6
CONTINUOUS
 62
     3
 10
104.901437
 20
168.845774
 30
0.0
  0
VERTEX
  8
CSLAYER1
  6
CONTINUOUS
 62
     3
 10
104.889294
 20
168.840158
 30
0.0
  0
VERTEX
  8
CSLAYER1
  6
CONTINUOUS
 62
     3
 10
104.877443
 20
168.832446
 30
0.0
  0
VERTEX
  8
CSLAYER1
  6
CONTINUOUS
 62
     3
 10
104.865973
 20
168.822698
 30
0.0
  0
VERTEX
  8
CSLAYER1
  6
CONTINUOUS
 62
     3
 10
104.854972
 20
168.810988
 30
0.0
  0
VERTEX
  8
CSLAYER1
  6
CONTINUOUS
 62
     3
 10
104.844522
 20
168.797404
 30
0.0
  0
VERTEX
  8
CSLAYER1
  6
CONTINUOUS
 62
     3
 10
104.834704
 20
168.782051
 30
0.0
  0
VERTEX
  8
CSLAYER1
  6
CONTINUOUS
 62
     3
 10
104.825593
 20
168.765045
 30
0.0
  0
VERTEX
  8
CSLAYER1
  6
CONTINUOUS
 62
     3
 10
104.817258
 20
168.746515
 30
0.0
  0
VERTEX
  8
CSLAYER1
  6
CONTINUOUS
 62
     3
 10
104.809761
 20
168.726603
 30
0.0
  0
VERTEX
  8
CSLAYER1
  6
CONTINUOUS
 62
     3
 10
104.803161
 20
168.705460
 30
0.0
  0
VERTEX
  8
CSLAYER1
  6
CONTINUOUS
 62
     3
 10
104.797508
 20
168.683247
 30
0.0
  0
VERTEX
  8
CSLAYER1
  6
CONTINUOUS
 62
     3
 10
104.792844
 20
168.660133
 30
0.0
  0
VERTEX
  8
CSLAYER1
  6
CONTINUOUS
 62
     3
 10
104.789204
 20
168.636293
 30
0.0
  0
VERTEX
  8
CSLAYER1
  6
CONTINUOUS
 62
     3
 10
104.786618
 20
168.611911
 30
0.0
  0
VERTEX
  8
CSLAYER1
  6
CONTINUOUS
 62
     3
 10
104.785104
 20
168.587170
 30
0.0
  0
VERTEX
  8
CSLAYER1
  6
CONTINUOUS
 62
     3
 10
104.784668
 20
168.564865
 30
0.0
  0
SEQEND
  0
POLYLINE
  8
CSLAYER1
  6
CONTINUOUS
 62
     3
 66
     1
 10
0.0
 20
0.0
 30
0.0
  0
VERTEX
  8
CSLAYER1
  6
CONTINUOUS
 62
     3
 10
104.784668
 20
165.279150
 30
0.0
  0
VERTEX
  8
CSLAYER1
  6
CONTINUOUS
 62
     3
 10
104.785212
 20
165.254249
 30
0.0
  0
VERTEX
  8
CSLAYER1
  6
CONTINUOUS
 62
     3
 10
104.786838
 20
165.229537
 30
0.0
  0
VERTEX
  8
CSLAYER1
  6
CONTINUOUS
 62
     3
 10
104.789536
 20
165.205202
 30
0.0
  0
VERTEX
  8
CSLAYER1
  6
CONTINUOUS
 62
     3
 10
104.793284
 20
165.181430
 30
0.0
  0
VERTEX
  8
CSLAYER1
  6
CONTINUOUS
 62
     3
 10
104.798053
 20
165.158402
 30
0.0
  0
VERTEX
  8
CSLAYER1
  6
CONTINUOUS
 62
     3
 10
104.803807
 20
165.136293
 30
0.0
  0
VERTEX
  8
CSLAYER1
  6
CONTINUOUS
 62
     3
 10
104.810504
 20
165.115272
 30
0.0
  0
VERTEX
  8
CSLAYER1
  6
CONTINUOUS
 62
     3
 10
104.818090
 20
165.095497
 30
0.0
  0
VERTEX
  8
CSLAYER1
  6
CONTINUOUS
 62
     3
 10
104.826510
 20
165.077120
 30
0.0
  0
VERTEX
  8
CSLAYER1
  6
CONTINUOUS
 62
     3
 10
104.835699
 20
165.060281
 30
0.0
  0
VERTEX
  8
CSLAYER1
  6
CONTINUOUS
 62
     3
 10
104.845586
 20
165.045107
 30
0.0
  0
VERTEX
  8
CSLAYER1
  6
CONTINUOUS
 62
     3
 10
104.856097
 20
165.031715
 30
0.0
  0
VERTEX
  8
CSLAYER1
  6
CONTINUOUS
 62
     3
 10
104.867151
 20
165.020205
 30
0.0
  0
VERTEX
  8
CSLAYER1
  6
CONTINUOUS
 62
     3
 10
104.878665
 20
165.010667
 30
0.0
  0
VERTEX
  8
CSLAYER1
  6
CONTINUOUS
 62
     3
 10
104.890551
 20
165.003172
 30
0.0
  0
VERTEX
  8
CSLAYER1
  6
CONTINUOUS
 62
     3
 10
104.902718
 20
164.997777
 30
0.0
  0
VERTEX
  8
CSLAYER1
  6
CONTINUOUS
 62
     3
 10
104.915075
 20
164.994524
 30
0.0
  0
VERTEX
  8
CSLAYER1
  6
CONTINUOUS
 62
     3
 10
104.927525
 20
164.993436
 30
0.0
  0
SEQEND
  0
LINE
  8
CSLAYER1
  6
CONTINUOUS
 62
     3
 10
104.427525
 20
165.279151
 11
104.427525
 21
168.564865
  0
POLYLINE
  8
CSLAYER1
  6
CONTINUOUS
 62
     3
 66
     1
 10
0.0
 20
0.0
 30
0.0
  0
VERTEX
  8
CSLAYER1
  6
CONTINUOUS
 62
     3
 10
104.671221
 20
168.767248
 30
0.0
  0
VERTEX
  8
CSLAYER1
  6
CONTINUOUS
 62
     3
 10
104.662018
 20
168.784055
 30
0.0
  0
VERTEX
  8
CSLAYER1
  6
CONTINUOUS
 62
     3
 10
104.652118
 20
168.799194
 30
0.0
  0
VERTEX
  8
CSLAYER1
  6
CONTINUOUS
 62
     3
 10
104.641595
 20
168.812550
 30
0.0
  0
VERTEX
  8
CSLAYER1
  6
CONTINUOUS
 62
     3
 10
104.630530
 20
168.824020
 30
0.0
  0
VERTEX
  8
CSLAYER1
  6
CONTINUOUS
 62
     3
 10
104.619008
 20
168.833519
 30
0.0
  0
VERTEX
  8
CSLAYER1
  6
CONTINUOUS
 62
     3
 10
104.607116
 20
168.840972
 30
0.0
  0
VERTEX
  8
CSLAYER1
  6
CONTINUOUS
 62
     3
 10
104.594944
 20
168.846325
 30
0.0
  0
VERTEX
  8
CSLAYER1
  6
CONTINUOUS
 62
     3
 10
104.582585
 20
168.849535
 30
0.0
  0
VERTEX
  8
CSLAYER1
  6
CONTINUOUS
 62
     3
 10
104.570133
 20
168.850579
 30
0.0
  0
VERTEX
  8
CSLAYER1
  6
CONTINUOUS
 62
     3
 10
104.557683
 20
168.849448
 30
0.0
  0
VERTEX
  8
CSLAYER1
  6
CONTINUOUS
 62
     3
 10
104.545330
 20
168.846152
 30
0.0
  0
VERTEX
  8
CSLAYER1
  6
CONTINUOUS
 62
     3
 10
104.533168
 20
168.840714
 30
0.0
  0
VERTEX
  8
CSLAYER1
  6
CONTINUOUS
 62
     3
 10
104.521288
 20
168.833178
 30
0.0
  0
VERTEX
  8
CSLAYER1
  6
CONTINUOUS
 62
     3
 10
104.509783
 20
168.823599
 30
0.0
  0
VERTEX
  8
CSLAYER1
  6
CONTINUOUS
 62
     3
 10
104.498738
 20
168.812051
 30
0.0
  0
VERTEX
  8
CSLAYER1
  6
CONTINUOUS
 62
     3
 10
104.488239
 20
168.798622
 30
0.0
  0
VERTEX
  8
CSLAYER1
  6
CONTINUOUS
 62
     3
 10
104.478365
 20
168.783414
 30
0.0
  0
VERTEX
  8
CSLAYER1
  6
CONTINUOUS
 62
     3
 10
104.469191
 20
168.766543
 30
0.0
  0
VERTEX
  8
CSLAYER1
  6
CONTINUOUS
 62
     3
 10
104.460787
 20
168.748136
 30
0.0
  0
VERTEX
  8
CSLAYER1
  6
CONTINUOUS
 62
     3
 10
104.453218
 20
168.728335
 30
0.0
  0
VERTEX
  8
CSLAYER1
  6
CONTINUOUS
 62
     3
 10
104.446540
 20
168.707290
 30
0.0
  0
VERTEX
  8
CSLAYER1
  6
CONTINUOUS
 62
     3
 10
104.440805
 20
168.685161
 30
0.0
  0
VERTEX
  8
CSLAYER1
  6
CONTINUOUS
 62
     3
 10
104.436056
 20
168.662116
 30
0.0
  0
VERTEX
  8
CSLAYER1
  6
CONTINUOUS
 62
     3
 10
104.432329
 20
168.638331
 30
0.0
  0
VERTEX
  8
CSLAYER1
  6
CONTINUOUS
 62
     3
 10
104.429653
 20
168.613988
 30
0.0
  0
VERTEX
  8
CSLAYER1
  6
CONTINUOUS
 62
     3
 10
104.428047
 20
168.589270
 30
0.0
  0
VERTEX
  8
CSLAYER1
  6
CONTINUOUS
 62
     3
 10
104.427525
 20
168.564865
 30
0.0
  0
SEQEND
  0
LINE
  8
CSLAYER1
  6
CONTINUOUS
 62
     3
 10
104.070382
 20
165.279151
 11
104.070382
 21
168.564865
  0
POLYLINE
  8
CSLAYER1
  6
CONTINUOUS
 62
     3
 66
     1
 10
0.0
 20
0.0
 30
0.0
  0
VERTEX
  8
CSLAYER1
  6
CONTINUOUS
 62
     3
 10
104.314078
 20
168.767248
 30
0.0
  0
VERTEX
  8
CSLAYER1
  6
CONTINUOUS
 62
     3
 10
104.304875
 20
168.784055
 30
0.0
  0
VERTEX
  8
CSLAYER1
  6
CONTINUOUS
 62
     3
 10
104.294975
 20
168.799194
 30
0.0
  0
VERTEX
  8
CSLAYER1
  6
CONTINUOUS
 62
     3
 10
104.284452
 20
168.812550
 30
0.0
  0
VERTEX
  8
CSLAYER1
  6
CONTINUOUS
 62
     3
 10
104.273388
 20
168.824020
 30
0.0
  0
VERTEX
  8
CSLAYER1
  6
CONTINUOUS
 62
     3
 10
104.261865
 20
168.833519
 30
0.0
  0
VERTEX
  8
CSLAYER1
  6
CONTINUOUS
 62
     3
 10
104.249973
 20
168.840972
 30
0.0
  0
VERTEX
  8
CSLAYER1
  6
CONTINUOUS
 62
     3
 10
104.237801
 20
168.846325
 30
0.0
  0
VERTEX
  8
CSLAYER1
  6
CONTINUOUS
 62
     3
 10
104.225442
 20
168.849535
 30
0.0
  0
VERTEX
  8
CSLAYER1
  6
CONTINUOUS
 62
     3
 10
104.212990
 20
168.850579
 30
0.0
  0
VERTEX
  8
CSLAYER1
  6
CONTINUOUS
 62
     3
 10
104.200540
 20
168.849448
 30
0.0
  0
VERTEX
  8
CSLAYER1
  6
CONTINUOUS
 62
     3
 10
104.188187
 20
168.846152
 30
0.0
  0
VERTEX
  8
CSLAYER1
  6
CONTINUOUS
 62
     3
 10
104.176025
 20
168.840714
 30
0.0
  0
VERTEX
  8
CSLAYER1
  6
CONTINUOUS
 62
     3
 10
104.164145
 20
168.833178
 30
0.0
  0
VERTEX
  8
CSLAYER1
  6
CONTINUOUS
 62
     3
 10
104.152640
 20
168.823599
 30
0.0
  0
VERTEX
  8
CSLAYER1
  6
CONTINUOUS
 62
     3
 10
104.141595
 20
168.812051
 30
0.0
  0
VERTEX
  8
CSLAYER1
  6
CONTINUOUS
 62
     3
 10
104.131096
 20
168.798622
 30
0.0
  0
VERTEX
  8
CSLAYER1
  6
CONTINUOUS
 62
     3
 10
104.121222
 20
168.783414
 30
0.0
  0
VERTEX
  8
CSLAYER1
  6
CONTINUOUS
 62
     3
 10
104.112048
 20
168.766543
 30
0.0
  0
VERTEX
  8
CSLAYER1
  6
CONTINUOUS
 62
     3
 10
104.103645
 20
168.748136
 30
0.0
  0
VERTEX
  8
CSLAYER1
  6
CONTINUOUS
 62
     3
 10
104.096075
 20
168.728335
 30
0.0
  0
VERTEX
  8
CSLAYER1
  6
CONTINUOUS
 62
     3
 10
104.089397
 20
168.707290
 30
0.0
  0
VERTEX
  8
CSLAYER1
  6
CONTINUOUS
 62
     3
 10
104.083662
 20
168.685161
 30
0.0
  0
VERTEX
  8
CSLAYER1
  6
CONTINUOUS
 62
     3
 10
104.078913
 20
168.662116
 30
0.0
  0
VERTEX
  8
CSLAYER1
  6
CONTINUOUS
 62
     3
 10
104.075186
 20
168.638331
 30
0.0
  0
VERTEX
  8
CSLAYER1
  6
CONTINUOUS
 62
     3
 10
104.072510
 20
168.613988
 30
0.0
  0
VERTEX
  8
CSLAYER1
  6
CONTINUOUS
 62
     3
 10
104.070905
 20
168.589270
 30
0.0
  0
VERTEX
  8
CSLAYER1
  6
CONTINUOUS
 62
     3
 10
104.070382
 20
168.564865
 30
0.0
  0
SEQEND
  0
LINE
  8
CSLAYER1
  6
CONTINUOUS
 62
     3
 10
103.570382
 20
165.279151
 11
103.570382
 21
168.564865
  0
POLYLINE
  8
CSLAYER1
  6
CONTINUOUS
 62
     3
 66
     1
 10
0.0
 20
0.0
 30
0.0
  0
VERTEX
  8
CSLAYER1
  6
CONTINUOUS
 62
     3
 10
103.814078
 20
168.767248
 30
0.0
  0
VERTEX
  8
CSLAYER1
  6
CONTINUOUS
 62
     3
 10
103.804875
 20
168.784055
 30
0.0
  0
VERTEX
  8
CSLAYER1
  6
CONTINUOUS
 62
     3
 10
103.794975
 20
168.799194
 30
0.0
  0
VERTEX
  8
CSLAYER1
  6
CONTINUOUS
 62
     3
 10
103.784452
 20
168.812550
 30
0.0
  0
VERTEX
  8
CSLAYER1
  6
CONTINUOUS
 62
     3
 10
103.773388
 20
168.824020
 30
0.0
  0
VERTEX
  8
CSLAYER1
  6
CONTINUOUS
 62
     3
 10
103.761865
 20
168.833519
 30
0.0
  0
VERTEX
  8
CSLAYER1
  6
CONTINUOUS
 62
     3
 10
103.749973
 20
168.840972
 30
0.0
  0
VERTEX
  8
CSLAYER1
  6
CONTINUOUS
 62
     3
 10
103.737801
 20
168.846325
 30
0.0
  0
VERTEX
  8
CSLAYER1
  6
CONTINUOUS
 62
     3
 10
103.725442
 20
168.849535
 30
0.0
  0
VERTEX
  8
CSLAYER1
  6
CONTINUOUS
 62
     3
 10
103.712990
 20
168.850579
 30
0.0
  0
VERTEX
  8
CSLAYER1
  6
CONTINUOUS
 62
     3
 10
103.700540
 20
168.849448
 30
0.0
  0
VERTEX
  8
CSLAYER1
  6
CONTINUOUS
 62
     3
 10
103.688187
 20
168.846152
 30
0.0
  0
VERTEX
  8
CSLAYER1
  6
CONTINUOUS
 62
     3
 10
103.676025
 20
168.840714
 30
0.0
  0
VERTEX
  8
CSLAYER1
  6
CONTINUOUS
 62
     3
 10
103.664145
 20
168.833178
 30
0.0
  0
VERTEX
  8
CSLAYER1
  6
CONTINUOUS
 62
     3
 10
103.652640
 20
168.823599
 30
0.0
  0
VERTEX
  8
CSLAYER1
  6
CONTINUOUS
 62
     3
 10
103.641595
 20
168.812051
 30
0.0
  0
VERTEX
  8
CSLAYER1
  6
CONTINUOUS
 62
     3
 10
103.631096
 20
168.798622
 30
0.0
  0
VERTEX
  8
CSLAYER1
  6
CONTINUOUS
 62
     3
 10
103.621222
 20
168.783414
 30
0.0
  0
VERTEX
  8
CSLAYER1
  6
CONTINUOUS
 62
     3
 10
103.612048
 20
168.766543
 30
0.0
  0
VERTEX
  8
CSLAYER1
  6
CONTINUOUS
 62
     3
 10
103.603645
 20
168.748136
 30
0.0
  0
VERTEX
  8
CSLAYER1
  6
CONTINUOUS
 62
     3
 10
103.596075
 20
168.728335
 30
0.0
  0
VERTEX
  8
CSLAYER1
  6
CONTINUOUS
 62
     3
 10
103.589397
 20
168.707290
 30
0.0
  0
VERTEX
  8
CSLAYER1
  6
CONTINUOUS
 62
     3
 10
103.583662
 20
168.685161
 30
0.0
  0
VERTEX
  8
CSLAYER1
  6
CONTINUOUS
 62
     3
 10
103.578913
 20
168.662116
 30
0.0
  0
VERTEX
  8
CSLAYER1
  6
CONTINUOUS
 62
     3
 10
103.575186
 20
168.638331
 30
0.0
  0
VERTEX
  8
CSLAYER1
  6
CONTINUOUS
 62
     3
 10
103.572510
 20
168.613988
 30
0.0
  0
VERTEX
  8
CSLAYER1
  6
CONTINUOUS
 62
     3
 10
103.570905
 20
168.589270
 30
0.0
  0
VERTEX
  8
CSLAYER1
  6
CONTINUOUS
 62
     3
 10
103.570382
 20
168.564865
 30
0.0
  0
SEQEND
  0
LINE
  8
CSLAYER1
  6
CONTINUOUS
 62
     3
 10
103.070382
 20
165.279151
 11
103.070382
 21
168.564865
  0
POLYLINE
  8
CSLAYER1
  6
CONTINUOUS
 62
     3
 66
     1
 10
0.0
 20
0.0
 30
0.0
  0
VERTEX
  8
CSLAYER1
  6
CONTINUOUS
 62
     3
 10
103.314078
 20
168.767248
 30
0.0
  0
VERTEX
  8
CSLAYER1
  6
CONTINUOUS
 62
     3
 10
103.304875
 20
168.784055
 30
0.0
  0
VERTEX
  8
CSLAYER1
  6
CONTINUOUS
 62
     3
 10
103.294975
 20
168.799194
 30
0.0
  0
VERTEX
  8
CSLAYER1
  6
CONTINUOUS
 62
     3
 10
103.284452
 20
168.812550
 30
0.0
  0
VERTEX
  8
CSLAYER1
  6
CONTINUOUS
 62
     3
 10
103.273388
 20
168.824020
 30
0.0
  0
VERTEX
  8
CSLAYER1
  6
CONTINUOUS
 62
     3
 10
103.261865
 20
168.833519
 30
0.0
  0
VERTEX
  8
CSLAYER1
  6
CONTINUOUS
 62
     3
 10
103.249973
 20
168.840972
 30
0.0
  0
VERTEX
  8
CSLAYER1
  6
CONTINUOUS
 62
     3
 10
103.237801
 20
168.846325
 30
0.0
  0
VERTEX
  8
CSLAYER1
  6
CONTINUOUS
 62
     3
 10
103.225442
 20
168.849535
 30
0.0
  0
VERTEX
  8
CSLAYER1
  6
CONTINUOUS
 62
     3
 10
103.212990
 20
168.850579
 30
0.0
  0
VERTEX
  8
CSLAYER1
  6
CONTINUOUS
 62
     3
 10
103.200540
 20
168.849448
 30
0.0
  0
VERTEX
  8
CSLAYER1
  6
CONTINUOUS
 62
     3
 10
103.188187
 20
168.846152
 30
0.0
  0
VERTEX
  8
CSLAYER1
  6
CONTINUOUS
 62
     3
 10
103.176025
 20
168.840714
 30
0.0
  0
VERTEX
  8
CSLAYER1
  6
CONTINUOUS
 62
     3
 10
103.164145
 20
168.833178
 30
0.0
  0
VERTEX
  8
CSLAYER1
  6
CONTINUOUS
 62
     3
 10
103.152640
 20
168.823599
 30
0.0
  0
VERTEX
  8
CSLAYER1
  6
CONTINUOUS
 62
     3
 10
103.141595
 20
168.812051
 30
0.0
  0
VERTEX
  8
CSLAYER1
  6
CONTINUOUS
 62
     3
 10
103.131096
 20
168.798622
 30
0.0
  0
VERTEX
  8
CSLAYER1
  6
CONTINUOUS
 62
     3
 10
103.121222
 20
168.783414
 30
0.0
  0
VERTEX
  8
CSLAYER1
  6
CONTINUOUS
 62
     3
 10
103.112048
 20
168.766543
 30
0.0
  0
VERTEX
  8
CSLAYER1
  6
CONTINUOUS
 62
     3
 10
103.103645
 20
168.748136
 30
0.0
  0
VERTEX
  8
CSLAYER1
  6
CONTINUOUS
 62
     3
 10
103.096075
 20
168.728335
 30
0.0
  0
VERTEX
  8
CSLAYER1
  6
CONTINUOUS
 62
     3
 10
103.089397
 20
168.707290
 30
0.0
  0
VERTEX
  8
CSLAYER1
  6
CONTINUOUS
 62
     3
 10
103.083662
 20
168.685161
 30
0.0
  0
VERTEX
  8
CSLAYER1
  6
CONTINUOUS
 62
     3
 10
103.078913
 20
168.662116
 30
0.0
  0
VERTEX
  8
CSLAYER1
  6
CONTINUOUS
 62
     3
 10
103.075186
 20
168.638331
 30
0.0
  0
VERTEX
  8
CSLAYER1
  6
CONTINUOUS
 62
     3
 10
103.072510
 20
168.613988
 30
0.0
  0
VERTEX
  8
CSLAYER1
  6
CONTINUOUS
 62
     3
 10
103.070905
 20
168.589270
 30
0.0
  0
VERTEX
  8
CSLAYER1
  6
CONTINUOUS
 62
     3
 10
103.070382
 20
168.564865
 30
0.0
  0
SEQEND
  0
LINE
  8
CSLAYER1
  6
CONTINUOUS
 62
     3
 10
102.498954
 20
165.279151
 11
102.498954
 21
168.564865
  0
POLYLINE
  8
CSLAYER1
  6
CONTINUOUS
 62
     3
 66
     1
 10
0.0
 20
0.0
 30
0.0
  0
VERTEX
  8
CSLAYER1
  6
CONTINUOUS
 62
     3
 10
102.742650
 20
168.767248
 30
0.0
  0
VERTEX
  8
CSLAYER1
  6
CONTINUOUS
 62
     3
 10
102.733447
 20
168.784055
 30
0.0
  0
VERTEX
  8
CSLAYER1
  6
CONTINUOUS
 62
     3
 10
102.723546
 20
168.799194
 30
0.0
  0
VERTEX
  8
CSLAYER1
  6
CONTINUOUS
 62
     3
 10
102.713024
 20
168.812550
 30
0.0
  0
VERTEX
  8
CSLAYER1
  6
CONTINUOUS
 62
     3
 10
102.701959
 20
168.824020
 30
0.0
  0
VERTEX
  8
CSLAYER1
  6
CONTINUOUS
 62
     3
 10
102.690437
 20
168.833519
 30
0.0
  0
VERTEX
  8
CSLAYER1
  6
CONTINUOUS
 62
     3
 10
102.678544
 20
168.840972
 30
0.0
  0
VERTEX
  8
CSLAYER1
  6
CONTINUOUS
 62
     3
 10
102.666372
 20
168.846325
 30
0.0
  0
VERTEX
  8
CSLAYER1
  6
CONTINUOUS
 62
     3
 10
102.654013
 20
168.849535
 30
0.0
  0
VERTEX
  8
CSLAYER1
  6
CONTINUOUS
 62
     3
 10
102.641562
 20
168.850579
 30
0.0
  0
VERTEX
  8
CSLAYER1
  6
CONTINUOUS
 62
     3
 10
102.629112
 20
168.849448
 30
0.0
  0
VERTEX
  8
CSLAYER1
  6
CONTINUOUS
 62
     3
 10
102.616759
 20
168.846152
 30
0.0
  0
VERTEX
  8
CSLAYER1
  6
CONTINUOUS
 62
     3
 10
102.604596
 20
168.840714
 30
0.0
  0
VERTEX
  8
CSLAYER1
  6
CONTINUOUS
 62
     3
 10
102.592717
 20
168.833178
 30
0.0
  0
VERTEX
  8
CSLAYER1
  6
CONTINUOUS
 62
     3
 10
102.581211
 20
168.823599
 30
0.0
  0
VERTEX
  8
CSLAYER1
  6
CONTINUOUS
 62
     3
 10
102.570167
 20
168.812051
 30
0.0
  0
VERTEX
  8
CSLAYER1
  6
CONTINUOUS
 62
     3
 10
102.559667
 20
168.798622
 30
0.0
  0
VERTEX
  8
CSLAYER1
  6
CONTINUOUS
 62
     3
 10
102.549793
 20
168.783414
 30
0.0
  0
VERTEX
  8
CSLAYER1
  6
CONTINUOUS
 62
     3
 10
102.540620
 20
168.766543
 30
0.0
  0
VERTEX
  8
CSLAYER1
  6
CONTINUOUS
 62
     3
 10
102.532216
 20
168.748136
 30
0.0
  0
VERTEX
  8
CSLAYER1
  6
CONTINUOUS
 62
     3
 10
102.524646
 20
168.728335
 30
0.0
  0
VERTEX
  8
CSLAYER1
  6
CONTINUOUS
 62
     3
 10
102.517969
 20
168.707290
 30
0.0
  0
VERTEX
  8
CSLAYER1
  6
CONTINUOUS
 62
     3
 10
102.512233
 20
168.685161
 30
0.0
  0
VERTEX
  8
CSLAYER1
  6
CONTINUOUS
 62
     3
 10
102.507484
 20
168.662116
 30
0.0
  0
VERTEX
  8
CSLAYER1
  6
CONTINUOUS
 62
     3
 10
102.503757
 20
168.638331
 30
0.0
  0
VERTEX
  8
CSLAYER1
  6
CONTINUOUS
 62
     3
 10
102.501081
 20
168.613988
 30
0.0
  0
VERTEX
  8
CSLAYER1
  6
CONTINUOUS
 62
     3
 10
102.499476
 20
168.589270
 30
0.0
  0
VERTEX
  8
CSLAYER1
  6
CONTINUOUS
 62
     3
 10
102.498954
 20
168.564865
 30
0.0
  0
SEQEND
  0
LINE
  8
CSLAYER1
  6
CONTINUOUS
 62
     3
 10
101.927525
 20
165.279151
 11
101.927525
 21
168.564865
  0
POLYLINE
  8
CSLAYER1
  6
CONTINUOUS
 62
     3
 66
     1
 10
0.0
 20
0.0
 30
0.0
  0
VERTEX
  8
CSLAYER1
  6
CONTINUOUS
 62
     3
 10
102.171221
 20
168.767248
 30
0.0
  0
VERTEX
  8
CSLAYER1
  6
CONTINUOUS
 62
     3
 10
102.162018
 20
168.784055
 30
0.0
  0
VERTEX
  8
CSLAYER1
  6
CONTINUOUS
 62
     3
 10
102.152118
 20
168.799194
 30
0.0
  0
VERTEX
  8
CSLAYER1
  6
CONTINUOUS
 62
     3
 10
102.141595
 20
168.812550
 30
0.0
  0
VERTEX
  8
CSLAYER1
  6
CONTINUOUS
 62
     3
 10
102.130530
 20
168.824020
 30
0.0
  0
VERTEX
  8
CSLAYER1
  6
CONTINUOUS
 62
     3
 10
102.119008
 20
168.833519
 30
0.0
  0
VERTEX
  8
CSLAYER1
  6
CONTINUOUS
 62
     3
 10
102.107116
 20
168.840972
 30
0.0
  0
VERTEX
  8
CSLAYER1
  6
CONTINUOUS
 62
     3
 10
102.094944
 20
168.846325
 30
0.0
  0
VERTEX
  8
CSLAYER1
  6
CONTINUOUS
 62
     3
 10
102.082585
 20
168.849535
 30
0.0
  0
VERTEX
  8
CSLAYER1
  6
CONTINUOUS
 62
     3
 10
102.070133
 20
168.850579
 30
0.0
  0
VERTEX
  8
CSLAYER1
  6
CONTINUOUS
 62
     3
 10
102.057683
 20
168.849448
 30
0.0
  0
VERTEX
  8
CSLAYER1
  6
CONTINUOUS
 62
     3
 10
102.045330
 20
168.846152
 30
0.0
  0
VERTEX
  8
CSLAYER1
  6
CONTINUOUS
 62
     3
 10
102.033168
 20
168.840714
 30
0.0
  0
VERTEX
  8
CSLAYER1
  6
CONTINUOUS
 62
     3
 10
102.021288
 20
168.833178
 30
0.0
  0
VERTEX
  8
CSLAYER1
  6
CONTINUOUS
 62
     3
 10
102.009783
 20
168.823599
 30
0.0
  0
VERTEX
  8
CSLAYER1
  6
CONTINUOUS
 62
     3
 10
101.998738
 20
168.812051
 30
0.0
  0
VERTEX
  8
CSLAYER1
  6
CONTINUOUS
 62
     3
 10
101.988239
 20
168.798622
 30
0.0
  0
VERTEX
  8
CSLAYER1
  6
CONTINUOUS
 62
     3
 10
101.978365
 20
168.783414
 30
0.0
  0
VERTEX
  8
CSLAYER1
  6
CONTINUOUS
 62
     3
 10
101.969191
 20
168.766543
 30
0.0
  0
VERTEX
  8
CSLAYER1
  6
CONTINUOUS
 62
     3
 10
101.960787
 20
168.748136
 30
0.0
  0
VERTEX
  8
CSLAYER1
  6
CONTINUOUS
 62
     3
 10
101.953218
 20
168.728335
 30
0.0
  0
VERTEX
  8
CSLAYER1
  6
CONTINUOUS
 62
     3
 10
101.946540
 20
168.707290
 30
0.0
  0
VERTEX
  8
CSLAYER1
  6
CONTINUOUS
 62
     3
 10
101.940805
 20
168.685161
 30
0.0
  0
VERTEX
  8
CSLAYER1
  6
CONTINUOUS
 62
     3
 10
101.936056
 20
168.662116
 30
0.0
  0
VERTEX
  8
CSLAYER1
  6
CONTINUOUS
 62
     3
 10
101.932329
 20
168.638331
 30
0.0
  0
VERTEX
  8
CSLAYER1
  6
CONTINUOUS
 62
     3
 10
101.929653
 20
168.613988
 30
0.0
  0
VERTEX
  8
CSLAYER1
  6
CONTINUOUS
 62
     3
 10
101.928047
 20
168.589270
 30
0.0
  0
VERTEX
  8
CSLAYER1
  6
CONTINUOUS
 62
     3
 10
101.927525
 20
168.564865
 30
0.0
  0
SEQEND
  0
LINE
  8
CSLAYER1
  6
CONTINUOUS
 62
     3
 10
101.141811
 20
165.279151
 11
101.141811
 21
168.564865
  0
POLYLINE
  8
CSLAYER1
  6
CONTINUOUS
 62
     3
 66
     1
 10
0.0
 20
0.0
 30
0.0
  0
VERTEX
  8
CSLAYER1
  6
CONTINUOUS
 62
     3
 10
101.385507
 20
168.767248
 30
0.0
  0
VERTEX
  8
CSLAYER1
  6
CONTINUOUS
 62
     3
 10
101.376304
 20
168.784055
 30
0.0
  0
VERTEX
  8
CSLAYER1
  6
CONTINUOUS
 62
     3
 10
101.366403
 20
168.799194
 30
0.0
  0
VERTEX
  8
CSLAYER1
  6
CONTINUOUS
 62
     3
 10
101.355881
 20
168.812550
 30
0.0
  0
VERTEX
  8
CSLAYER1
  6
CONTINUOUS
 62
     3
 10
101.344816
 20
168.824020
 30
0.0
  0
VERTEX
  8
CSLAYER1
  6
CONTINUOUS
 62
     3
 10
101.333294
 20
168.833519
 30
0.0
  0
VERTEX
  8
CSLAYER1
  6
CONTINUOUS
 62
     3
 10
101.321401
 20
168.840972
 30
0.0
  0
VERTEX
  8
CSLAYER1
  6
CONTINUOUS
 62
     3
 10
101.309230
 20
168.846325
 30
0.0
  0
VERTEX
  8
CSLAYER1
  6
CONTINUOUS
 62
     3
 10
101.296871
 20
168.849535
 30
0.0
  0
VERTEX
  8
CSLAYER1
  6
CONTINUOUS
 62
     3
 10
101.284419
 20
168.850579
 30
0.0
  0
VERTEX
  8
CSLAYER1
  6
CONTINUOUS
 62
     3
 10
101.271969
 20
168.849448
 30
0.0
  0
VERTEX
  8
CSLAYER1
  6
CONTINUOUS
 62
     3
 10
101.259616
 20
168.846152
 30
0.0
  0
VERTEX
  8
CSLAYER1
  6
CONTINUOUS
 62
     3
 10
101.247453
 20
168.840714
 30
0.0
  0
VERTEX
  8
CSLAYER1
  6
CONTINUOUS
 62
     3
 10
101.235574
 20
168.833178
 30
0.0
  0
VERTEX
  8
CSLAYER1
  6
CONTINUOUS
 62
     3
 10
101.224068
 20
168.823599
 30
0.0
  0
VERTEX
  8
CSLAYER1
  6
CONTINUOUS
 62
     3
 10
101.213024
 20
168.812051
 30
0.0
  0
VERTEX
  8
CSLAYER1
  6
CONTINUOUS
 62
     3
 10
101.202525
 20
168.798622
 30
0.0
  0
VERTEX
  8
CSLAYER1
  6
CONTINUOUS
 62
     3
 10
101.192651
 20
168.783414
 30
0.0
  0
VERTEX
  8
CSLAYER1
  6
CONTINUOUS
 62
     3
 10
101.183477
 20
168.766543
 30
0.0
  0
VERTEX
  8
CSLAYER1
  6
CONTINUOUS
 62
     3
 10
101.175073
 20
168.748136
 30
0.0
  0
VERTEX
  8
CSLAYER1
  6
CONTINUOUS
 62
     3
 10
101.167504
 20
168.728335
 30
0.0
  0
VERTEX
  8
CSLAYER1
  6
CONTINUOUS
 62
     3
 10
101.160826
 20
168.707290
 30
0.0
  0
VERTEX
  8
CSLAYER1
  6
CONTINUOUS
 62
     3
 10
101.155090
 20
168.685161
 30
0.0
  0
VERTEX
  8
CSLAYER1
  6
CONTINUOUS
 62
     3
 10
101.150341
 20
168.662116
 30
0.0
  0
VERTEX
  8
CSLAYER1
  6
CONTINUOUS
 62
     3
 10
101.146614
 20
168.638331
 30
0.0
  0
VERTEX
  8
CSLAYER1
  6
CONTINUOUS
 62
     3
 10
101.143938
 20
168.613988
 30
0.0
  0
VERTEX
  8
CSLAYER1
  6
CONTINUOUS
 62
     3
 10
101.142333
 20
168.589270
 30
0.0
  0
VERTEX
  8
CSLAYER1
  6
CONTINUOUS
 62
     3
 10
101.141811
 20
168.564865
 30
0.0
  0
SEQEND
  0
LINE
  8
CSLAYER1
  6
CONTINUOUS
 62
     3
 10
101.356097
 20
165.279151
 11
101.356097
 21
168.564865
  0
POLYLINE
  8
CSLAYER1
  6
CONTINUOUS
 62
     3
 66
     1
 10
0.0
 20
0.0
 30
0.0
  0
VERTEX
  8
CSLAYER1
  6
CONTINUOUS
 62
     3
 10
101.599793
 20
168.767248
 30
0.0
  0
VERTEX
  8
CSLAYER1
  6
CONTINUOUS
 62
     3
 10
101.590590
 20
168.784055
 30
0.0
  0
VERTEX
  8
CSLAYER1
  6
CONTINUOUS
 62
     3
 10
101.580689
 20
168.799194
 30
0.0
  0
VERTEX
  8
CSLAYER1
  6
CONTINUOUS
 62
     3
 10
101.570166
 20
168.812550
 30
0.0
  0
VERTEX
  8
CSLAYER1
  6
CONTINUOUS
 62
     3
 10
101.559102
 20
168.824020
 30
0.0
  0
VERTEX
  8
CSLAYER1
  6
CONTINUOUS
 62
     3
 10
101.547580
 20
168.833519
 30
0.0
  0
VERTEX
  8
CSLAYER1
  6
CONTINUOUS
 62
     3
 10
101.535687
 20
168.840972
 30
0.0
  0
VERTEX
  8
CSLAYER1
  6
CONTINUOUS
 62
     3
 10
101.523515
 20
168.846325
 30
0.0
  0
VERTEX
  8
CSLAYER1
  6
CONTINUOUS
 62
     3
 10
101.511156
 20
168.849535
 30
0.0
  0
VERTEX
  8
CSLAYER1
  6
CONTINUOUS
 62
     3
 10
101.498705
 20
168.850579
 30
0.0
  0
VERTEX
  8
CSLAYER1
  6
CONTINUOUS
 62
     3
 10
101.486255
 20
168.849448
 30
0.0
  0
VERTEX
  8
CSLAYER1
  6
CONTINUOUS
 62
     3
 10
101.473902
 20
168.846152
 30
0.0
  0
VERTEX
  8
CSLAYER1
  6
CONTINUOUS
 62
     3
 10
101.461739
 20
168.840714
 30
0.0
  0
VERTEX
  8
CSLAYER1
  6
CONTINUOUS
 62
     3
 10
101.449860
 20
168.833178
 30
0.0
  0
VERTEX
  8
CSLAYER1
  6
CONTINUOUS
 62
     3
 10
101.438354
 20
168.823599
 30
0.0
  0
VERTEX
  8
CSLAYER1
  6
CONTINUOUS
 62
     3
 10
101.427310
 20
168.812051
 30
0.0
  0
VERTEX
  8
CSLAYER1
  6
CONTINUOUS
 62
     3
 10
101.416810
 20
168.798622
 30
0.0
  0
VERTEX
  8
CSLAYER1
  6
CONTINUOUS
 62
     3
 10
101.406936
 20
168.783414
 30
0.0
  0
VERTEX
  8
CSLAYER1
  6
CONTINUOUS
 62
     3
 10
101.397763
 20
168.766543
 30
0.0
  0
VERTEX
  8
CSLAYER1
  6
CONTINUOUS
 62
     3
 10
101.389359
 20
168.748136
 30
0.0
  0
VERTEX
  8
CSLAYER1
  6
CONTINUOUS
 62
     3
 10
101.381789
 20
168.728335
 30
0.0
  0
VERTEX
  8
CSLAYER1
  6
CONTINUOUS
 62
     3
 10
101.375112
 20
168.707290
 30
0.0
  0
VERTEX
  8
CSLAYER1
  6
CONTINUOUS
 62
     3
 10
101.369376
 20
168.685161
 30
0.0
  0
VERTEX
  8
CSLAYER1
  6
CONTINUOUS
 62
     3
 10
101.364627
 20
168.662116
 30
0.0
  0
VERTEX
  8
CSLAYER1
  6
CONTINUOUS
 62
     3
 10
101.360900
 20
168.638331
 30
0.0
  0
VERTEX
  8
CSLAYER1
  6
CONTINUOUS
 62
     3
 10
101.358224
 20
168.613988
 30
0.0
  0
VERTEX
  8
CSLAYER1
  6
CONTINUOUS
 62
     3
 10
101.356619
 20
168.589270
 30
0.0
  0
VERTEX
  8
CSLAYER1
  6
CONTINUOUS
 62
     3
 10
101.356097
 20
168.564865
 30
0.0
  0
SEQEND
  0
LINE
  8
CSLAYER1
  6
CONTINUOUS
 62
     3
 10
101.570382
 20
165.279151
 11
101.570382
 21
168.564865
  0
POLYLINE
  8
CSLAYER1
  6
CONTINUOUS
 62
     3
 66
     1
 10
0.0
 20
0.0
 30
0.0
  0
VERTEX
  8
CSLAYER1
  6
CONTINUOUS
 62
     3
 10
101.814078
 20
168.767248
 30
0.0
  0
VERTEX
  8
CSLAYER1
  6
CONTINUOUS
 62
     3
 10
101.804875
 20
168.784055
 30
0.0
  0
VERTEX
  8
CSLAYER1
  6
CONTINUOUS
 62
     3
 10
101.794975
 20
168.799194
 30
0.0
  0
VERTEX
  8
CSLAYER1
  6
CONTINUOUS
 62
     3
 10
101.784452
 20
168.812550
 30
0.0
  0
VERTEX
  8
CSLAYER1
  6
CONTINUOUS
 62
     3
 10
101.773388
 20
168.824020
 30
0.0
  0
VERTEX
  8
CSLAYER1
  6
CONTINUOUS
 62
     3
 10
101.761865
 20
168.833519
 30
0.0
  0
VERTEX
  8
CSLAYER1
  6
CONTINUOUS
 62
     3
 10
101.749973
 20
168.840972
 30
0.0
  0
VERTEX
  8
CSLAYER1
  6
CONTINUOUS
 62
     3
 10
101.737801
 20
168.846325
 30
0.0
  0
VERTEX
  8
CSLAYER1
  6
CONTINUOUS
 62
     3
 10
101.725442
 20
168.849535
 30
0.0
  0
VERTEX
  8
CSLAYER1
  6
CONTINUOUS
 62
     3
 10
101.712990
 20
168.850579
 30
0.0
  0
VERTEX
  8
CSLAYER1
  6
CONTINUOUS
 62
     3
 10
101.700540
 20
168.849448
 30
0.0
  0
VERTEX
  8
CSLAYER1
  6
CONTINUOUS
 62
     3
 10
101.688187
 20
168.846152
 30
0.0
  0
VERTEX
  8
CSLAYER1
  6
CONTINUOUS
 62
     3
 10
101.676025
 20
168.840714
 30
0.0
  0
VERTEX
  8
CSLAYER1
  6
CONTINUOUS
 62
     3
 10
101.664145
 20
168.833178
 30
0.0
  0
VERTEX
  8
CSLAYER1
  6
CONTINUOUS
 62
     3
 10
101.652640
 20
168.823599
 30
0.0
  0
VERTEX
  8
CSLAYER1
  6
CONTINUOUS
 62
     3
 10
101.641595
 20
168.812051
 30
0.0
  0
VERTEX
  8
CSLAYER1
  6
CONTINUOUS
 62
     3
 10
101.631096
 20
168.798622
 30
0.0
  0
VERTEX
  8
CSLAYER1
  6
CONTINUOUS
 62
     3
 10
101.621222
 20
168.783414
 30
0.0
  0
VERTEX
  8
CSLAYER1
  6
CONTINUOUS
 62
     3
 10
101.612048
 20
168.766543
 30
0.0
  0
VERTEX
  8
CSLAYER1
  6
CONTINUOUS
 62
     3
 10
101.603645
 20
168.748136
 30
0.0
  0
VERTEX
  8
CSLAYER1
  6
CONTINUOUS
 62
     3
 10
101.596075
 20
168.728335
 30
0.0
  0
VERTEX
  8
CSLAYER1
  6
CONTINUOUS
 62
     3
 10
101.589397
 20
168.707290
 30
0.0
  0
VERTEX
  8
CSLAYER1
  6
CONTINUOUS
 62
     3
 10
101.583662
 20
168.685161
 30
0.0
  0
VERTEX
  8
CSLAYER1
  6
CONTINUOUS
 62
     3
 10
101.578913
 20
168.662116
 30
0.0
  0
VERTEX
  8
CSLAYER1
  6
CONTINUOUS
 62
     3
 10
101.575186
 20
168.638331
 30
0.0
  0
VERTEX
  8
CSLAYER1
  6
CONTINUOUS
 62
     3
 10
101.572510
 20
168.613988
 30
0.0
  0
VERTEX
  8
CSLAYER1
  6
CONTINUOUS
 62
     3
 10
101.570905
 20
168.589270
 30
0.0
  0
VERTEX
  8
CSLAYER1
  6
CONTINUOUS
 62
     3
 10
101.570382
 20
168.564865
 30
0.0
  0
SEQEND
  0
LINE
  8
CSLAYER1
  6
CONTINUOUS
 62
     3
 10
101.213240
 20
168.707722
 11
101.213240
 21
165.136293
  0
LINE
  8
CSLAYER1
  6
CONTINUOUS
 62
     3
 10
101.213240
 20
165.136293
 11
109.070382
 21
165.136293
  0
LINE
  8
CSLAYER1
  6
CONTINUOUS
 62
     3
 10
109.070382
 20
165.136293
 11
109.070382
 21
168.707722
  0
LINE
  8
CSLAYER1
  6
CONTINUOUS
 62
     3
 10
109.070382
 20
168.707722
 11
101.213240
 21
168.707722
  0
LINE
  8
CSLAYER1
  6
CONTINUOUS
 62
     3
 10
108.927525
 20
165.279151
 11
108.927525
 21
168.564865
  0
POLYLINE
  8
CSLAYER1
  6
CONTINUOUS
 62
     3
 66
     1
 10
0.0
 20
0.0
 30
0.0
  0
VERTEX
  8
CSLAYER1
  6
CONTINUOUS
 62
     3
 10
108.927525
 20
168.564865
 30
0.0
  0
VERTEX
  8
CSLAYER1
  6
CONTINUOUS
 62
     3
 10
108.926982
 20
168.589767
 30
0.0
  0
VERTEX
  8
CSLAYER1
  6
CONTINUOUS
 62
     3
 10
108.925355
 20
168.614479
 30
0.0
  0
VERTEX
  8
CSLAYER1
  6
CONTINUOUS
 62
     3
 10
108.922658
 20
168.638813
 30
0.0
  0
VERTEX
  8
CSLAYER1
  6
CONTINUOUS
 62
     3
 10
108.918910
 20
168.662585
 30
0.0
  0
VERTEX
  8
CSLAYER1
  6
CONTINUOUS
 62
     3
 10
108.914141
 20
168.685613
 30
0.0
  0
VERTEX
  8
CSLAYER1
  6
CONTINUOUS
 62
     3
 10
108.908386
 20
168.707722
 30
0.0
  0
VERTEX
  8
CSLAYER1
  6
CONTINUOUS
 62
     3
 10
108.901690
 20
168.728744
 30
0.0
  0
VERTEX
  8
CSLAYER1
  6
CONTINUOUS
 62
     3
 10
108.894103
 20
168.748519
 30
0.0
  0
VERTEX
  8
CSLAYER1
  6
CONTINUOUS
 62
     3
 10
108.885683
 20
168.766895
 30
0.0
  0
VERTEX
  8
CSLAYER1
  6
CONTINUOUS
 62
     3
 10
108.876495
 20
168.783735
 30
0.0
  0
VERTEX
  8
CSLAYER1
  6
CONTINUOUS
 62
     3
 10
108.866608
 20
168.798908
 30
0.0
  0
VERTEX
  8
CSLAYER1
  6
CONTINUOUS
 62
     3
 10
108.856097
 20
168.812301
 30
0.0
  0
VERTEX
  8
CSLAYER1
  6
CONTINUOUS
 62
     3
 10
108.845042
 20
168.823810
 30
0.0
  0
VERTEX
  8
CSLAYER1
  6
CONTINUOUS
 62
     3
 10
108.833528
 20
168.833349
 30
0.0
  0
VERTEX
  8
CSLAYER1
  6
CONTINUOUS
 62
     3
 10
108.821642
 20
168.840844
 30
0.0
  0
VERTEX
  8
CSLAYER1
  6
CONTINUOUS
 62
     3
 10
108.809475
 20
168.846239
 30
0.0
  0
VERTEX
  8
CSLAYER1
  6
CONTINUOUS
 62
     3
 10
108.797119
 20
168.849492
 30
0.0
  0
VERTEX
  8
CSLAYER1
  6
CONTINUOUS
 62
     3
 10
108.784668
 20
168.850579
 30
0.0
  0
VERTEX
  8
CSLAYER1
  6
CONTINUOUS
 62
     3
 10
108.772217
 20
168.849492
 30
0.0
  0
VERTEX
  8
CSLAYER1
  6
CONTINUOUS
 62
     3
 10
108.759861
 20
168.846239
 30
0.0
  0
VERTEX
  8
CSLAYER1
  6
CONTINUOUS
 62
     3
 10
108.747694
 20
168.840844
 30
0.0
  0
VERTEX
  8
CSLAYER1
  6
CONTINUOUS
 62
     3
 10
108.735808
 20
168.833348
 30
0.0
  0
VERTEX
  8
CSLAYER1
  6
CONTINUOUS
 62
     3
 10
108.724294
 20
168.823810
 30
0.0
  0
VERTEX
  8
CSLAYER1
  6
CONTINUOUS
 62
     3
 10
108.713240
 20
168.812301
 30
0.0
  0
VERTEX
  8
CSLAYER1
  6
CONTINUOUS
 62
     3
 10
108.702729
 20
168.798908
 30
0.0
  0
VERTEX
  8
CSLAYER1
  6
CONTINUOUS
 62
     3
 10
108.692841
 20
168.783735
 30
0.0
  0
VERTEX
  8
CSLAYER1
  6
CONTINUOUS
 62
     3
 10
108.683829
 20
168.767248
 30
0.0
  0
SEQEND
  0
LINE
  8
CSLAYER1
  6
CONTINUOUS
 62
     3
 10
101.356097
 20
165.279151
 11
101.356097
 21
168.564865
  0
POLYLINE
  8
CSLAYER1
  6
CONTINUOUS
 62
     3
 66
     1
 10
0.0
 20
0.0
 30
0.0
  0
VERTEX
  8
CSLAYER1
  6
CONTINUOUS
 62
     3
 10
101.599793
 20
168.767248
 30
0.0
  0
VERTEX
  8
CSLAYER1
  6
CONTINUOUS
 62
     3
 10
101.590590
 20
168.784055
 30
0.0
  0
VERTEX
  8
CSLAYER1
  6
CONTINUOUS
 62
     3
 10
101.580689
 20
168.799194
 30
0.0
  0
VERTEX
  8
CSLAYER1
  6
CONTINUOUS
 62
     3
 10
101.570166
 20
168.812550
 30
0.0
  0
VERTEX
  8
CSLAYER1
  6
CONTINUOUS
 62
     3
 10
101.559102
 20
168.824020
 30
0.0
  0
VERTEX
  8
CSLAYER1
  6
CONTINUOUS
 62
     3
 10
101.547580
 20
168.833519
 30
0.0
  0
VERTEX
  8
CSLAYER1
  6
CONTINUOUS
 62
     3
 10
101.535687
 20
168.840972
 30
0.0
  0
VERTEX
  8
CSLAYER1
  6
CONTINUOUS
 62
     3
 10
101.523515
 20
168.846325
 30
0.0
  0
VERTEX
  8
CSLAYER1
  6
CONTINUOUS
 62
     3
 10
101.511156
 20
168.849535
 30
0.0
  0
VERTEX
  8
CSLAYER1
  6
CONTINUOUS
 62
     3
 10
101.498705
 20
168.850579
 30
0.0
  0
VERTEX
  8
CSLAYER1
  6
CONTINUOUS
 62
     3
 10
101.486255
 20
168.849448
 30
0.0
  0
VERTEX
  8
CSLAYER1
  6
CONTINUOUS
 62
     3
 10
101.473902
 20
168.846152
 30
0.0
  0
VERTEX
  8
CSLAYER1
  6
CONTINUOUS
 62
     3
 10
101.461739
 20
168.840714
 30
0.0
  0
VERTEX
  8
CSLAYER1
  6
CONTINUOUS
 62
     3
 10
101.449860
 20
168.833178
 30
0.0
  0
VERTEX
  8
CSLAYER1
  6
CONTINUOUS
 62
     3
 10
101.438354
 20
168.823599
 30
0.0
  0
VERTEX
  8
CSLAYER1
  6
CONTINUOUS
 62
     3
 10
101.427310
 20
168.812051
 30
0.0
  0
VERTEX
  8
CSLAYER1
  6
CONTINUOUS
 62
     3
 10
101.416810
 20
168.798622
 30
0.0
  0
VERTEX
  8
CSLAYER1
  6
CONTINUOUS
 62
     3
 10
101.406936
 20
168.783414
 30
0.0
  0
VERTEX
  8
CSLAYER1
  6
CONTINUOUS
 62
     3
 10
101.397763
 20
168.766543
 30
0.0
  0
VERTEX
  8
CSLAYER1
  6
CONTINUOUS
 62
     3
 10
101.389359
 20
168.748136
 30
0.0
  0
VERTEX
  8
CSLAYER1
  6
CONTINUOUS
 62
     3
 10
101.381789
 20
168.728335
 30
0.0
  0
VERTEX
  8
CSLAYER1
  6
CONTINUOUS
 62
     3
 10
101.375112
 20
168.707290
 30
0.0
  0
VERTEX
  8
CSLAYER1
  6
CONTINUOUS
 62
     3
 10
101.369376
 20
168.685161
 30
0.0
  0
VERTEX
  8
CSLAYER1
  6
CONTINUOUS
 62
     3
 10
101.364627
 20
168.662116
 30
0.0
  0
VERTEX
  8
CSLAYER1
  6
CONTINUOUS
 62
     3
 10
101.360900
 20
168.638331
 30
0.0
  0
VERTEX
  8
CSLAYER1
  6
CONTINUOUS
 62
     3
 10
101.358224
 20
168.613988
 30
0.0
  0
VERTEX
  8
CSLAYER1
  6
CONTINUOUS
 62
     3
 10
101.356619
 20
168.589270
 30
0.0
  0
VERTEX
  8
CSLAYER1
  6
CONTINUOUS
 62
     3
 10
101.356097
 20
168.564865
 30
0.0
  0
SEQEND
  0
CIRCLE
  8
CSLAYER1
  6
CONTINUOUS
 62
     6
 10
94.180555
 20
166.977873
 40
2.500000
  0
LINE
  8
CSLAYER1
  6
CONTINUOUS
 62
     6
 10
156.381236
 20
197.577873
 11
125.381236
 21
197.577873
  0
LINE
  8
CSLAYER1
  6
CONTINUOUS
 62
     6
 10
156.381236
 20
202.577873
 11
125.381236
 21
202.577873
  0
LINE
  8
CSLAYER1
  6
CONTINUOUS
 62
     6
 10
156.381236
 20
202.577873
 11
156.381236
 21
200.577873
  0
LINE
  8
CSLAYER1
  6
CONTINUOUS
 62
     6
 10
125.381236
 20
202.577873
 11
125.381236
 21
200.577873
  0
LINE
  8
CSLAYER1
  6
CONTINUOUS
 62
     6
 10
156.381236
 20
195.577873
 11
125.381236
 21
195.577873
  0
LINE
  8
CSLAYER1
  6
CONTINUOUS
 62
     6
 10
156.381236
 20
200.577873
 11
125.381236
 21
200.577873
  0
LINE
  8
CSLAYER1
  6
CONTINUOUS
 62
     6
 10
156.381236
 20
197.577873
 11
156.381236
 21
195.577873
  0
LINE
  8
CSLAYER1
  6
CONTINUOUS
 62
     6
 10
125.381236
 20
197.577873
 11
125.381236
 21
195.577873
  0
LINE
  8
CSLAYER1
  6
CONTINUOUS
 62
     6
 10
133.381236
 20
190.577873
 11
153.381236
 21
190.577873
  0
LINE
  8
CSLAYER1
  6
CONTINUOUS
 62
     6
 10
133.381236
 20
182.577873
 11
153.381236
 21
182.577873
  0
LINE
  8
CSLAYER1
  6
CONTINUOUS
 62
     6
 10
153.381236
 20
185.577873
 11
153.381236
 21
190.577873
  0
LINE
  8
CSLAYER1
  6
CONTINUOUS
 62
     6
 10
133.381236
 20
185.577873
 11
133.381236
 21
190.577873
  0
LINE
  8
CSLAYER1
  6
CONTINUOUS
 62
     6
 10
133.381236
 20
185.577873
 11
153.381236
 21
185.577873
  0
LINE
  8
CSLAYER1
  6
CONTINUOUS
 62
     6
 10
133.381236
 20
177.577873
 11
153.381236
 21
177.577873
  0
LINE
  8
CSLAYER1
  6
CONTINUOUS
 62
     6
 10
153.381236
 20
177.577873
 11
153.381236
 21
182.577873
  0
LINE
  8
CSLAYER1
  6
CONTINUOUS
 62
     6
 10
133.381236
 20
177.577873
 11
133.381236
 21
182.577873
  0
LINE
  8
CSLAYER1
  6
CONTINUOUS
 62
     6
 10
113.381236
 20
174.577873
 11
133.381236
 21
174.577873
  0
LINE
  8
CSLAYER1
  6
CONTINUOUS
 62
     6
 10
113.381236
 20
169.577873
 11
133.381236
 21
169.577873
  0
LINE
  8
CSLAYER1
  6
CONTINUOUS
 62
     6
 10
133.381236
 20
169.577873
 11
133.381236
 21
174.577873
  0
LINE
  8
CSLAYER1
  6
CONTINUOUS
 62
     6
 10
113.381236
 20
169.577873
 11
113.381236
 21
174.577873
  0
LINE
  8
CSLAYER1
  6
CONTINUOUS
 62
     6
 10
55.381236
 20
169.477873
 11
47.381236
 21
169.477873
  0
LINE
  8
CSLAYER1
  6
CONTINUOUS
 62
     6
 10
55.381236
 20
164.477873
 11
47.381236
 21
164.477873
  0
LINE
  8
CSLAYER1
  6
CONTINUOUS
 62
     6
 10
55.381236
 20
169.477873
 11
55.381236
 21
164.477873
  0
LINE
  8
CSLAYER1
  6
CONTINUOUS
 62
     6
 10
47.381236
 20
179.477873
 11
53.381236
 21
179.477873
  0
LINE
  8
CSLAYER1
  6
CONTINUOUS
 62
     6
 10
47.381236
 20
172.477873
 11
53.381236
 21
172.477873
  0
LINE
  8
CSLAYER1
  6
CONTINUOUS
 62
     6
 10
53.381236
 20
172.477873
 11
53.381236
 21
179.477873
  0
LINE
  8
CSLAYER1
  6
CONTINUOUS
 62
     6
 10
51.381236
 20
169.577873
 11
47.381236
 21
169.577873
  0
LINE
  8
CSLAYER1
  6
CONTINUOUS
 62
     6
 10
51.381236
 20
169.577873
 11
51.381236
 21
172.477873
  0
LINE
  8
CSLAYER1
  6
CONTINUOUS
 62
     3
 10
150.659014
 20
190.577873
 11
150.659014
 21
191.377873
  0
LINE
  8
CSLAYER1
  6
CONTINUOUS
 62
     3
 10
150.659014
 20
191.377873
 11
151.659014
 21
191.377873
  0
LINE
  8
CSLAYER1
  6
CONTINUOUS
 62
     3
 10
151.659014
 20
190.577873
 11
151.659014
 21
191.377873
  0
LINE
  8
CSLAYER1
  6
CONTINUOUS
 62
     3
 10
148.436792
 20
190.577873
 11
148.436792
 21
191.377873
  0
LINE
  8
CSLAYER1
  6
CONTINUOUS
 62
     3
 10
148.436792
 20
191.377873
 11
149.436792
 21
191.377873
  0
LINE
  8
CSLAYER1
  6
CONTINUOUS
 62
     3
 10
149.436792
 20
190.577873
 11
149.436792
 21
191.377873
  0
LINE
  8
CSLAYER1
  6
CONTINUOUS
 62
     3
 10
146.214570
 20
190.577873
 11
146.214570
 21
191.377873
  0
LINE
  8
CSLAYER1
  6
CONTINUOUS
 62
     3
 10
146.214570
 20
191.377873
 11
147.214570
 21
191.377873
  0
LINE
  8
CSLAYER1
  6
CONTINUOUS
 62
     3
 10
147.214570
 20
190.577873
 11
147.214570
 21
191.377873
  0
LINE
  8
CSLAYER1
  6
CONTINUOUS
 62
     3
 10
143.992347
 20
190.577873
 11
143.992347
 21
191.377873
  0
LINE
  8
CSLAYER1
  6
CONTINUOUS
 62
     3
 10
143.992347
 20
191.377873
 11
144.992347
 21
191.377873
  0
LINE
  8
CSLAYER1
  6
CONTINUOUS
 62
     3
 10
144.992347
 20
190.577873
 11
144.992347
 21
191.377873
  0
LINE
  8
CSLAYER1
  6
CONTINUOUS
 62
     3
 10
141.770125
 20
190.577873
 11
141.770125
 21
191.377873
  0
LINE
  8
CSLAYER1
  6
CONTINUOUS
 62
     3
 10
141.770125
 20
191.377873
 11
142.770125
 21
191.377873
  0
LINE
  8
CSLAYER1
  6
CONTINUOUS
 62
     3
 10
142.770125
 20
190.577873
 11
142.770125
 21
191.377873
  0
LINE
  8
CSLAYER1
  6
CONTINUOUS
 62
     3
 10
139.547903
 20
190.577873
 11
139.547903
 21
191.377873
  0
LINE
  8
CSLAYER1
  6
CONTINUOUS
 62
     3
 10
139.547903
 20
191.377873
 11
140.547903
 21
191.377873
  0
LINE
  8
CSLAYER1
  6
CONTINUOUS
 62
     3
 10
140.547903
 20
190.577873
 11
140.547903
 21
191.377873
  0
LINE
  8
CSLAYER1
  6
CONTINUOUS
 62
     3
 10
137.325681
 20
190.577873
 11
137.325681
 21
191.377873
  0
LINE
  8
CSLAYER1
  6
CONTINUOUS
 62
     3
 10
137.325681
 20
191.377873
 11
138.325681
 21
191.377873
  0
LINE
  8
CSLAYER1
  6
CONTINUOUS
 62
     3
 10
138.325681
 20
190.577873
 11
138.325681
 21
191.377873
  0
LINE
  8
CSLAYER1
  6
CONTINUOUS
 62
     3
 10
135.103459
 20
190.577873
 11
135.103459
 21
191.377873
  0
LINE
  8
CSLAYER1
  6
CONTINUOUS
 62
     3
 10
135.103459
 20
191.377873
 11
136.103459
 21
191.377873
  0
LINE
  8
CSLAYER1
  6
CONTINUOUS
 62
     3
 10
136.103459
 20
190.577873
 11
136.103459
 21
191.377873
  0
LINE
  8
CSLAYER1
  6
CONTINUOUS
 62
     3
 10
150.659014
 20
185.577873
 11
150.659014
 21
184.777873
  0
LINE
  8
CSLAYER1
  6
CONTINUOUS
 62
     3
 10
150.659014
 20
184.777873
 11
151.659014
 21
184.777873
  0
LINE
  8
CSLAYER1
  6
CONTINUOUS
 62
     3
 10
151.659014
 20
185.577873
 11
151.659014
 21
184.777873
  0
LINE
  8
CSLAYER1
  6
CONTINUOUS
 62
     3
 10
148.436792
 20
185.577873
 11
148.436792
 21
184.777873
  0
LINE
  8
CSLAYER1
  6
CONTINUOUS
 62
     3
 10
148.436792
 20
184.777873
 11
149.436792
 21
184.777873
  0
LINE
  8
CSLAYER1
  6
CONTINUOUS
 62
     3
 10
149.436792
 20
185.577873
 11
149.436792
 21
184.777873
  0
LINE
  8
CSLAYER1
  6
CONTINUOUS
 62
     3
 10
146.214570
 20
185.577873
 11
146.214570
 21
184.777873
  0
LINE
  8
CSLAYER1
  6
CONTINUOUS
 62
     3
 10
146.214570
 20
184.777873
 11
147.214570
 21
184.777873
  0
LINE
  8
CSLAYER1
  6
CONTINUOUS
 62
     3
 10
147.214570
 20
185.577873
 11
147.214570
 21
184.777873
  0
LINE
  8
CSLAYER1
  6
CONTINUOUS
 62
     3
 10
143.992347
 20
185.577873
 11
143.992347
 21
184.777873
  0
LINE
  8
CSLAYER1
  6
CONTINUOUS
 62
     3
 10
143.992347
 20
184.777873
 11
144.992347
 21
184.777873
  0
LINE
  8
CSLAYER1
  6
CONTINUOUS
 62
     3
 10
144.992347
 20
185.577873
 11
144.992347
 21
184.777873
  0
LINE
  8
CSLAYER1
  6
CONTINUOUS
 62
     3
 10
141.770125
 20
185.577873
 11
141.770125
 21
184.777873
  0
LINE
  8
CSLAYER1
  6
CONTINUOUS
 62
     3
 10
141.770125
 20
184.777873
 11
142.770125
 21
184.777873
  0
LINE
  8
CSLAYER1
  6
CONTINUOUS
 62
     3
 10
142.770125
 20
185.577873
 11
142.770125
 21
184.777873
  0
LINE
  8
CSLAYER1
  6
CONTINUOUS
 62
     3
 10
139.547903
 20
185.577873
 11
139.547903
 21
184.777873
  0
LINE
  8
CSLAYER1
  6
CONTINUOUS
 62
     3
 10
139.547903
 20
184.777873
 11
140.547903
 21
184.777873
  0
LINE
  8
CSLAYER1
  6
CONTINUOUS
 62
     3
 10
140.547903
 20
185.577873
 11
140.547903
 21
184.777873
  0
LINE
  8
CSLAYER1
  6
CONTINUOUS
 62
     3
 10
137.325681
 20
185.577873
 11
137.325681
 21
184.777873
  0
LINE
  8
CSLAYER1
  6
CONTINUOUS
 62
     3
 10
137.325681
 20
184.777873
 11
138.325681
 21
184.777873
  0
LINE
  8
CSLAYER1
  6
CONTINUOUS
 62
     3
 10
138.325681
 20
185.577873
 11
138.325681
 21
184.777873
  0
LINE
  8
CSLAYER1
  6
CONTINUOUS
 62
     3
 10
135.103459
 20
185.577873
 11
135.103459
 21
184.777873
  0
LINE
  8
CSLAYER1
  6
CONTINUOUS
 62
     3
 10
135.103459
 20
184.777873
 11
136.103459
 21
184.777873
  0
LINE
  8
CSLAYER1
  6
CONTINUOUS
 62
     3
 10
136.103459
 20
185.577873
 11
136.103459
 21
184.777873
  0
LINE
  8
CSLAYER1
  6
CONTINUOUS
 62
     3
 10
150.659014
 20
182.577873
 11
150.659014
 21
183.377873
  0
LINE
  8
CSLAYER1
  6
CONTINUOUS
 62
     3
 10
150.659014
 20
183.377873
 11
151.659014
 21
183.377873
  0
LINE
  8
CSLAYER1
  6
CONTINUOUS
 62
     3
 10
151.659014
 20
182.577873
 11
151.659014
 21
183.377873
  0
LINE
  8
CSLAYER1
  6
CONTINUOUS
 62
     3
 10
148.436792
 20
182.577873
 11
148.436792
 21
183.377873
  0
LINE
  8
CSLAYER1
  6
CONTINUOUS
 62
     3
 10
148.436792
 20
183.377873
 11
149.436792
 21
183.377873
  0
LINE
  8
CSLAYER1
  6
CONTINUOUS
 62
     3
 10
149.436792
 20
182.577873
 11
149.436792
 21
183.377873
  0
LINE
  8
CSLAYER1
  6
CONTINUOUS
 62
     3
 10
146.214570
 20
182.577873
 11
146.214570
 21
183.377873
  0
LINE
  8
CSLAYER1
  6
CONTINUOUS
 62
     3
 10
146.214570
 20
183.377873
 11
147.214570
 21
183.377873
  0
LINE
  8
CSLAYER1
  6
CONTINUOUS
 62
     3
 10
147.214570
 20
182.577873
 11
147.214570
 21
183.377873
  0
LINE
  8
CSLAYER1
  6
CONTINUOUS
 62
     3
 10
143.992347
 20
182.577873
 11
143.992347
 21
183.377873
  0
LINE
  8
CSLAYER1
  6
CONTINUOUS
 62
     3
 10
143.992347
 20
183.377873
 11
144.992347
 21
183.377873
  0
LINE
  8
CSLAYER1
  6
CONTINUOUS
 62
     3
 10
144.992347
 20
182.577873
 11
144.992347
 21
183.377873
  0
LINE
  8
CSLAYER1
  6
CONTINUOUS
 62
     3
 10
141.770125
 20
182.577873
 11
141.770125
 21
183.377873
  0
LINE
  8
CSLAYER1
  6
CONTINUOUS
 62
     3
 10
141.770125
 20
183.377873
 11
142.770125
 21
183.377873
  0
LINE
  8
CSLAYER1
  6
CONTINUOUS
 62
     3
 10
142.770125
 20
182.577873
 11
142.770125
 21
183.377873
  0
LINE
  8
CSLAYER1
  6
CONTINUOUS
 62
     3
 10
139.547903
 20
182.577873
 11
139.547903
 21
183.377873
  0
LINE
  8
CSLAYER1
  6
CONTINUOUS
 62
     3
 10
139.547903
 20
183.377873
 11
140.547903
 21
183.377873
  0
LINE
  8
CSLAYER1
  6
CONTINUOUS
 62
     3
 10
140.547903
 20
182.577873
 11
140.547903
 21
183.377873
  0
LINE
  8
CSLAYER1
  6
CONTINUOUS
 62
     3
 10
137.325681
 20
182.577873
 11
137.325681
 21
183.377873
  0
LINE
  8
CSLAYER1
  6
CONTINUOUS
 62
     3
 10
137.325681
 20
183.377873
 11
138.325681
 21
183.377873
  0
LINE
  8
CSLAYER1
  6
CONTINUOUS
 62
     3
 10
138.325681
 20
182.577873
 11
138.325681
 21
183.377873
  0
LINE
  8
CSLAYER1
  6
CONTINUOUS
 62
     3
 10
135.103459
 20
182.577873
 11
135.103459
 21
183.377873
  0
LINE
  8
CSLAYER1
  6
CONTINUOUS
 62
     3
 10
135.103459
 20
183.377873
 11
136.103459
 21
183.377873
  0
LINE
  8
CSLAYER1
  6
CONTINUOUS
 62
     3
 10
136.103459
 20
182.577873
 11
136.103459
 21
183.377873
  0
LINE
  8
CSLAYER1
  6
CONTINUOUS
 62
     3
 10
150.659014
 20
177.577873
 11
150.659014
 21
176.777873
  0
LINE
  8
CSLAYER1
  6
CONTINUOUS
 62
     3
 10
150.659014
 20
176.777873
 11
151.659014
 21
176.777873
  0
LINE
  8
CSLAYER1
  6
CONTINUOUS
 62
     3
 10
151.659014
 20
177.577873
 11
151.659014
 21
176.777873
  0
LINE
  8
CSLAYER1
  6
CONTINUOUS
 62
     3
 10
148.436792
 20
177.577873
 11
148.436792
 21
176.777873
  0
LINE
  8
CSLAYER1
  6
CONTINUOUS
 62
     3
 10
148.436792
 20
176.777873
 11
149.436792
 21
176.777873
  0
LINE
  8
CSLAYER1
  6
CONTINUOUS
 62
     3
 10
149.436792
 20
177.577873
 11
149.436792
 21
176.777873
  0
LINE
  8
CSLAYER1
  6
CONTINUOUS
 62
     3
 10
146.214570
 20
177.577873
 11
146.214570
 21
176.777873
  0
LINE
  8
CSLAYER1
  6
CONTINUOUS
 62
     3
 10
146.214570
 20
176.777873
 11
147.214570
 21
176.777873
  0
LINE
  8
CSLAYER1
  6
CONTINUOUS
 62
     3
 10
147.214570
 20
177.577873
 11
147.214570
 21
176.777873
  0
LINE
  8
CSLAYER1
  6
CONTINUOUS
 62
     3
 10
143.992347
 20
177.577873
 11
143.992347
 21
176.777873
  0
LINE
  8
CSLAYER1
  6
CONTINUOUS
 62
     3
 10
143.992347
 20
176.777873
 11
144.992347
 21
176.777873
  0
LINE
  8
CSLAYER1
  6
CONTINUOUS
 62
     3
 10
144.992347
 20
177.577873
 11
144.992347
 21
176.777873
  0
LINE
  8
CSLAYER1
  6
CONTINUOUS
 62
     3
 10
141.770125
 20
177.577873
 11
141.770125
 21
176.777873
  0
LINE
  8
CSLAYER1
  6
CONTINUOUS
 62
     3
 10
141.770125
 20
176.777873
 11
142.770125
 21
176.777873
  0
LINE
  8
CSLAYER1
  6
CONTINUOUS
 62
     3
 10
142.770125
 20
177.577873
 11
142.770125
 21
176.777873
  0
LINE
  8
CSLAYER1
  6
CONTINUOUS
 62
     3
 10
139.547903
 20
177.577873
 11
139.547903
 21
176.777873
  0
LINE
  8
CSLAYER1
  6
CONTINUOUS
 62
     3
 10
139.547903
 20
176.777873
 11
140.547903
 21
176.777873
  0
LINE
  8
CSLAYER1
  6
CONTINUOUS
 62
     3
 10
140.547903
 20
177.577873
 11
140.547903
 21
176.777873
  0
LINE
  8
CSLAYER1
  6
CONTINUOUS
 62
     3
 10
137.325681
 20
177.577873
 11
137.325681
 21
176.777873
  0
LINE
  8
CSLAYER1
  6
CONTINUOUS
 62
     3
 10
137.325681
 20
176.777873
 11
138.325681
 21
176.777873
  0
LINE
  8
CSLAYER1
  6
CONTINUOUS
 62
     3
 10
138.325681
 20
177.577873
 11
138.325681
 21
176.777873
  0
LINE
  8
CSLAYER1
  6
CONTINUOUS
 62
     3
 10
135.103459
 20
177.577873
 11
135.103459
 21
176.777873
  0
LINE
  8
CSLAYER1
  6
CONTINUOUS
 62
     3
 10
135.103459
 20
176.777873
 11
136.103459
 21
176.777873
  0
LINE
  8
CSLAYER1
  6
CONTINUOUS
 62
     3
 10
136.103459
 20
177.577873
 11
136.103459
 21
176.777873
  0
LINE
  8
CSLAYER1
  6
CONTINUOUS
 62
     3
 10
130.659014
 20
174.577873
 11
130.659014
 21
175.377873
  0
LINE
  8
CSLAYER1
  6
CONTINUOUS
 62
     3
 10
130.659014
 20
175.377873
 11
131.659014
 21
175.377873
  0
LINE
  8
CSLAYER1
  6
CONTINUOUS
 62
     3
 10
131.659014
 20
174.577873
 11
131.659014
 21
175.377873
  0
LINE
  8
CSLAYER1
  6
CONTINUOUS
 62
     3
 10
128.436792
 20
174.577873
 11
128.436792
 21
175.377873
  0
LINE
  8
CSLAYER1
  6
CONTINUOUS
 62
     3
 10
128.436792
 20
175.377873
 11
129.436792
 21
175.377873
  0
LINE
  8
CSLAYER1
  6
CONTINUOUS
 62
     3
 10
129.436792
 20
174.577873
 11
129.436792
 21
175.377873
  0
LINE
  8
CSLAYER1
  6
CONTINUOUS
 62
     3
 10
126.214570
 20
174.577873
 11
126.214570
 21
175.377873
  0
LINE
  8
CSLAYER1
  6
CONTINUOUS
 62
     3
 10
126.214570
 20
175.377873
 11
127.214570
 21
175.377873
  0
LINE
  8
CSLAYER1
  6
CONTINUOUS
 62
     3
 10
127.214570
 20
174.577873
 11
127.214570
 21
175.377873
  0
LINE
  8
CSLAYER1
  6
CONTINUOUS
 62
     3
 10
123.992347
 20
174.577873
 11
123.992347
 21
175.377873
  0
LINE
  8
CSLAYER1
  6
CONTINUOUS
 62
     3
 10
123.992347
 20
175.377873
 11
124.992347
 21
175.377873
  0
LINE
  8
CSLAYER1
  6
CONTINUOUS
 62
     3
 10
124.992347
 20
174.577873
 11
124.992347
 21
175.377873
  0
LINE
  8
CSLAYER1
  6
CONTINUOUS
 62
     3
 10
121.770125
 20
174.577873
 11
121.770125
 21
175.377873
  0
LINE
  8
CSLAYER1
  6
CONTINUOUS
 62
     3
 10
121.770125
 20
175.377873
 11
122.770125
 21
175.377873
  0
LINE
  8
CSLAYER1
  6
CONTINUOUS
 62
     3
 10
122.770125
 20
174.577873
 11
122.770125
 21
175.377873
  0
LINE
  8
CSLAYER1
  6
CONTINUOUS
 62
     3
 10
119.547903
 20
174.577873
 11
119.547903
 21
175.377873
  0
LINE
  8
CSLAYER1
  6
CONTINUOUS
 62
     3
 10
119.547903
 20
175.377873
 11
120.547903
 21
175.377873
  0
LINE
  8
CSLAYER1
  6
CONTINUOUS
 62
     3
 10
120.547903
 20
174.577873
 11
120.547903
 21
175.377873
  0
LINE
  8
CSLAYER1
  6
CONTINUOUS
 62
     3
 10
117.325681
 20
174.577873
 11
117.325681
 21
175.377873
  0
LINE
  8
CSLAYER1
  6
CONTINUOUS
 62
     3
 10
117.325681
 20
175.377873
 11
118.325681
 21
175.377873
  0
LINE
  8
CSLAYER1
  6
CONTINUOUS
 62
     3
 10
118.325681
 20
174.577873
 11
118.325681
 21
175.377873
  0
LINE
  8
CSLAYER1
  6
CONTINUOUS
 62
     3
 10
115.103459
 20
174.577873
 11
115.103459
 21
175.377873
  0
LINE
  8
CSLAYER1
  6
CONTINUOUS
 62
     3
 10
115.103459
 20
175.377873
 11
116.103459
 21
175.377873
  0
LINE
  8
CSLAYER1
  6
CONTINUOUS
 62
     3
 10
116.103459
 20
174.577873
 11
116.103459
 21
175.377873
  0
LINE
  8
CSLAYER1
  6
CONTINUOUS
 62
     3
 10
130.659014
 20
169.577873
 11
130.659014
 21
168.777873
  0
LINE
  8
CSLAYER1
  6
CONTINUOUS
 62
     3
 10
130.659014
 20
168.777873
 11
131.659014
 21
168.777873
  0
LINE
  8
CSLAYER1
  6
CONTINUOUS
 62
     3
 10
131.659014
 20
169.577873
 11
131.659014
 21
168.777873
  0
LINE
  8
CSLAYER1
  6
CONTINUOUS
 62
     3
 10
128.436792
 20
169.577873
 11
128.436792
 21
168.777873
  0
LINE
  8
CSLAYER1
  6
CONTINUOUS
 62
     3
 10
128.436792
 20
168.777873
 11
129.436792
 21
168.777873
  0
LINE
  8
CSLAYER1
  6
CONTINUOUS
 62
     3
 10
129.436792
 20
169.577873
 11
129.436792
 21
168.777873
  0
LINE
  8
CSLAYER1
  6
CONTINUOUS
 62
     3
 10
126.214570
 20
169.577873
 11
126.214570
 21
168.777873
  0
LINE
  8
CSLAYER1
  6
CONTINUOUS
 62
     3
 10
126.214570
 20
168.777873
 11
127.214570
 21
168.777873
  0
LINE
  8
CSLAYER1
  6
CONTINUOUS
 62
     3
 10
127.214570
 20
169.577873
 11
127.214570
 21
168.777873
  0
LINE
  8
CSLAYER1
  6
CONTINUOUS
 62
     3
 10
123.992347
 20
169.577873
 11
123.992347
 21
168.777873
  0
LINE
  8
CSLAYER1
  6
CONTINUOUS
 62
     3
 10
123.992347
 20
168.777873
 11
124.992347
 21
168.777873
  0
LINE
  8
CSLAYER1
  6
CONTINUOUS
 62
     3
 10
124.992347
 20
169.577873
 11
124.992347
 21
168.777873
  0
LINE
  8
CSLAYER1
  6
CONTINUOUS
 62
     3
 10
121.770125
 20
169.577873
 11
121.770125
 21
168.777873
  0
LINE
  8
CSLAYER1
  6
CONTINUOUS
 62
     3
 10
121.770125
 20
168.777873
 11
122.770125
 21
168.777873
  0
LINE
  8
CSLAYER1
  6
CONTINUOUS
 62
     3
 10
122.770125
 20
169.577873
 11
122.770125
 21
168.777873
  0
LINE
  8
CSLAYER1
  6
CONTINUOUS
 62
     3
 10
119.547903
 20
169.577873
 11
119.547903
 21
168.777873
  0
LINE
  8
CSLAYER1
  6
CONTINUOUS
 62
     3
 10
119.547903
 20
168.777873
 11
120.547903
 21
168.777873
  0
LINE
  8
CSLAYER1
  6
CONTINUOUS
 62
     3
 10
120.547903
 20
169.577873
 11
120.547903
 21
168.777873
  0
LINE
  8
CSLAYER1
  6
CONTINUOUS
 62
     3
 10
117.325681
 20
169.577873
 11
117.325681
 21
168.777873
  0
LINE
  8
CSLAYER1
  6
CONTINUOUS
 62
     3
 10
117.325681
 20
168.777873
 11
118.325681
 21
168.777873
  0
LINE
  8
CSLAYER1
  6
CONTINUOUS
 62
     3
 10
118.325681
 20
169.577873
 11
118.325681
 21
168.777873
  0
LINE
  8
CSLAYER1
  6
CONTINUOUS
 62
     3
 10
115.103459
 20
169.577873
 11
115.103459
 21
168.777873
  0
LINE
  8
CSLAYER1
  6
CONTINUOUS
 62
     3
 10
115.103459
 20
168.777873
 11
116.103459
 21
168.777873
  0
LINE
  8
CSLAYER1
  6
CONTINUOUS
 62
     3
 10
116.103459
 20
169.577873
 11
116.103459
 21
168.777873
  0
LINE
  8
CSLAYER1
  6
CONTINUOUS
 62
     6
 10
59.381236
 20
202.577873
 11
56.381236
 21
202.577873
  0
LINE
  8
CSLAYER1
  6
CONTINUOUS
 62
     6
 10
59.381236
 20
200.577873
 11
56.381236
 21
200.577873
  0
LINE
  8
CSLAYER1
  6
CONTINUOUS
 62
     6
 10
59.381236
 20
197.577873
 11
56.381236
 21
197.577873
  0
LINE
  8
CSLAYER1
  6
CONTINUOUS
 62
     6
 10
59.381236
 20
195.577873
 11
56.381236
 21
195.577873
  0
LINE
  8
CSLAYER1
  6
CONTINUOUS
 62
     6
 10
51.381236
 20
204.677873
 11
47.381236
 21
204.677873
  0
LINE
  8
CSLAYER1
  6
CONTINUOUS
 62
     6
 10
59.381236
 20
195.577873
 11
59.381236
 21
197.577873
  0
LINE
  8
CSLAYER1
  6
CONTINUOUS
 62
     6
 10
59.381236
 20
200.577873
 11
59.381236
 21
202.577873
  0
LINE
  8
CSLAYER1
  6
CONTINUOUS
 62
     6
 10
51.381236
 20
202.577873
 11
51.381236
 21
204.677873
  0
LINE
  8
CSLAYER1
  6
CONTINUOUS
 62
     6
 10
51.381236
 20
182.577873
 11
47.381236
 21
182.577873
  0
LINE
  8
CSLAYER1
  6
CONTINUOUS
 62
     6
 10
51.381236
 20
179.477873
 11
51.381236
 21
182.577873
  0
LINE
  8
CSLAYER1
  6
DASHED
 62
     6
 10
78.381236
 20
100.577873
 11
168.381236
 21
100.577873
  0
LINE
  8
CSLAYER1
  6
CENTER
 62
     3
 10
83.381236
 20
112.177873
 11
83.381236
 21
104.977873
  0
LINE
  8
CSLAYER1
  6
CENTER
 62
     3
 10
79.781236
 20
108.577873
 11
86.981236
 21
108.577873
  0
LINE
  8
CSLAYER1
  6
CENTER
 62
     3
 10
163.381236
 20
112.177873
 11
163.381236
 21
104.977873
  0
LINE
  8
CSLAYER1
  6
CENTER
 62
     3
 10
159.781236
 20
108.577873
 11
166.981236
 21
108.577873
  0
LINE
  8
CSLAYER1
  6
CENTER
 62
     3
 10
163.381236
 20
127.177873
 11
163.381236
 21
119.977873
  0
LINE
  8
CSLAYER1
  6
CENTER
 62
     3
 10
159.781236
 20
123.577873
 11
166.981236
 21
123.577873
  0
LINE
  8
CSLAYER1
  6
CENTER
 62
     3
 10
83.381236
 20
150.577873
 11
83.381236
 21
158.577873
  0
LINE
  8
CSLAYER1
  6
CENTER
 62
     3
 10
163.381236
 20
150.577873
 11
163.381236
 21
158.577873
  0
ARC
  8
CSLAYER1
  6
CONTINUOUS
 62
     6
 10
44.045003
 20
220.577861
 40
5.431046
 50
-16.257006
 51
16.257016
  0
LINE
  8
CSLAYER1
  6
CONTINUOUS
 62
     6
 10
48.093048
 20
218.458999
 11
48.581703
 21
218.501748
  0
ARC
  8
CSLAYER1
  6
CONTINUOUS
 62
     6
 10
48.514081
 20
219.274664
 40
0.775864
 50
275.000111
 51
343.742611
  0
ARC
  8
CSLAYER1
  6
CONTINUOUS
 62
     6
 10
48.079504
 20
218.613577
 40
0.155173
 50
180.000000
 51
275.000152
  0
LINE
  8
CSLAYER1
  6
CONTINUOUS
 62
     6
 10
48.093048
 20
222.696723
 11
48.581703
 21
222.653974
  0
ARC
  8
CSLAYER1
  6
CONTINUOUS
 62
     6
 10
48.514081
 20
221.881058
 40
0.775864
 50
16.257399
 51
84.999892
  0
ARC
  8
CSLAYER1
  6
CONTINUOUS
 62
     6
 10
48.079504
 20
222.542145
 40
0.155173
 50
84.999865
 51
179.942691
  0
LINE
  8
CSLAYER1
  6
CONTINUOUS
 62
     6
 10
47.924331
 20
218.613577
 11
47.924331
 21
222.542300
  0
LINE
  8
CSLAYER1
  6
CONTINUOUS
 62
     6
 10
47.924322
 20
222.750270
 11
47.924322
 21
218.405452
  0
LINE
  8
CSLAYER1
  6
CONTINUOUS
 62
     6
 10
47.846754
 20
218.327861
 11
47.458823
 21
218.327861
  0
ARC
  8
CSLAYER1
  6
CONTINUOUS
 62
     6
 10
47.846754
 20
218.405452
 40
0.077586
 50
-89.999997
 51
0.000005
  0
ARC
  8
CSLAYER1
  6
CONTINUOUS
 62
     6
 10
47.458823
 20
218.405452
 40
0.077586
 50
180.000000
 51
270.000003
  0
ARC
  8
CSLAYER1
  6
CONTINUOUS
 62
     6
 10
47.846754
 20
222.750270
 40
0.077586
 50
0.000005
 51
90.000001
  0
LINE
  8
CSLAYER1
  6
CONTINUOUS
 62
     6
 10
47.846754
 20
222.827861
 11
47.458823
 21
222.827861
  0
ARC
  8
CSLAYER1
  6
CONTINUOUS
 62
     6
 10
47.458823
 20
222.750270
 40
0.077586
 50
90.000001
 51
179.942691
  0
LINE
  8
CSLAYER1
  6
CONTINUOUS
 62
     6
 10
47.924322
 20
221.040223
 11
47.381232
 21
220.695846
  0
LINE
  8
CSLAYER1
  6
CONTINUOUS
 62
     6
 10
47.924322
 20
220.652291
 11
47.381232
 21
220.307914
  0
LINE
  8
CSLAYER1
  6
CONTINUOUS
 62
     6
 10
47.381236
 20
222.750347
 11
47.381236
 21
218.405452
  0
ARC
  8
CSLAYER1
  6
CONTINUOUS
 62
     6
 10
44.045003
 20
161.577861
 40
5.431046
 50
-16.257006
 51
16.257016
  0
LINE
  8
CSLAYER1
  6
CONTINUOUS
 62
     6
 10
48.093048
 20
159.458999
 11
48.581703
 21
159.501748
  0
ARC
  8
CSLAYER1
  6
CONTINUOUS
 62
     6
 10
48.514081
 20
160.274664
 40
0.775864
 50
275.000111
 51
343.742611
  0
ARC
  8
CSLAYER1
  6
CONTINUOUS
 62
     6
 10
48.079504
 20
159.613577
 40
0.155173
 50
180.000000
 51
275.000152
  0
LINE
  8
CSLAYER1
  6
CONTINUOUS
 62
     6
 10
48.093048
 20
163.696723
 11
48.581703
 21
163.653974
  0
ARC
  8
CSLAYER1
  6
CONTINUOUS
 62
     6
 10
48.514081
 20
162.881058
 40
0.775864
 50
16.257399
 51
84.999892
  0
ARC
  8
CSLAYER1
  6
CONTINUOUS
 62
     6
 10
48.079504
 20
163.542145
 40
0.155173
 50
84.999865
 51
179.942691
  0
LINE
  8
CSLAYER1
  6
CONTINUOUS
 62
     6
 10
47.924331
 20
159.613577
 11
47.924331
 21
163.542300
  0
LINE
  8
CSLAYER1
  6
CONTINUOUS
 62
     6
 10
47.924322
 20
163.750270
 11
47.924322
 21
159.405452
  0
LINE
  8
CSLAYER1
  6
CONTINUOUS
 62
     6
 10
47.846754
 20
159.327861
 11
47.458823
 21
159.327861
  0
ARC
  8
CSLAYER1
  6
CONTINUOUS
 62
     6
 10
47.846754
 20
159.405452
 40
0.077586
 50
-89.999997
 51
0.000005
  0
ARC
  8
CSLAYER1
  6
CONTINUOUS
 62
     6
 10
47.458823
 20
159.405452
 40
0.077586
 50
180.000000
 51
270.000003
  0
ARC
  8
CSLAYER1
  6
CONTINUOUS
 62
     6
 10
47.846754
 20
163.750270
 40
0.077586
 50
0.000005
 51
90.000001
  0
LINE
  8
CSLAYER1
  6
CONTINUOUS
 62
     6
 10
47.846754
 20
163.827861
 11
47.458823
 21
163.827861
  0
ARC
  8
CSLAYER1
  6
CONTINUOUS
 62
     6
 10
47.458823
 20
163.750270
 40
0.077586
 50
90.000001
 51
179.942691
  0
LINE
  8
CSLAYER1
  6
CONTINUOUS
 62
     6
 10
47.924322
 20
162.040223
 11
47.381232
 21
161.695846
  0
LINE
  8
CSLAYER1
  6
CONTINUOUS
 62
     6
 10
47.924322
 20
161.652291
 11
47.381232
 21
161.307914
  0
LINE
  8
CSLAYER1
  6
CONTINUOUS
 62
     6
 10
47.381236
 20
163.750347
 11
47.381236
 21
159.405452
  0
TEXT
  8
CSLAYER1
 62
     3
 10
86.581230
 20
197.577881
 40
2.000000
 41
0.731250
  1
COM
 50
270.000000
 51
0.000000
  7
FX_FONT
 72
     5
 11
86.581230
 21
193.677881
  0
LINE
  8
CSLAYER1
  6
CONTINUOUS
 62
     3
 10
86.381236
 20
193.377873
 11
86.381236
 21
197.877873
  0
LINE
  8
CSLAYER1
  6
CONTINUOUS
 62
     3
 10
89.081236
 20
193.377873
 11
86.381236
 21
193.377873
  0
LINE
  8
CSLAYER1
  6
CONTINUOUS
 62
     3
 10
89.081236
 20
197.877873
 11
86.381236
 21
197.877873
  0
LINE
  8
CSLAYER1
  6
CONTINUOUS
 62
     3
 10
89.081236
 20
193.377873
 11
89.081236
 21
197.877873
  0
LINE
  8
CSLAYER1
  6
CONTINUOUS
 62
     3
 10
89.081236
 20
188.577873
 11
89.081236
 21
193.077873
  0
TEXT
  8
CSLAYER1
 62
     3
 10
86.581230
 20
192.327881
 40
2.000000
 41
0.900000
  1
+5
 50
270.000000
 51
0.000000
  7
FX_FONT
 72
     5
 11
86.581230
 21
189.327881
  0
LINE
  8
CSLAYER1
  6
CONTINUOUS
 62
     3
 10
86.381236
 20
188.577873
 11
86.381236
 21
193.077873
  0
LINE
  8
CSLAYER1
  6
CONTINUOUS
 62
     3
 10
89.081236
 20
188.577873
 11
86.381236
 21
188.577873
  0
LINE
  8
CSLAYER1
  6
CONTINUOUS
 62
     3
 10
89.081236
 20
193.077873
 11
86.381236
 21
193.077873
  0
TEXT
  8
CSLAYER1
 62
     3
 10
86.581230
 20
202.377884
 40
2.000000
 41
0.731250
  1
OUT
 50
270.000000
 51
0.000000
  7
FX_FONT
 72
     5
 11
86.581230
 21
198.477884
  0
LINE
  8
CSLAYER1
  6
CONTINUOUS
 62
     3
 10
86.381236
 20
198.177873
 11
86.381236
 21
202.677873
  0
LINE
  8
CSLAYER1
  6
CONTINUOUS
 62
     3
 10
89.081236
 20
198.177873
 11
86.381236
 21
198.177873
  0
LINE
  8
CSLAYER1
  6
CONTINUOUS
 62
     3
 10
89.081236
 20
202.677873
 11
86.381236
 21
202.677873
  0
LINE
  8
CSLAYER1
  6
CONTINUOUS
 62
     3
 10
89.081236
 20
198.177873
 11
89.081236
 21
202.677873
  0
TEXT
  8
CSLAYER1
 62
     3
 10
86.581230
 20
187.977875
 40
2.000000
 41
0.731250
  1
COM
 50
270.000000
 51
0.000000
  7
FX_FONT
 72
     5
 11
86.581230
 21
184.077875
  0
LINE
  8
CSLAYER1
  6
CONTINUOUS
 62
     3
 10
86.381236
 20
183.777873
 11
86.381236
 21
188.277873
  0
LINE
  8
CSLAYER1
  6
CONTINUOUS
 62
     3
 10
89.081236
 20
183.777873
 11
86.381236
 21
183.777873
  0
LINE
  8
CSLAYER1
  6
CONTINUOUS
 62
     3
 10
89.081236
 20
188.277873
 11
86.381236
 21
188.277873
  0
LINE
  8
CSLAYER1
  6
CONTINUOUS
 62
     3
 10
89.081236
 20
183.777873
 11
89.081236
 21
188.277873
  0
ENDSEC
  0
EOF
