  0
SECTION
  2
HEADER
  9
$ACADVER
  1
AC1015
  9
$ACADMAINTVER
 70
     6
  9
$DWGCODEPAGE
  3
ANSI_932
  9
$INSBASE
 10
0.0
 20
0.0
 30
0.0
  9
$EXTMIN
 10
0.0
 20
0.0
 30
0.0
  9
$EXTMAX
 10
420.0
 20
297.0
 30
0.0
  9
$LIMMIN
 10
0.0
 20
0.0
  9
$LIMMAX
 10
420.0
 20
297.0
  9
$ORTHOMODE
 70
     0
  9
$REGENMODE
 70
     1
  9
$FILLMODE
 70
     1
  9
$QTEXTMODE
 70
     0
  9
$MIRRTEXT
 70
     1
  9
$LTSCALE
 40
1.0
  9
$ATTMODE
 70
     1
  9
$TEXTSIZE
 40
2.5
  9
$TRACEWID
 40
1.0
  9
$TEXTSTYLE
  7
FX_VECTOR
  9
$CLAYER
  8
0
  9
$CELTYPE
  6
ByLayer
  9
$CECOLOR
 62
   256
  9
$CELTSCALE
 40
1.0
  9
$DISPSILH
 70
     0
  9
$DIMSCALE
 40
1.0
  9
$DIMASZ
 40
3.0
  9
$DIMEXO
 40
1.0
  9
$DIMDLI
 40
8.0
  9
$DIMRND
 40
0.0
  9
$DIMDLE
 40
6.0
  9
$DIMEXE
 40
1.0
  9
$DIMTP
 40
0.0
  9
$DIMTM
 40
0.0
  9
$DIMTXT
 40
3.5
  9
$DIMCEN
 40
2.5
  9
$DIMTSZ
 40
0.0
  9
$DIMTOL
 70
     0
  9
$DIMLIM
 70
     0
  9
$DIMTIH
 70
     0
  9
$DIMTOH
 70
     0
  9
$DIMSE1
 70
     0
  9
$DIMSE2
 70
     0
  9
$DIMTAD
 70
     1
  9
$DIMZIN
 70
     8
  9
$DIMBLK
  1

  9
$DIMASO
 70
     1
  9
$DIMSHO
 70
     1
  9
$DIMPOST
  1

  9
$DIMAPOST
  1

  9
$DIMALT
 70
     0
  9
$DIMALTD
 70
     3
  9
$DIMALTF
 40
0.03937
  9
$DIMLFAC
 40
1.0
  9
$DIMTOFL
 70
     1
  9
$DIMTVP
 40
0.0
  9
$DIMTIX
 70
     0
  9
$DIMSOXD
 70
     0
  9
$DIMSAH
 70
     1
  9
$DIMBLK1
  1
FXTIP_ARROW_S
  9
$DIMBLK2
  1
FXTIP_ARROW_E
  9
$DIMSTYLE
  2
FX_DIMINFO
  9
$DIMCLRD
 70
     7
  9
$DIMCLRE
 70
     7
  9
$DIMCLRT
 70
     7
  9
$DIMTFAC
 40
1.0
  9
$DIMGAP
 40
0.5
  9
$DIMJUST
 70
     0
  9
$DIMSD1
 70
     0
  9
$DIMSD2
 70
     0
  9
$DIMTOLJ
 70
     1
  9
$DIMTZIN
 70
     8
  9
$DIMALTZ
 70
     0
  9
$DIMALTTZ
 70
     0
  9
$DIMUPT
 70
     0
  9
$DIMDEC
 70
     2
  9
$DIMTDEC
 70
     2
  9
$DIMALTU
 70
     2
  9
$DIMALTTD
 70
     3
  9
$DIMTXSTY
  7
FX_VECTOR
  9
$DIMAUNIT
 70
     0
  9
$DIMADEC
 70
     2
  9
$DIMALTRND
 40
0.0
  9
$DIMAZIN
 70
     2
  9
$DIMDSEP
 70
    46
  9
$DIMATFIT
 70
     3
  9
$DIMFRAC
 70
     0
  9
$DIMLDRBLK
  1
FXTIP_ARROW_S
  9
$DIMLUNIT
 70
     2
  9
$DIMLWD
 70
    -2
  9
$DIMLWE
 70
    -2
  9
$DIMTMOVE
 70
     0
  9
$LUNITS
 70
     2
  9
$LUPREC
 70
     4
  9
$SKETCHINC
 40
1.0
  9
$FILLETRAD
 40
10.0
  9
$AUNITS
 70
     0
  9
$AUPREC
 70
     0
  9
$MENU
  1
.
  9
$ELEVATION
 40
0.0
  9
$PELEVATION
 40
0.0
  9
$THICKNESS
 40
0.0
  9
$LIMCHECK
 70
     0
  9
$CHAMFERA
 40
0.0
  9
$CHAMFERB
 40
0.0
  9
$CHAMFERC
 40
0.0
  9
$CHAMFERD
 40
0.0
  9
$SKPOLY
 70
     0
  9
$TDCREATE
 40
2458983.623595972
  9
$TDUCREATE
 40
2458983.248595972
  9
$TDUPDATE
 40
2458983.623596701
  9
$TDUUPDATE
 40
2458983.248596701
  9
$TDINDWG
 40
0.0000000116
  9
$TDUSRTIMER
 40
0.0000000116
  9
$USRTIMER
 70
     1
  9
$ANGBASE
 50
0.0
  9
$ANGDIR
 70
     0
  9
$PDMODE
 70
     0
  9
$PDSIZE
 40
0.0
  9
$PLINEWID
 40
0.0
  9
$SPLFRAME
 70
     0
  9
$SPLINETYPE
 70
     6
  9
$SPLINESEGS
 70
     8
  9
$HANDSEED
  5
319
  9
$SURFTAB1
 70
     6
  9
$SURFTAB2
 70
     6
  9
$SURFTYPE
 70
     6
  9
$SURFU
 70
     6
  9
$SURFV
 70
     6
  9
$UCSBASE
  2

  9
$UCSNAME
  2

  9
$UCSORG
 10
0.0
 20
0.0
 30
0.0
  9
$UCSXDIR
 10
1.0
 20
0.0
 30
0.0
  9
$UCSYDIR
 10
0.0
 20
1.0
 30
0.0
  9
$UCSORTHOREF
  2

  9
$UCSORTHOVIEW
 70
     0
  9
$UCSORGTOP
 10
0.0
 20
0.0
 30
0.0
  9
$UCSORGBOTTOM
 10
0.0
 20
0.0
 30
0.0
  9
$UCSORGLEFT
 10
0.0
 20
0.0
 30
0.0
  9
$UCSORGRIGHT
 10
0.0
 20
0.0
 30
0.0
  9
$UCSORGFRONT
 10
0.0
 20
0.0
 30
0.0
  9
$UCSORGBACK
 10
0.0
 20
0.0
 30
0.0
  9
$PUCSBASE
  2

  9
$PUCSNAME
  2

  9
$PUCSORG
 10
0.0
 20
0.0
 30
0.0
  9
$PUCSXDIR
 10
1.0
 20
0.0
 30
0.0
  9
$PUCSYDIR
 10
0.0
 20
1.0
 30
0.0
  9
$PUCSORTHOREF
  2

  9
$PUCSORTHOVIEW
 70
     0
  9
$PUCSORGTOP
 10
0.0
 20
0.0
 30
0.0
  9
$PUCSORGBOTTOM
 10
0.0
 20
0.0
 30
0.0
  9
$PUCSORGLEFT
 10
0.0
 20
0.0
 30
0.0
  9
$PUCSORGRIGHT
 10
0.0
 20
0.0
 30
0.0
  9
$PUCSORGFRONT
 10
0.0
 20
0.0
 30
0.0
  9
$PUCSORGBACK
 10
0.0
 20
0.0
 30
0.0
  9
$USERI1
 70
     0
  9
$USERI2
 70
     0
  9
$USERI3
 70
     0
  9
$USERI4
 70
     0
  9
$USERI5
 70
     0
  9
$USERR1
 40
0.0
  9
$USERR2
 40
0.0
  9
$USERR3
 40
0.0
  9
$USERR4
 40
0.0
  9
$USERR5
 40
0.0
  9
$WORLDVIEW
 70
     1
  9
$SHADEDGE
 70
     3
  9
$SHADEDIF
 70
    70
  9
$TILEMODE
 70
     1
  9
$MAXACTVP
 70
    64
  9
$PINSBASE
 10
0.0
 20
0.0
 30
0.0
  9
$PLIMCHECK
 70
     0
  9
$PEXTMIN
 10
1.000000000000000E+20
 20
1.000000000000000E+20
 30
1.000000000000000E+20
  9
$PEXTMAX
 10
-1.000000000000000E+20
 20
-1.000000000000000E+20
 30
-1.000000000000000E+20
  9
$PLIMMIN
 10
0.0
 20
0.0
  9
$PLIMMAX
 10
420.0
 20
297.0
  9
$UNITMODE
 70
     0
  9
$VISRETAIN
 70
     1
  9
$PLINEGEN
 70
     0
  9
$PSLTSCALE
 70
     1
  9
$TREEDEPTH
 70
  3020
  9
$CMLSTYLE
  2
Standard
  9
$CMLJUST
 70
     0
  9
$CMLSCALE
 40
20.0
  9
$PROXYGRAPHICS
 70
     1
  9
$MEASUREMENT
 70
     1
  9
$CELWEIGHT
370
    -1
  9
$ENDCAPS
280
     0
  9
$JOINSTYLE
280
     0
  9
$LWDISPLAY
290
     0
  9
$INSUNITS
 70
     4
  9
$HYPERLINKBASE
  1

  9
$STYLESHEET
  1

  9
$XEDIT
290
     1
  9
$CEPSNTYPE
380
     0
  9
$PSTYLEMODE
290
     1
  9
$FINGERPRINTGUID
  2
{429FC4D3-081B-4832-9FDF-5D2D286B34B2}
  9
$VERSIONGUID
  2
{FAEB1C32-E019-11D5-929B-00C0DF256EC4}
  9
$EXTNAMES
290
     1
  9
$PSVPSCALE
 40
0.0
  9
$OLESTARTUP
290
     0
  0
ENDSEC
  0
SECTION
  2
CLASSES
  0
CLASS
  1
ACDBDICTIONARYWDFLT
  2
AcDbDictionaryWithDefault
  3
ObjectDBX Classes
 90
        0
280
     0
281
     0
  0
CLASS
  1
VISUALSTYLE
  2
AcDbVisualStyle
  3
ObjectDBX Classes
 90
     4095
280
     0
281
     0
  0
CLASS
  1
MATERIAL
  2
AcDbMaterial
  3
ObjectDBX Classes
 90
     1153
280
     0
281
     0
  0
CLASS
  1
SCALE
  2
AcDbScale
  3
ObjectDBX Classes
 90
     1153
280
     0
281
     0
  0
CLASS
  1
TABLESTYLE
  2
AcDbTableStyle
  3
ObjectDBX Classes
 90
     4095
280
     0
281
     0
  0
CLASS
  1
MLEADERSTYLE
  2
AcDbMLeaderStyle
  3
ACDB_MLEADERSTYLE_CLASS
 90
     4095
280
     0
281
     0
  0
CLASS
  1
SUN
  2
AcDbSun
  3
SCENEOE
 90
     1153
280
     0
281
     0
  0
CLASS
  1
DICTIONARYVAR
  2
AcDbDictionaryVar
  3
ObjectDBX Classes
 90
        0
280
     0
281
     0
  0
CLASS
  1
ACDBPLACEHOLDER
  2
AcDbPlaceHolder
  3
ObjectDBX Classes
 90
        0
280
     0
281
     0
  0
CLASS
  1
LAYOUT
  2
AcDbLayout
  3
ObjectDBX Classes
 90
        0
280
     0
281
     0
  0
ENDSEC
  0
SECTION
  2
TABLES
  0
TABLE
  2
VPORT
  5
8
102
{ACAD_XDICTIONARY
360
2DC
102
}
330
0
100
AcDbSymbolTable
 70
     1
  0
VPORT
  5
29
330
8
100
AcDbSymbolTableRecord
100
AcDbViewportTableRecord
  2
*Active
 70
     0
 10
0.0
 20
0.0
 11
1.0
 21
1.0
 12
210.0
 22
148.5
 13
0.0
 23
0.0
 14
10.0
 24
10.0
 15
10.0
 25
10.0
 16
0.0
 26
0.0
 36
1.0
 17
0.0
 27
0.0
 37
0.0
 40
297.0
 41
1.414141414141414
 42
50.0
 43
0.0
 44
0.0
 50
0.0
 51
0.0
 71
     0
 72
   100
 73
     1
 74
     3
 75
     0
 76
     0
 77
     0
 78
     0
281
     0
 65
     1
110
0.0
120
0.0
130
0.0
111
1.0
121
0.0
131
0.0
112
0.0
122
1.0
132
0.0
 79
     0
146
0.0
  0
ENDTAB
  0
TABLE
  2
LTYPE
  5
5
330
0
100
AcDbSymbolTable
 70
     4
  0
LTYPE
  5
14
330
5
100
AcDbSymbolTableRecord
100
AcDbLinetypeTableRecord
  2
ByBlock
 70
     0
  3

 72
    65
 73
     0
 40
0.0
  0
LTYPE
  5
15
330
5
100
AcDbSymbolTableRecord
100
AcDbLinetypeTableRecord
  2
ByLayer
 70
     0
  3

 72
    65
 73
     0
 40
0.0
  0
LTYPE
  5
16
330
5
100
AcDbSymbolTableRecord
100
AcDbLinetypeTableRecord
  2
Continuous
 70
     0
  3
Solid line
 72
    65
 73
     0
 40
0.0
  0
LTYPE
  5
DE
330
5
100
AcDbSymbolTableRecord
100
AcDbLinetypeTableRecord
  2
実線
 70
     0
  3

 72
    65
 73
     0
 40
0.0
  0
LTYPE
  5
F8
330
5
100
AcDbSymbolTableRecord
100
AcDbLinetypeTableRecord
  2
一点鎖線
 70
     0
  3

 72
    65
 73
     4
 40
13.0
 49
10.0
 74
     0
 49
-1.0
 74
     0
 49
1.0
 74
     0
 49
-1.0
 74
     0
  0
LTYPE
  5
152
330
5
100
AcDbSymbolTableRecord
100
AcDbLinetypeTableRecord
  2
破線
 70
     0
  3

 72
    65
 73
     2
 40
2.8
 49
2.0
 74
     0
 49
-0.8
 74
     0
  0
ENDTAB
  0
TABLE
  2
LAYER
  5
2
330
0
100
AcDbSymbolTable
 70
     2
  0
LAYER
  5
10
330
2
100
AcDbSymbolTableRecord
100
AcDbLayerTableRecord
  2
0
 70
     0
 62
     7
  6
Continuous
370
    -3
390
F
  0
LAYER
  5
DD
330
2
100
AcDbSymbolTableRecord
100
AcDbLayerTableRecord
  2
基準ﾚｲﾔｸﾞﾙｰﾌﾟ_01
 70
     0
 62
     3
  6
実線
370
    20
390
F
  0
ENDTAB
  0
TABLE
  2
STYLE
  5
3
330
0
100
AcDbSymbolTable
 70
     3
  0
STYLE
  5
11
330
3
100
AcDbSymbolTableRecord
100
AcDbTextStyleTableRecord
  2
Standard
 70
     0
 40
0.0
 41
1.0
 50
0.0
 71
     0
 42
2.5
  3
txt
  4

  0
STYLE
  5
6E
330
3
100
AcDbSymbolTableRecord
100
AcDbTextStyleTableRecord
  2
FX_VECTOR
 70
     0
 40
0.0
 41
1.0
 50
0.0
 71
     0
 42
2.5
  3
MONOTXT.SHX
  4
BigFont.shx
  0
STYLE
  5
D9
330
3
100
AcDbSymbolTableRecord
100
AcDbTextStyleTableRecord
  2
DEFAULT
 70
     0
 40
0.0
 41
1.0
 50
0.0
 71
     0
 42
2.5
  3

  4

1001
ACAD
1000
ＭＳ ゴシック
1071
    32817
  0
ENDTAB
  0
TABLE
  2
VIEW
  5
6
330
0
100
AcDbSymbolTable
 70
     0
  0
ENDTAB
  0
TABLE
  2
UCS
  5
7
330
0
100
AcDbSymbolTable
 70
     0
  0
ENDTAB
  0
TABLE
  2
APPID
  5
9
330
0
100
AcDbSymbolTable
 70
     2
  0
APPID
  5
12
330
9
100
AcDbSymbolTableRecord
100
AcDbRegAppTableRecord
  2
ACAD
 70
     0
  0
APPID
  5
316
330
9
100
AcDbSymbolTableRecord
100
AcDbRegAppTableRecord
  2
ACAD_MLEADERVER
 70
     0
  0
ENDTAB
  0
TABLE
  2
DIMSTYLE
  5
A
330
0
100
AcDbSymbolTable
 70
     2
100
AcDbDimStyleTable
  0
DIMSTYLE
105
27
330
A
100
AcDbSymbolTableRecord
100
AcDbDimStyleTableRecord
  2
ISO-25
 70
     0
 41
2.5
 42
0.625
 43
3.75
 44
1.25
 73
     0
 74
     0
 77
     1
 78
     8
140
2.5
141
2.5
143
0.03937007874016
147
0.625
171
     3
172
     1
178
     0
271
     2
272
     2
274
     3
278
    44
283
     0
284
     8
340
11
  0
DIMSTYLE
105
D8
330
A
100
AcDbSymbolTableRecord
100
AcDbDimStyleTableRecord
  2
FX_DIMINFO
 70
     0
 41
3.0
 42
1.0
 43
8.0
 44
1.0
 46
6.0
 73
     0
 74
     0
 77
     1
 78
     8
 79
     2
140
3.5
141
2.5
143
0.03937
147
0.5
171
     3
172
     1
173
     1
176
     7
177
     7
271
     2
178
     7
179
     2
271
     2
272
     2
274
     3
284
     8
340
6E
341
72
343
72
344
78
  0
ENDTAB
  0
TABLE
  2
BLOCK_RECORD
  5
1
330
0
100
AcDbSymbolTable
 70
    40
  0
BLOCK_RECORD
  5
1F
330
1
100
AcDbSymbolTableRecord
100
AcDbBlockTableRecord
  2
*Model_Space
340
22
  0
BLOCK_RECORD
  5
1B
330
1
100
AcDbSymbolTableRecord
100
AcDbBlockTableRecord
  2
*Paper_Space
340
1E
  0
BLOCK_RECORD
  5
23
330
1
100
AcDbSymbolTableRecord
100
AcDbBlockTableRecord
  2
*Paper_Space0
340
26
  0
BLOCK_RECORD
  5
6F
330
1
100
AcDbSymbolTableRecord
100
AcDbBlockTableRecord
  2
FXTIP_NONE
340
0
  0
BLOCK_RECORD
  5
72
330
1
100
AcDbSymbolTableRecord
100
AcDbBlockTableRecord
  2
FXTIP_ARROW_S
340
0
  0
BLOCK_RECORD
  5
78
330
1
100
AcDbSymbolTableRecord
100
AcDbBlockTableRecord
  2
FXTIP_ARROW_E
340
0
  0
BLOCK_RECORD
  5
7E
330
1
100
AcDbSymbolTableRecord
100
AcDbBlockTableRecord
  2
FXTIP_BLACKDOT_S
340
0
  0
BLOCK_RECORD
  5
84
330
1
100
AcDbSymbolTableRecord
100
AcDbBlockTableRecord
  2
FXTIP_BLACKDOT_E
340
0
  0
BLOCK_RECORD
  5
8A
330
1
100
AcDbSymbolTableRecord
100
AcDbBlockTableRecord
  2
FXTIP_TRIANGLE_S
340
0
  0
BLOCK_RECORD
  5
91
330
1
100
AcDbSymbolTableRecord
100
AcDbBlockTableRecord
  2
FXTIP_TRIANGLE_E
340
0
  0
BLOCK_RECORD
  5
98
330
1
100
AcDbSymbolTableRecord
100
AcDbBlockTableRecord
  2
FXTIP_ARCHITECT_S
340
0
  0
BLOCK_RECORD
  5
9E
330
1
100
AcDbSymbolTableRecord
100
AcDbBlockTableRecord
  2
FXTIP_ARCHITECT_E
340
0
  0
BLOCK_RECORD
  5
A4
330
1
100
AcDbSymbolTableRecord
100
AcDbBlockTableRecord
  2
FXTIP_CIVIL_S
340
0
  0
BLOCK_RECORD
  5
AA
330
1
100
AcDbSymbolTableRecord
100
AcDbBlockTableRecord
  2
FXTIP_CIVIL_E
340
0
  0
BLOCK_RECORD
  5
B0
330
1
100
AcDbSymbolTableRecord
100
AcDbBlockTableRecord
  2
FXTIP_WHITEDOT_S
340
0
  0
BLOCK_RECORD
  5
B5
330
1
100
AcDbSymbolTableRecord
100
AcDbBlockTableRecord
  2
FXTIP_WHITEDOT_E
340
0
  0
BLOCK_RECORD
  5
BA
330
1
100
AcDbSymbolTableRecord
100
AcDbBlockTableRecord
  2
FXTIP_UPARROW_S
340
0
  0
BLOCK_RECORD
  5
BF
330
1
100
AcDbSymbolTableRecord
100
AcDbBlockTableRecord
  2
FXTIP_UPARROW_E
340
0
  0
BLOCK_RECORD
  5
C4
330
1
100
AcDbSymbolTableRecord
100
AcDbBlockTableRecord
  2
FXTIP_DOWNARROW_S
340
0
  0
BLOCK_RECORD
  5
C9
330
1
100
AcDbSymbolTableRecord
100
AcDbBlockTableRecord
  2
FXTIP_DOWNARROW_E
340
0
  0
BLOCK_RECORD
  5
CE
330
1
100
AcDbSymbolTableRecord
100
AcDbBlockTableRecord
  2
FXTIP_BLACKTRIANGLE_S
340
0
  0
BLOCK_RECORD
  5
D3
330
1
100
AcDbSymbolTableRecord
100
AcDbBlockTableRecord
  2
FXTIP_BLACKTRIANGLE_E
340
0
  0
BLOCK_RECORD
  5
DA
330
1
100
AcDbSymbolTableRecord
100
AcDbBlockTableRecord
  2
BLKF023
340
0
102
{BLKREFS
331
DF
102
}
  0
BLOCK_RECORD
  5
E8
330
1
100
AcDbSymbolTableRecord
100
AcDbBlockTableRecord
  2
BLKF024
340
0
102
{BLKREFS
331
EB
102
}
  0
BLOCK_RECORD
  5
F4
330
1
100
AcDbSymbolTableRecord
100
AcDbBlockTableRecord
  2
BLKF025
340
0
102
{BLKREFS
331
F7
102
}
  0
BLOCK_RECORD
  5
11F
330
1
100
AcDbSymbolTableRecord
100
AcDbBlockTableRecord
  2
BLKF026
340
0
102
{BLKREFS
331
122
102
}
  0
BLOCK_RECORD
  5
123
330
1
100
AcDbSymbolTableRecord
100
AcDbBlockTableRecord
  2
BLKF027
340
0
102
{BLKREFS
331
126
102
}
  0
BLOCK_RECORD
  5
14E
330
1
100
AcDbSymbolTableRecord
100
AcDbBlockTableRecord
  2
BLKF028
340
0
102
{BLKREFS
331
151
102
}
  0
BLOCK_RECORD
  5
1B5
330
1
100
AcDbSymbolTableRecord
100
AcDbBlockTableRecord
  2
BLKF029
340
0
102
{BLKREFS
331
1B8
102
}
  0
BLOCK_RECORD
  5
1CE
330
1
100
AcDbSymbolTableRecord
100
AcDbBlockTableRecord
  2
BLKF030
340
0
102
{BLKREFS
331
1D1
102
}
  0
BLOCK_RECORD
  5
1D5
330
1
100
AcDbSymbolTableRecord
100
AcDbBlockTableRecord
  2
BLKF031
340
0
102
{BLKREFS
331
1D8
102
}
  0
BLOCK_RECORD
  5
1DC
330
1
100
AcDbSymbolTableRecord
100
AcDbBlockTableRecord
  2
BLKF032
340
0
102
{BLKREFS
331
1DF
102
}
  0
BLOCK_RECORD
  5
1E3
330
1
100
AcDbSymbolTableRecord
100
AcDbBlockTableRecord
  2
BLKF033
340
0
102
{BLKREFS
331
1E6
102
}
  0
BLOCK_RECORD
  5
20E
330
1
100
AcDbSymbolTableRecord
100
AcDbBlockTableRecord
  2
BLKF034
340
0
102
{BLKREFS
331
211
102
}
  0
BLOCK_RECORD
  5
215
330
1
100
AcDbSymbolTableRecord
100
AcDbBlockTableRecord
  2
BLKF035
340
0
102
{BLKREFS
331
218
102
}
  0
BLOCK_RECORD
  5
21B
330
1
100
AcDbSymbolTableRecord
100
AcDbBlockTableRecord
  2
BLKF036
340
0
102
{BLKREFS
331
21E
102
}
  0
BLOCK_RECORD
  5
268
330
1
100
AcDbSymbolTableRecord
100
AcDbBlockTableRecord
  2
BLKF037
340
0
102
{BLKREFS
331
26B
102
}
  0
BLOCK_RECORD
  5
26F
330
1
100
AcDbSymbolTableRecord
100
AcDbBlockTableRecord
  2
BLKF038
340
0
102
{BLKREFS
331
272
102
}
  0
BLOCK_RECORD
  5
28C
330
1
100
AcDbSymbolTableRecord
100
AcDbBlockTableRecord
  2
BLKF039
340
0
102
{BLKREFS
331
28F
102
}
  0
BLOCK_RECORD
  5
2A3
330
1
100
AcDbSymbolTableRecord
100
AcDbBlockTableRecord
  2
BLKF040
340
0
102
{BLKREFS
331
2A6
102
}
  0
BLOCK_RECORD
  5
2B9
330
1
100
AcDbSymbolTableRecord
100
AcDbBlockTableRecord
  2
BLKF041
340
0
102
{BLKREFS
331
2BC
102
}
  0
BLOCK_RECORD
  5
2C3
330
1
100
AcDbSymbolTableRecord
100
AcDbBlockTableRecord
  2
BLKF042
340
0
102
{BLKREFS
331
2C6
102
}
  0
ENDTAB
  0
ENDSEC
  0
SECTION
  2
BLOCKS
  0
BLOCK
  5
20
330
1F
100
AcDbEntity
  8
0
100
AcDbBlockBegin
  2
*Model_Space
 70
     0
 10
0.0
 20
0.0
 30
0.0
  3
*Model_Space
  1
*Model_Space
  0
ENDBLK
  5
21
330
1F
100
AcDbEntity
  8
0
100
AcDbBlockEnd
  0
BLOCK
  5
1C
330
1B
100
AcDbEntity
 67
     1
  8
0
100
AcDbBlockBegin
  2
*Paper_Space
 70
     0
 10
0.0
 20
0.0
 30
0.0
  3
*Paper_Space
  1
*Paper_Space
  0
ENDBLK
  5
1D
330
1B
100
AcDbEntity
 67
     1
  8
0
100
AcDbBlockEnd
  0
BLOCK
  5
24
330
23
100
AcDbEntity
  8
0
100
AcDbBlockBegin
  2
*Paper_Space0
 70
     0
 10
0.0
 20
0.0
 30
0.0
  3
*Paper_Space0
  1
*Paper_Space0
  0
ENDBLK
  5
25
330
23
100
AcDbEntity
  8
0
100
AcDbBlockEnd
  0
BLOCK
  5
70
330
6F
100
AcDbEntity
  8
0
100
AcDbBlockBegin
  2
FXTIP_NONE
 70
     0
 10
0.0
 20
0.0
 30
0.0
  3
FXTIP_NONE
  1
FXTIP_NONE
  0
ENDBLK
  5
71
330
6F
100
AcDbEntity
  8
0
100
AcDbBlockEnd
  0
BLOCK
  5
73
330
72
100
AcDbEntity
  8
0
100
AcDbBlockBegin
  2
FXTIP_ARROW_S
 70
     0
 10
0.0
 20
0.0
 30
0.0
  3
FXTIP_ARROW_S
  1
FXTIP_ARROW_S
  0
LINE
  5
75
330
72
100
AcDbEntity
  8
0
  6
Continuous
 62
     0
370
    -2
100
AcDbLine
 10
0.0
 20
0.0
 30
0.0
 11
-1.0
 21
0.0000000000000001
 31
0.0
  0
LINE
  5
76
330
72
100
AcDbEntity
  8
0
  6
Continuous
 62
     0
370
    -2
100
AcDbLine
 10
0.0
 20
0.0
 30
0.0
 11
-0.9914448613738104
 21
-0.1305261922200515
 31
0.0
  0
LINE
  5
77
330
72
100
AcDbEntity
  8
0
  6
Continuous
 62
     0
370
    -2
100
AcDbLine
 10
0.0
 20
0.0
 30
0.0
 11
-0.9914448613738104
 21
0.1305261922200517
 31
0.0
  0
ENDBLK
  5
74
330
72
100
AcDbEntity
  8
0
100
AcDbBlockEnd
  0
BLOCK
  5
79
330
78
100
AcDbEntity
  8
0
100
AcDbBlockBegin
  2
FXTIP_ARROW_E
 70
     0
 10
0.0
 20
0.0
 30
0.0
  3
FXTIP_ARROW_E
  1
FXTIP_ARROW_E
  0
LINE
  5
7B
330
78
100
AcDbEntity
  8
0
  6
Continuous
 62
     0
370
    -2
100
AcDbLine
 10
0.0
 20
0.0
 30
0.0
 11
-1.0
 21
0.0
 31
0.0
  0
LINE
  5
7C
330
78
100
AcDbEntity
  8
0
  6
Continuous
 62
     0
370
    -2
100
AcDbLine
 10
0.0
 20
0.0
 30
0.0
 11
-0.9914448613738104
 21
0.1305261922200516
 31
0.0
  0
LINE
  5
7D
330
78
100
AcDbEntity
  8
0
  6
Continuous
 62
     0
370
    -2
100
AcDbLine
 10
0.0
 20
0.0
 30
0.0
 11
-0.9914448613738104
 21
-0.1305261922200516
 31
0.0
  0
ENDBLK
  5
7A
330
78
100
AcDbEntity
  8
0
100
AcDbBlockEnd
  0
BLOCK
  5
7F
330
7E
100
AcDbEntity
  8
0
100
AcDbBlockBegin
  2
FXTIP_BLACKDOT_S
 70
     0
 10
0.0
 20
0.0
 30
0.0
  3
FXTIP_BLACKDOT_S
  1
FXTIP_BLACKDOT_S
  0
LINE
  5
81
330
7E
100
AcDbEntity
  8
0
  6
Continuous
 62
     0
370
    -2
100
AcDbLine
 10
0.0
 20
0.0
 30
0.0
 11
-1.0
 21
0.0000000000000001
 31
0.0
  0
LWPOLYLINE
  5
82
330
7E
100
AcDbEntity
  8
0
  6
Continuous
 62
     0
370
    -2
100
AcDbPolyline
 90
        2
 70
     1
 43
0.1666666666666667
 10
-0.0833333333333333
 20
0.0
 42
1.0
 10
0.0833333333333333
 20
0.0
 42
1.0
  0
CIRCLE
  5
83
330
7E
100
AcDbEntity
  8
0
  6
Continuous
 62
     0
370
    -2
100
AcDbCircle
 10
0.0
 20
0.0
 30
0.0
 40
0.1666666666666667
  0
ENDBLK
  5
80
330
7E
100
AcDbEntity
  8
0
100
AcDbBlockEnd
  0
BLOCK
  5
85
330
84
100
AcDbEntity
  8
0
100
AcDbBlockBegin
  2
FXTIP_BLACKDOT_E
 70
     0
 10
0.0
 20
0.0
 30
0.0
  3
FXTIP_BLACKDOT_E
  1
FXTIP_BLACKDOT_E
  0
LINE
  5
87
330
84
100
AcDbEntity
  8
0
  6
Continuous
 62
     0
370
    -2
100
AcDbLine
 10
0.0
 20
0.0
 30
0.0
 11
-1.0
 21
0.0
 31
0.0
  0
LWPOLYLINE
  5
88
330
84
100
AcDbEntity
  8
0
  6
Continuous
 62
     0
370
    -2
100
AcDbPolyline
 90
        2
 70
     1
 43
0.1666666666666667
 10
-0.0833333333333333
 20
0.0
 42
1.0
 10
0.0833333333333333
 20
0.0
 42
1.0
  0
CIRCLE
  5
89
330
84
100
AcDbEntity
  8
0
  6
Continuous
 62
     0
370
    -2
100
AcDbCircle
 10
0.0
 20
0.0
 30
0.0
 40
0.1666666666666667
  0
ENDBLK
  5
86
330
84
100
AcDbEntity
  8
0
100
AcDbBlockEnd
  0
BLOCK
  5
8B
330
8A
100
AcDbEntity
  8
0
100
AcDbBlockBegin
  2
FXTIP_TRIANGLE_S
 70
     0
 10
0.0
 20
0.0
 30
0.0
  3
FXTIP_TRIANGLE_S
  1
FXTIP_TRIANGLE_S
  0
LINE
  5
8D
330
8A
100
AcDbEntity
  8
0
  6
Continuous
 62
     0
370
    -2
100
AcDbLine
 10
0.0
 20
0.0
 30
0.0
 11
-1.0
 21
0.0000000000000001
 31
0.0
  0
LINE
  5
8E
330
8A
100
AcDbEntity
  8
0
  6
Continuous
 62
     0
370
    -2
100
AcDbLine
 10
0.0
 20
0.0
 30
0.0
 11
-0.9914448613738104
 21
-0.1305261922200515
 31
0.0
  0
LINE
  5
8F
330
8A
100
AcDbEntity
  8
0
  6
Continuous
 62
     0
370
    -2
100
AcDbLine
 10
0.0
 20
0.0
 30
0.0
 11
-0.9914448613738104
 21
0.1305261922200517
 31
0.0
  0
LINE
  5
90
330
8A
100
AcDbEntity
  8
0
  6
Continuous
 62
     0
370
    -2
100
AcDbLine
 10
-0.9914448613738104
 20
-0.1305261922200515
 30
0.0
 11
-0.9914448613738104
 21
0.1305261922200517
 31
0.0
  0
ENDBLK
  5
8C
330
8A
100
AcDbEntity
  8
0
100
AcDbBlockEnd
  0
BLOCK
  5
92
330
91
100
AcDbEntity
  8
0
100
AcDbBlockBegin
  2
FXTIP_TRIANGLE_E
 70
     0
 10
0.0
 20
0.0
 30
0.0
  3
FXTIP_TRIANGLE_E
  1
FXTIP_TRIANGLE_E
  0
LINE
  5
94
330
91
100
AcDbEntity
  8
0
  6
Continuous
 62
     0
370
    -2
100
AcDbLine
 10
0.0
 20
0.0
 30
0.0
 11
-1.0
 21
0.0
 31
0.0
  0
LINE
  5
95
330
91
100
AcDbEntity
  8
0
  6
Continuous
 62
     0
370
    -2
100
AcDbLine
 10
0.0
 20
0.0
 30
0.0
 11
-0.9914448613738104
 21
0.1305261922200516
 31
0.0
  0
LINE
  5
96
330
91
100
AcDbEntity
  8
0
  6
Continuous
 62
     0
370
    -2
100
AcDbLine
 10
0.0
 20
0.0
 30
0.0
 11
-0.9914448613738104
 21
-0.1305261922200516
 31
0.0
  0
LINE
  5
97
330
91
100
AcDbEntity
  8
0
  6
Continuous
 62
     0
370
    -2
100
AcDbLine
 10
-0.9914448613738104
 20
0.1305261922200516
 30
0.0
 11
-0.9914448613738104
 21
-0.1305261922200516
 31
0.0
  0
ENDBLK
  5
93
330
91
100
AcDbEntity
  8
0
100
AcDbBlockEnd
  0
BLOCK
  5
99
330
98
100
AcDbEntity
  8
0
100
AcDbBlockBegin
  2
FXTIP_ARCHITECT_S
 70
     0
 10
0.0
 20
0.0
 30
0.0
  3
FXTIP_ARCHITECT_S
  1
FXTIP_ARCHITECT_S
  0
LINE
  5
9B
330
98
100
AcDbEntity
  8
0
  6
Continuous
 62
     0
370
    -2
100
AcDbLine
 10
0.0
 20
0.0
 30
0.0
 11
-1.0
 21
0.0000000000000001
 31
0.0
  0
LINE
  5
9C
330
98
100
AcDbEntity
  8
0
  6
Continuous
 62
     0
370
    -2
100
AcDbLine
 10
0.0
 20
0.0
 30
0.0
 11
-0.7071067811865476
 21
-0.7071067811865474
 31
0.0
  0
LINE
  5
9D
330
98
100
AcDbEntity
  8
0
  6
Continuous
 62
     0
370
    -2
100
AcDbLine
 10
0.0
 20
0.0
 30
0.0
 11
0.7071067811865476
 21
0.7071067811865474
 31
0.0
  0
ENDBLK
  5
9A
330
98
100
AcDbEntity
  8
0
100
AcDbBlockEnd
  0
BLOCK
  5
9F
330
9E
100
AcDbEntity
  8
0
100
AcDbBlockBegin
  2
FXTIP_ARCHITECT_E
 70
     0
 10
0.0
 20
0.0
 30
0.0
  3
FXTIP_ARCHITECT_E
  1
FXTIP_ARCHITECT_E
  0
LINE
  5
A1
330
9E
100
AcDbEntity
  8
0
  6
Continuous
 62
     0
370
    -2
100
AcDbLine
 10
0.0
 20
0.0
 30
0.0
 11
-1.0
 21
0.0
 31
0.0
  0
LINE
  5
A2
330
9E
100
AcDbEntity
  8
0
  6
Continuous
 62
     0
370
    -2
100
AcDbLine
 10
0.0
 20
0.0
 30
0.0
 11
0.7071067811865475
 21
0.7071067811865475
 31
0.0
  0
LINE
  5
A3
330
9E
100
AcDbEntity
  8
0
  6
Continuous
 62
     0
370
    -2
100
AcDbLine
 10
0.0
 20
0.0
 30
0.0
 11
-0.7071067811865475
 21
-0.7071067811865475
 31
0.0
  0
ENDBLK
  5
A0
330
9E
100
AcDbEntity
  8
0
100
AcDbBlockEnd
  0
BLOCK
  5
A5
330
A4
100
AcDbEntity
  8
0
100
AcDbBlockBegin
  2
FXTIP_CIVIL_S
 70
     0
 10
0.0
 20
0.0
 30
0.0
  3
FXTIP_CIVIL_S
  1
FXTIP_CIVIL_S
  0
LINE
  5
A7
330
A4
100
AcDbEntity
  8
0
  6
Continuous
 62
     0
370
    -2
100
AcDbLine
 10
0.0
 20
0.0
 30
0.0
 11
-1.0
 21
0.0000000000000001
 31
0.0
  0
LINE
  5
A8
330
A4
100
AcDbEntity
  8
0
  6
Continuous
 62
     0
370
    -2
100
AcDbLine
 10
0.0
 20
-0.0833333333333333
 30
0.0
 11
-1.0
 21
-0.0833333333333332
 31
0.0
  0
LINE
  5
A9
330
A4
100
AcDbEntity
  8
0
  6
Continuous
 62
     0
370
    -2
100
AcDbLine
 10
0.0
 20
-0.1666666666666667
 30
0.0
 11
-1.0
 21
-0.1666666666666666
 31
0.0
  0
ENDBLK
  5
A6
330
A4
100
AcDbEntity
  8
0
100
AcDbBlockEnd
  0
BLOCK
  5
AB
330
AA
100
AcDbEntity
  8
0
100
AcDbBlockBegin
  2
FXTIP_CIVIL_E
 70
     0
 10
0.0
 20
0.0
 30
0.0
  3
FXTIP_CIVIL_E
  1
FXTIP_CIVIL_E
  0
LINE
  5
AD
330
AA
100
AcDbEntity
  8
0
  6
Continuous
 62
     0
370
    -2
100
AcDbLine
 10
0.0
 20
0.0
 30
0.0
 11
-1.0
 21
0.0
 31
0.0
  0
LINE
  5
AE
330
AA
100
AcDbEntity
  8
0
  6
Continuous
 62
     0
370
    -2
100
AcDbLine
 10
0.0
 20
0.0833333333333333
 30
0.0
 11
-1.0
 21
0.0833333333333333
 31
0.0
  0
LINE
  5
AF
330
AA
100
AcDbEntity
  8
0
  6
Continuous
 62
     0
370
    -2
100
AcDbLine
 10
0.0
 20
0.1666666666666667
 30
0.0
 11
-1.0
 21
0.1666666666666667
 31
0.0
  0
ENDBLK
  5
AC
330
AA
100
AcDbEntity
  8
0
100
AcDbBlockEnd
  0
BLOCK
  5
B1
330
B0
100
AcDbEntity
  8
0
100
AcDbBlockBegin
  2
FXTIP_WHITEDOT_S
 70
     0
 10
0.0
 20
0.0
 30
0.0
  3
FXTIP_WHITEDOT_S
  1
FXTIP_WHITEDOT_S
  0
LINE
  5
B3
330
B0
100
AcDbEntity
  8
0
  6
Continuous
 62
     0
370
    -2
100
AcDbLine
 10
0.0
 20
0.0
 30
0.0
 11
-1.0
 21
0.0000000000000001
 31
0.0
  0
CIRCLE
  5
B4
330
B0
100
AcDbEntity
  8
0
  6
Continuous
 62
     0
370
    -2
100
AcDbCircle
 10
0.0
 20
0.0
 30
0.0
 40
0.1666666666666667
  0
ENDBLK
  5
B2
330
B0
100
AcDbEntity
  8
0
100
AcDbBlockEnd
  0
BLOCK
  5
B6
330
B5
100
AcDbEntity
  8
0
100
AcDbBlockBegin
  2
FXTIP_WHITEDOT_E
 70
     0
 10
0.0
 20
0.0
 30
0.0
  3
FXTIP_WHITEDOT_E
  1
FXTIP_WHITEDOT_E
  0
LINE
  5
B8
330
B5
100
AcDbEntity
  8
0
  6
Continuous
 62
     0
370
    -2
100
AcDbLine
 10
0.0
 20
0.0
 30
0.0
 11
-1.0
 21
0.0
 31
0.0
  0
CIRCLE
  5
B9
330
B5
100
AcDbEntity
  8
0
  6
Continuous
 62
     0
370
    -2
100
AcDbCircle
 10
0.0
 20
0.0
 30
0.0
 40
0.1666666666666667
  0
ENDBLK
  5
B7
330
B5
100
AcDbEntity
  8
0
100
AcDbBlockEnd
  0
BLOCK
  5
BB
330
BA
100
AcDbEntity
  8
0
100
AcDbBlockBegin
  2
FXTIP_UPARROW_S
 70
     0
 10
0.0
 20
0.0
 30
0.0
  3
FXTIP_UPARROW_S
  1
FXTIP_UPARROW_S
  0
LINE
  5
BD
330
BA
100
AcDbEntity
  8
0
  6
Continuous
 62
     0
370
    -2
100
AcDbLine
 10
0.0
 20
0.0
 30
0.0
 11
-1.0
 21
0.0000000000000001
 31
0.0
  0
LINE
  5
BE
330
BA
100
AcDbEntity
  8
0
  6
Continuous
 62
     0
370
    -2
100
AcDbLine
 10
0.0
 20
0.0
 30
0.0
 11
-0.9914448613738104
 21
-0.1305261922200515
 31
0.0
  0
ENDBLK
  5
BC
330
BA
100
AcDbEntity
  8
0
100
AcDbBlockEnd
  0
BLOCK
  5
C0
330
BF
100
AcDbEntity
  8
0
100
AcDbBlockBegin
  2
FXTIP_UPARROW_E
 70
     0
 10
0.0
 20
0.0
 30
0.0
  3
FXTIP_UPARROW_E
  1
FXTIP_UPARROW_E
  0
LINE
  5
C2
330
BF
100
AcDbEntity
  8
0
  6
Continuous
 62
     0
370
    -2
100
AcDbLine
 10
0.0
 20
0.0
 30
0.0
 11
-1.0
 21
0.0
 31
0.0
  0
LINE
  5
C3
330
BF
100
AcDbEntity
  8
0
  6
Continuous
 62
     0
370
    -2
100
AcDbLine
 10
0.0
 20
0.0
 30
0.0
 11
-0.9914448613738104
 21
0.1305261922200516
 31
0.0
  0
ENDBLK
  5
C1
330
BF
100
AcDbEntity
  8
0
100
AcDbBlockEnd
  0
BLOCK
  5
C5
330
C4
100
AcDbEntity
  8
0
100
AcDbBlockBegin
  2
FXTIP_DOWNARROW_S
 70
     0
 10
0.0
 20
0.0
 30
0.0
  3
FXTIP_DOWNARROW_S
  1
FXTIP_DOWNARROW_S
  0
LINE
  5
C7
330
C4
100
AcDbEntity
  8
0
  6
Continuous
 62
     0
370
    -2
100
AcDbLine
 10
0.0
 20
0.0
 30
0.0
 11
-1.0
 21
0.0000000000000001
 31
0.0
  0
LINE
  5
C8
330
C4
100
AcDbEntity
  8
0
  6
Continuous
 62
     0
370
    -2
100
AcDbLine
 10
0.0
 20
0.0
 30
0.0
 11
-0.9914448613738104
 21
0.1305261922200517
 31
0.0
  0
ENDBLK
  5
C6
330
C4
100
AcDbEntity
  8
0
100
AcDbBlockEnd
  0
BLOCK
  5
CA
330
C9
100
AcDbEntity
  8
0
100
AcDbBlockBegin
  2
FXTIP_DOWNARROW_E
 70
     0
 10
0.0
 20
0.0
 30
0.0
  3
FXTIP_DOWNARROW_E
  1
FXTIP_DOWNARROW_E
  0
LINE
  5
CC
330
C9
100
AcDbEntity
  8
0
  6
Continuous
 62
     0
370
    -2
100
AcDbLine
 10
0.0
 20
0.0
 30
0.0
 11
-1.0
 21
0.0
 31
0.0
  0
LINE
  5
CD
330
C9
100
AcDbEntity
  8
0
  6
Continuous
 62
     0
370
    -2
100
AcDbLine
 10
0.0
 20
0.0
 30
0.0
 11
-0.9914448613738104
 21
-0.1305261922200516
 31
0.0
  0
ENDBLK
  5
CB
330
C9
100
AcDbEntity
  8
0
100
AcDbBlockEnd
  0
BLOCK
  5
CF
330
CE
100
AcDbEntity
  8
0
100
AcDbBlockBegin
  2
FXTIP_BLACKTRIANGLE_S
 70
     0
 10
0.0
 20
0.0
 30
0.0
  3
FXTIP_BLACKTRIANGLE_S
  1
FXTIP_BLACKTRIANGLE_S
  0
LINE
  5
D1
330
CE
100
AcDbEntity
  8
0
  6
Continuous
 62
     0
370
    -2
100
AcDbLine
 10
0.0
 20
0.0
 30
0.0
 11
-1.0
 21
0.0000000000000001
 31
0.0
  0
SOLID
  5
D2
330
CE
100
AcDbEntity
  8
0
  6
Continuous
 62
     0
370
    -2
100
AcDbTrace
 10
0.0
 20
0.0
 30
0.0
 11
-0.9914448613738104
 21
-0.1305261922200515
 31
0.0
 12
-0.9914448613738104
 22
0.1305261922200517
 32
0.0
 13
-0.9914448613738104
 23
0.1305261922200517
 33
0.0
  0
ENDBLK
  5
D0
330
CE
100
AcDbEntity
  8
0
100
AcDbBlockEnd
  0
BLOCK
  5
D4
330
D3
100
AcDbEntity
  8
0
100
AcDbBlockBegin
  2
FXTIP_BLACKTRIANGLE_E
 70
     0
 10
0.0
 20
0.0
 30
0.0
  3
FXTIP_BLACKTRIANGLE_E
  1
FXTIP_BLACKTRIANGLE_E
  0
LINE
  5
D6
330
D3
100
AcDbEntity
  8
0
  6
Continuous
 62
     0
370
    -2
100
AcDbLine
 10
0.0
 20
0.0
 30
0.0
 11
-1.0
 21
0.0
 31
0.0
  0
SOLID
  5
D7
330
D3
100
AcDbEntity
  8
0
  6
Continuous
 62
     0
370
    -2
100
AcDbTrace
 10
0.0
 20
0.0
 30
0.0
 11
-0.9914448613738104
 21
0.1305261922200516
 31
0.0
 12
-0.9914448613738104
 22
-0.1305261922200516
 32
0.0
 13
-0.9914448613738104
 23
-0.1305261922200516
 33
0.0
  0
ENDBLK
  5
D5
330
D3
100
AcDbEntity
  8
0
100
AcDbBlockEnd
  0
BLOCK
  5
DB
330
DA
100
AcDbEntity
  8
0
100
AcDbBlockBegin
  2
BLKF023
 70
     0
 10
0.0
 20
0.0
 30
0.0
  3
BLKF023
  1
BLKF023
  0
LINE
  5
E0
330
DA
100
AcDbEntity
  8
0
  6
ByBlock
 62
     0
370
    -2
100
AcDbLine
 10
378.1731842231843
 20
21.36498917748917
 30
0.0
 11
381.1507275132276
 21
21.36498917748917
 31
0.0
  0
LINE
  5
E1
330
DA
100
AcDbEntity
  8
0
  6
ByBlock
 62
     0
370
    -2
100
AcDbLine
 10
381.9007275132276
 20
21.36498917748917
 30
0.0
 11
382.9007275132276
 21
21.36498917748917
 31
0.0
  0
LINE
  5
E2
330
DA
100
AcDbEntity
  8
0
  6
ByBlock
 62
     0
370
    -2
100
AcDbLine
 10
383.6507275132276
 20
21.36498917748917
 30
0.0
 11
388.9705240595154
 21
21.36498917748917
 31
0.0
  0
LINE
  5
E3
330
DA
100
AcDbEntity
  8
0
  6
ByBlock
 62
     0
370
    -2
100
AcDbLine
 10
389.7205240595154
 20
21.36498917748917
 30
0.0
 11
390.7205240595154
 21
21.36498917748917
 31
0.0
  0
LINE
  5
E4
330
DA
100
AcDbEntity
  8
0
  6
ByBlock
 62
     0
370
    -2
100
AcDbLine
 10
391.4705240595154
 20
21.36498917748917
 30
0.0
 11
394.6709568626509
 21
21.36498917748917
 31
0.0
  0
LINE
  5
E5
330
DA
100
AcDbEntity
  8
0
  6
ByBlock
 62
     0
370
    -2
100
AcDbLine
 10
382.4007275132276
 20
25.59190121142563
 30
0.0
 11
382.4007275132276
 21
22.61498917748917
 31
0.0
  0
LINE
  5
E6
330
DA
100
AcDbEntity
  8
0
  6
ByBlock
 62
     0
370
    -2
100
AcDbLine
 10
382.4007275132276
 20
21.86498917748917
 30
0.0
 11
382.4007275132276
 21
20.86498917748917
 31
0.0
  0
LINE
  5
E7
330
DA
100
AcDbEntity
  8
0
  6
ByBlock
 62
     0
370
    -2
100
AcDbLine
 10
382.4007275132276
 20
20.11498917748917
 30
0.0
 11
382.4007275132276
 21
17.29376533729637
 31
0.0
  0
INSERT
  5
EB
330
DA
100
AcDbEntity
  8
0
  6
ByBlock
 62
     3
370
    40
100
AcDbBlockReference
  2
BLKF024
 10
0.0
 20
0.0
 30
0.0
  0
ENDBLK
  5
DC
330
DA
100
AcDbEntity
  8
0
100
AcDbBlockEnd
  0
BLOCK
  5
E9
330
E8
100
AcDbEntity
  8
0
100
AcDbBlockBegin
  2
BLKF024
 70
     0
 10
0.0
 20
0.0
 30
0.0
  3
BLKF024
  1
BLKF024
  0
CIRCLE
  5
EC
330
E8
100
AcDbEntity
  8
0
  6
ByBlock
 62
     0
370
    -2
100
AcDbCircle
 10
382.4007275132276
 20
21.36498917748917
 30
0.0
 40
3.0
  0
CIRCLE
  5
ED
330
E8
100
AcDbEntity
  8
0
  6
ByBlock
 62
     0
370
    -2
100
AcDbCircle
 10
382.4007275132276
 20
21.36498917748917
 30
0.0
 40
1.8
  0
LINE
  5
EE
330
E8
100
AcDbEntity
  8
0
  6
ByBlock
 62
     0
370
    -2
100
AcDbLine
 10
387.2007275132275
 20
23.16498917748915
 30
0.0
 11
387.2007275132275
 21
19.56498917748916
 31
0.0
  0
LINE
  5
EF
330
E8
100
AcDbEntity
  8
0
  6
ByBlock
 62
     0
370
    -2
100
AcDbLine
 10
393.2007275132275
 20
24.36498917748917
 30
0.0
 11
393.2007275132275
 21
18.36498917748917
 31
0.0
  0
LINE
  5
F0
330
E8
100
AcDbEntity
  8
0
  6
ByBlock
 62
     0
370
    -2
100
AcDbLine
 10
387.2007275132275
 20
23.16498917748915
 30
0.0
 11
393.2007275132275
 21
24.36498917748917
 31
0.0
  0
LINE
  5
F1
330
E8
100
AcDbEntity
  8
0
  6
ByBlock
 62
     0
370
    -2
100
AcDbLine
 10
387.2007275132275
 20
19.56498917748916
 30
0.0
 11
393.2007275132275
 21
18.36498917748917
 31
0.0
  0
ENDBLK
  5
EA
330
E8
100
AcDbEntity
  8
0
100
AcDbBlockEnd
  0
BLOCK
  5
F5
330
F4
100
AcDbEntity
  8
0
100
AcDbBlockBegin
  2
BLKF025
 70
     0
 10
0.0
 20
0.0
 30
0.0
  3
BLKF025
  1
BLKF025
  0
LINE
  5
F9
330
F4
100
AcDbEntity
  8
基準ﾚｲﾔｸﾞﾙｰﾌﾟ_01
  6
一点鎖線
 62
     7
370
    20
100
AcDbLine
 10
236.4382355711641
 20
191.9258335633844
 30
0.0
 11
236.4382355711641
 21
134.084505150093
 31
0.0
  0
LINE
  5
FA
330
F4
100
AcDbEntity
  8
0
  6
ByBlock
 62
     0
370
    -2
100
AcDbLine
 10
241.1882355711641
 20
188.8196495879593
 30
0.0
 11
231.6882355711641
 21
188.8196495879592
 31
0.0
  0
LINE
  5
FB
330
F4
100
AcDbEntity
  8
0
  6
ByBlock
 62
     0
370
    -2
100
AcDbLine
 10
231.6882355711641
 20
138.6196495879593
 30
0.0
 11
241.1882355711641
 21
138.6196495879593
 31
0.0
  0
LINE
  5
FC
330
F4
100
AcDbEntity
  8
0
  6
ByBlock
 62
     0
370
    -2
100
AcDbLine
 10
241.1882355711641
 20
188.8196495879592
 30
0.0
 11
241.1882355711641
 21
138.6196495879591
 31
0.0
  0
LINE
  5
FD
330
F4
100
AcDbEntity
  8
0
  6
ByBlock
 62
     0
370
    -2
100
AcDbLine
 10
231.6882355711641
 20
188.8196495879592
 30
0.0
 11
231.6882355711641
 21
138.6196495879591
 31
0.0
  0
LINE
  5
FE
330
F4
100
AcDbEntity
  8
0
  6
ByBlock
 62
     0
370
    -2
100
AcDbLine
 10
236.038235571164
 20
138.6196495879593
 30
0.0
 11
236.038235571164
 21
138.4696495879593
 31
0.0
  0
LINE
  5
FF
330
F4
100
AcDbEntity
  8
0
  6
ByBlock
 62
     0
370
    -2
100
AcDbLine
 10
236.8382355711641
 20
138.6196495879593
 30
0.0
 11
236.8382355711641
 21
138.4696495879593
 31
0.0
  0
ARC
  5
100
330
F4
100
AcDbEntity
  8
0
  6
ByBlock
 62
     0
370
    -2
100
AcDbCircle
 10
235.6382355711642
 20
138.4696495879593
 30
0.0
 40
0.4
100
AcDbArc
 50
269.9999999999919
 51
0.0000000000040711
  0
ARC
  5
101
330
F4
100
AcDbEntity
  8
0
  6
ByBlock
 62
     0
370
    -2
100
AcDbCircle
 10
235.6382355711642
 20
138.4696495879593
 30
0.0
 40
1.2
100
AcDbArc
 50
270.0
 51
0.0
  0
LINE
  5
102
330
F4
100
AcDbEntity
  8
0
  6
ByBlock
 62
     0
370
    -2
100
AcDbLine
 10
236.038235571164
 20
188.8196495879592
 30
0.0
 11
236.038235571164
 21
188.9696495879593
 31
0.0
  0
LINE
  5
103
330
F4
100
AcDbEntity
  8
0
  6
ByBlock
 62
     0
370
    -2
100
AcDbLine
 10
236.8382355711641
 20
188.8196495879592
 30
0.0
 11
236.8382355711641
 21
188.9696495879593
 31
0.0
  0
ARC
  5
104
330
F4
100
AcDbEntity
  8
0
  6
ByBlock
 62
     0
370
    -2
100
AcDbCircle
 10
235.6382355711642
 20
188.9696495879593
 30
0.0
 40
0.4
100
AcDbArc
 50
359.9999999999959
 51
90.00000000000813
  0
ARC
  5
105
330
F4
100
AcDbEntity
  8
0
  6
ByBlock
 62
     0
370
    -2
100
AcDbCircle
 10
235.6382355711642
 20
188.9696495879593
 30
0.0
 40
1.2
100
AcDbArc
 50
0.0
 51
90.0
  0
LINE
  5
106
330
F4
100
AcDbEntity
  8
0
  6
ByBlock
 62
     0
370
    -2
100
AcDbLine
 10
236.038235571164
 20
188.8196495879592
 30
0.0
 11
236.038235571164
 21
188.9696495879593
 31
0.0
  0
LINE
  5
107
330
F4
100
AcDbEntity
  8
0
  6
ByBlock
 62
     0
370
    -2
100
AcDbLine
 10
236.8382355711641
 20
188.8196495879592
 30
0.0
 11
236.8382355711641
 21
188.9696495879593
 31
0.0
  0
ARC
  5
108
330
F4
100
AcDbEntity
  8
0
  6
ByBlock
 62
     0
370
    -2
100
AcDbCircle
 10
235.6382355711642
 20
188.9696495879593
 30
0.0
 40
0.4
100
AcDbArc
 50
359.9999999999959
 51
90.00000000000813
  0
ARC
  5
109
330
F4
100
AcDbEntity
  8
0
  6
ByBlock
 62
     0
370
    -2
100
AcDbCircle
 10
235.6382355711642
 20
188.9696495879593
 30
0.0
 40
1.2
100
AcDbArc
 50
0.0
 51
90.0
  0
HATCH
  5
10A
330
F4
100
AcDbEntity
  8
0
  6
ByBlock
 62
     7
370
    20
100
AcDbHatch
 10
0.0
 20
0.0
 30
0.0
210
0.0
220
0.0
230
1.0
  2
_USER
 70
     0
 71
     0
 91
        4
 92
        0
 93
       16
 72
     1
 10
236.9882918902305
 20
138.0358243291409
 11
237.0083800810853
 21
138.0589859793342
 72
     1
 10
237.0083800810855
 20
138.0589859793346
 11
237.0268068532664
 21
138.0825479913944
 72
     1
 10
237.0268068532664
 20
138.0825479913946
 11
237.0435722067739
 21
138.1065103653208
 72
     1
 10
237.0435722067739
 20
138.106510365321
 11
237.0586761416075
 21
138.1308731011133
 72
     1
 10
237.058676141608
 20
138.1308731011137
 11
237.072118657769
 21
138.1556361987738
 72
     1
 10
237.0721186577686
 20
138.1556361987731
 11
237.0838997552555
 21
138.1807996582983
 72
     1
 10
237.0838997552557
 20
138.1807996582988
 11
237.0940194340699
 21
138.2063634796911
 72
     1
 10
237.0940194340694
 20
138.2063634796911
 11
237.2382355711642
 21
138.6196495879591
 72
     1
 10
237.2382355711642
 20
138.6196495879591
 11
236.8382355711641
 21
138.6196495879593
 72
     1
 10
236.8382355711641
 20
138.6196495879593
 11
236.8382355711641
 21
137.9089658652275
 72
     1
 10
236.8382355711641
 20
137.9089658652275
 11
236.862929655856
 21
137.926021506169
 72
     1
 10
236.862929655857
 20
137.9260215061696
 11
236.8913249400803
 21
137.9471813470308
 72
     1
 10
236.8913249400787
 20
137.947181347031
 11
236.9180588056274
 21
137.9687415497591
 72
     1
 10
236.918058805627
 20
137.9687415497589
 11
236.9431312525019
 21
137.9907021143526
 72
     1
 10
236.9431312525018
 20
137.990702114353
 11
236.966542280702
 21
138.0130630408129
 72
     1
 10
236.9665422807032
 20
138.0130630408138
 11
236.9882918902305
 21
138.0358243291409
 97
        0
 92
        0
 93
       20
 72
     1
 10
236.6666627730092
 20
137.80998210206
 11
236.6989689716687
 21
137.8270479884283
 72
     1
 10
236.6989689716664
 20
137.8270479884269
 11
236.7329178958005
 21
137.8454370275494
 72
     1
 10
236.7329178957993
 20
137.8454370275487
 11
236.7677752911509
 21
137.8649441547833
 72
     1
 10
236.7677752911511
 20
137.8649441547838
 11
236.8011548313932
 21
137.8849029100449
 72
     1
 10
236.8011548313932
 20
137.884902910046
 11
236.8328729529613
 21
137.9052620271742
 72
     1
 10
236.8328729529618
 20
137.9052620271745
 11
236.8382355711641
 21
137.9089658652275
 72
     1
 10
236.8382355711641
 20
137.9089658652275
 11
236.838235571164
 21
138.6196495879593
 72
     1
 10
236.838235571164
 20
138.6196495879593
 11
236.4382355711641
 21
138.6196495879591
 72
     1
 10
236.4382355711641
 20
138.6196495879591
 11
236.4382355711641
 21
137.7131313297536
 72
     1
 10
236.4382355711641
 20
137.7131313297536
 11
236.4498296314059
 21
137.7159309987545
 72
     1
 10
236.4498296314057
 20
137.7159309987548
 11
236.4673513007994
 21
137.7210885103231
 72
     1
 10
236.467351300799
 20
137.7210885103226
 11
236.4865156956671
 21
137.7275691746462
 72
     1
 10
236.4865156956662
 20
137.727569174646
 11
236.5073228160081
 21
137.7353729917246
 72
     1
 10
236.5073228160074
 20
137.7353729917249
 11
236.5297726618228
 21
137.7444999615583
 72
     1
 10
236.5297726618226
 20
137.744499961559
 11
236.5538652331106
 21
137.7549500841482
 72
     1
 10
236.5538652331117
 20
137.7549500841484
 11
236.5796005298731
 21
137.7667233594927
 72
     1
 10
236.5796005298746
 20
137.7667233594933
 11
236.6069785521117
 21
137.7798197875944
 72
     1
 10
236.6069785521117
 20
137.7798197875938
 11
236.6359992998263
 21
137.7942393684506
 72
     1
 10
236.6359992998226
 20
137.7942393684495
 11
236.6505311517599
 21
137.8017000716954
 72
     1
 10
236.6505311517599
 20
137.8017000716954
 11
236.6666627730092
 21
137.80998210206
 97
        0
 92
        0
 93
       26
 72
     1
 10
236.283793843912
 20
137.7399779986999
 11
236.3024866615627
 21
137.7335556837139
 72
     1
 10
236.3024866615619
 20
137.7335556837142
 11
236.3198387969793
 21
137.7278425205538
 72
     1
 10
236.3198387969804
 20
137.7278425205533
 11
236.3358502501669
 21
137.7228385092177
 72
     1
 10
236.3358502501665
 20
137.722838509218
 11
236.3505210211197
 21
137.7185436497079
 72
     1
 10
236.3505210211199
 20
137.7185436497079
 11
236.3638511098405
 21
137.7149579420231
 72
     1
 10
236.3638511098409
 20
137.7149579420228
 11
236.3758405163288
 21
137.7120813861635
 72
     1
 10
236.3758405163293
 20
137.7120813861633
 11
236.3864892405854
 21
137.7099139821291
 72
     1
 10
236.3864892405853
 20
137.7099139821293
 11
236.3961702085722
 21
137.7085324800366
 72
     1
 10
236.3961702085721
 20
137.7085324800366
 11
236.4071209760693
 21
137.7083973805831
 72
     1
 10
236.4071209760696
 20
137.7083973805831
 11
236.4197144690409
 21
137.7095854338849
 72
     1
 10
236.419714469041
 20
137.7095854338849
 11
236.4339506874865
 21
137.712096639942
 72
     1
 10
236.4339506874863
 20
137.7120966399422
 11
236.4382355711641
 21
137.7131313297536
 72
     1
 10
236.4382355711641
 20
137.7131313297536
 11
236.438235571164
 21
138.6196495879593
 72
     1
 10
236.438235571164
 20
138.6196495879593
 11
236.0382355711641
 21
138.6196495879593
 72
     1
 10
236.0382355711641
 20
138.6196495879593
 11
236.038235571164
 21
137.8382467717194
 72
     1
 10
236.038235571164
 20
137.8382467717194
 11
236.05583851069
 21
137.8297675866847
 72
     1
 10
236.0558385106897
 20
137.8297675866849
 11
236.0859867423335
 21
137.816885984301
 72
     1
 10
236.0859867423343
 20
137.8168859843005
 11
236.1154050178451
 21
137.8047904547119
 72
     1
 10
236.1154050178451
 20
137.8047904547119
 11
236.1434826111215
 21
137.7934040769493
 72
     1
 10
236.1434826111233
 20
137.7934040769486
 11
236.1702195221674
 21
137.7827268510113
 72
     1
 10
236.1702195221692
 20
137.7827268510106
 11
236.1956157509842
 21
137.7727587768974
 72
     1
 10
236.1956157509826
 20
137.7727587768979
 11
236.2196712975652
 21
137.7634998546099
 72
     1
 10
236.2196712975634
 20
137.7634998546106
 11
236.242386161912
 21
137.7549500841484
 72
     1
 10
236.2423861619118
 20
137.7549500841484
 11
236.263760344028
 21
137.7471094655117
 72
     1
 10
236.2637603440277
 20
137.7471094655117
 11
236.263867477167
 21
137.7470713285694
 72
     1
 10
236.263867477167
 20
137.7470713285694
 11
236.283793843912
 21
137.7399779986999
 97
        0
 92
        0
 93
       34
 72
     1
 10
235.8831445044364
 20
137.9493524850483
 11
235.9035923211231
 21
137.9291030395633
 72
     1
 10
235.9035923211226
 20
137.9291030395636
 11
235.9254477230209
 21
137.9099088902707
 72
     1
 10
235.9254477230209
 20
137.9099088902709
 11
235.9487107101311
 21
137.89177003717
 72
     1
 10
235.948710710131
 20
137.89177003717
 11
235.9733812824536
 21
137.8746864802607
 72
     1
 10
235.9733812824529
 20
137.874686480261
 11
235.9994594399869
 21
137.8586582195436
 72
     1
 10
235.9994594399867
 20
137.8586582195439
 11
236.0269451827321
 21
137.8436852550184
 72
     1
 10
236.0269451827323
 20
137.8436852550184
 11
236.0382355711641
 21
137.8382467717194
 72
     1
 10
236.0382355711641
 20
137.8382467717194
 11
236.038235571164
 21
138.6196495879593
 72
     1
 10
236.038235571164
 20
138.6196495879593
 11
235.6382355711642
 21
138.6196495879593
 72
     1
 10
235.6382355711642
 20
138.6196495879593
 11
235.6464843160148
 21
138.5902542421456
 72
     1
 10
235.6464843160148
 20
138.5902542421456
 11
235.6547330608655
 21
138.5608588963318
 72
     1
 10
235.6547330608655
 20
138.5608588963318
 11
235.6629818057162
 21
138.531463550518
 72
     1
 10
235.6629818057162
 20
138.531463550518
 11
235.671230550567
 21
138.5020682047042
 72
     1
 10
235.671230550567
 20
138.5020682047042
 11
235.6794792954177
 21
138.4726728588904
 72
     1
 10
235.6794792954177
 20
138.4726728588904
 11
235.6877280402683
 21
138.4432775130767
 72
     1
 10
235.6877280402683
 20
138.4432775130767
 11
235.695976785119
 21
138.4138821672629
 72
     1
 10
235.695976785119
 20
138.4138821672629
 11
235.7042255299697
 21
138.3844868214491
 72
     1
 10
235.7042255299697
 20
138.3844868214491
 11
235.7124742748204
 21
138.3550914756353
 72
     1
 10
235.7124742748204
 20
138.3550914756353
 11
235.7207230196711
 21
138.3256961298215
 72
     1
 10
235.7207230196711
 20
138.3256961298215
 11
235.7289717645217
 21
138.2963007840077
 72
     1
 10
235.7289717645217
 20
138.2963007840077
 11
235.7372205093725
 21
138.266905438194
 72
     1
 10
235.7372205093725
 20
138.266905438194
 11
235.7454692542231
 21
138.2375100923802
 72
     1
 10
235.7454692542231
 20
138.2375100923802
 11
235.7537179990738
 21
138.2081147465664
 72
     1
 10
235.7537179990738
 20
138.2081147465664
 11
235.7619667439233
 21
138.1787194007219
 72
     1
 10
235.7619667439246
 20
138.1787194007526
 11
235.7702350385696
 21
138.149338711832
 72
     1
 10
235.7702350385698
 20
138.1493387118304
 11
235.779422173562
 21
138.120646896812
 72
     1
 10
235.7794221735618
 20
138.1206468968113
 11
235.790016893765
 21
138.0930103779848
 72
     1
 10
235.7900168937655
 20
138.0930103779839
 11
235.8020191991814
 21
138.0664291553475
 72
     1
 10
235.802019199181
 20
138.0664291553484
 11
235.8154290898083
 21
138.0409032289053
 72
     1
 10
235.8154290898084
 20
138.0409032289046
 11
235.8302465656479
 21
138.0164325986526
 72
     1
 10
235.8302465656476
 20
138.0164325986526
 11
235.8464716266981
 21
137.9930172645931
 72
     1
 10
235.8464716266985
 20
137.9930172645926
 11
235.8641042729623
 21
137.9706572267241
 72
     1
 10
235.8641042729614
 20
137.9706572267245
 11
235.8664631449465
 21
137.9680178072219
 72
     1
 10
235.8664631449465
 20
137.9680178072219
 11
235.8831445044364
 21
137.9493524850483
 97
        0
 75
     0
 76
     0
 52
90.0
 41
0.1
 77
     0
 78
     1
 53
90.0
 43
0.0
 44
0.0
 45
-0.1
 46
0.0
 79
     0
 98
        0
  0
HATCH
  5
10B
330
F4
100
AcDbEntity
  8
0
  6
ByBlock
 62
     7
370
    20
100
AcDbHatch
 10
0.0
 20
0.0
 30
0.0
210
0.0
220
0.0
230
1.0
  2
_USER
 70
     0
 71
     0
 91
        4
 92
        0
 93
       16
 72
     1
 10
236.9882918902305
 20
189.4034748467776
 11
237.0083800810853
 21
189.3803131965844
 72
     1
 10
237.0083800810855
 20
189.3803131965839
 11
237.0268068532664
 21
189.3567511845241
 72
     1
 10
237.0268068532664
 20
189.3567511845239
 11
237.0435722067739
 21
189.3327888105977
 72
     1
 10
237.0435722067739
 20
189.3327888105975
 11
237.0586761416075
 21
189.3084260748052
 72
     1
 10
237.058676141608
 20
189.3084260748047
 11
237.072118657769
 21
189.2836629771447
 72
     1
 10
237.0721186577686
 20
189.2836629771454
 11
237.0838997552555
 21
189.2584995176202
 72
     1
 10
237.0838997552557
 20
189.2584995176198
 11
237.0940194340699
 21
189.2329356962274
 72
     1
 10
237.0940194340694
 20
189.2329356962274
 11
237.2382355711642
 21
188.8196495879593
 72
     1
 10
237.2382355711642
 20
188.8196495879593
 11
236.8382355711641
 21
188.8196495879592
 72
     1
 10
236.8382355711641
 20
188.8196495879592
 11
236.8382355711641
 21
189.530333310691
 72
     1
 10
236.8382355711641
 20
189.530333310691
 11
236.862929655856
 21
189.5132776697496
 72
     1
 10
236.862929655857
 20
189.5132776697489
 11
236.8913249400803
 21
189.4921178288877
 72
     1
 10
236.8913249400787
 20
189.4921178288875
 11
236.9180588056274
 21
189.4705576261594
 72
     1
 10
236.918058805627
 20
189.4705576261596
 11
236.9431312525019
 21
189.4485970615659
 72
     1
 10
236.9431312525018
 20
189.4485970615655
 11
236.966542280702
 21
189.4262361351056
 72
     1
 10
236.9665422807032
 20
189.4262361351047
 11
236.9882918902305
 21
189.4034748467776
 97
        0
 92
        0
 93
       20
 72
     1
 10
236.6666627730092
 20
189.6293170738585
 11
236.6989689716687
 21
189.6122511874902
 72
     1
 10
236.6989689716664
 20
189.6122511874916
 11
236.7329178958005
 21
189.5938621483691
 72
     1
 10
236.7329178957993
 20
189.5938621483698
 11
236.7677752911509
 21
189.5743550211352
 72
     1
 10
236.7677752911511
 20
189.5743550211347
 11
236.8011548313932
 21
189.5543962658736
 72
     1
 10
236.8011548313932
 20
189.5543962658725
 11
236.8328729529613
 21
189.5340371487443
 72
     1
 10
236.8328729529618
 20
189.534037148744
 11
236.8382355711641
 21
189.530333310691
 72
     1
 10
236.8382355711641
 20
189.530333310691
 11
236.838235571164
 21
188.8196495879592
 72
     1
 10
236.838235571164
 20
188.8196495879592
 11
236.4382355711641
 21
188.8196495879593
 72
     1
 10
236.4382355711641
 20
188.8196495879593
 11
236.4382355711641
 21
189.7261678461649
 72
     1
 10
236.4382355711641
 20
189.7261678461649
 11
236.4498296314059
 21
189.7233681771638
 72
     1
 10
236.4498296314057
 20
189.7233681771637
 11
236.4673513007994
 21
189.7182106655954
 72
     1
 10
236.467351300799
 20
189.7182106655958
 11
236.4865156956671
 21
189.7117300012723
 72
     1
 10
236.4865156956662
 20
189.7117300012724
 11
236.5073228160081
 21
189.7039261841939
 72
     1
 10
236.5073228160074
 20
189.7039261841936
 11
236.5297726618228
 21
189.6947992143602
 72
     1
 10
236.5297726618226
 20
189.6947992143595
 11
236.5538652331106
 21
189.6843490917703
 72
     1
 10
236.5538652331117
 20
189.68434909177
 11
236.5796005298731
 21
189.6725758164258
 72
     1
 10
236.5796005298746
 20
189.6725758164251
 11
236.6069785521117
 21
189.6594793883239
 72
     1
 10
236.6069785521117
 20
189.6594793883247
 11
236.6359992998263
 21
189.6450598074679
 72
     1
 10
236.6359992998226
 20
189.645059807469
 11
236.6505311517599
 21
189.6375991042231
 72
     1
 10
236.6505311517599
 20
189.6375991042231
 11
236.6666627730092
 21
189.6293170738585
 97
        0
 92
        0
 93
       26
 72
     1
 10
236.283793843912
 20
189.6993211772186
 11
236.3024866615627
 21
189.7057434922046
 72
     1
 10
236.3024866615619
 20
189.7057434922043
 11
236.3198387969793
 21
189.7114566553647
 72
     1
 10
236.3198387969804
 20
189.7114566553651
 11
236.3358502501669
 21
189.7164606667007
 72
     1
 10
236.3358502501665
 20
189.7164606667006
 11
236.3505210211197
 21
189.7207555262106
 72
     1
 10
236.3505210211199
 20
189.7207555262106
 11
236.3638511098405
 21
189.7243412338954
 72
     1
 10
236.3638511098409
 20
189.7243412338957
 11
236.3758405163288
 21
189.727217789755
 72
     1
 10
236.3758405163293
 20
189.7272177897552
 11
236.3864892405854
 21
189.7293851937895
 72
     1
 10
236.3864892405853
 20
189.7293851937892
 11
236.3961702085722
 21
189.730766695882
 72
     1
 10
236.3961702085721
 20
189.730766695882
 11
236.4071209760693
 21
189.7309017953354
 72
     1
 10
236.4071209760696
 20
189.7309017953354
 11
236.4197144690409
 21
189.7297137420336
 72
     1
 10
236.419714469041
 20
189.7297137420336
 11
236.4339506874865
 21
189.7272025359765
 72
     1
 10
236.4339506874863
 20
189.7272025359763
 11
236.4382355711641
 21
189.7261678461649
 72
     1
 10
236.4382355711641
 20
189.7261678461649
 11
236.438235571164
 21
188.8196495879592
 72
     1
 10
236.438235571164
 20
188.8196495879592
 11
236.0382355711641
 21
188.8196495879592
 72
     1
 10
236.0382355711641
 20
188.8196495879592
 11
236.038235571164
 21
189.6010524041991
 72
     1
 10
236.038235571164
 20
189.6010524041991
 11
236.05583851069
 21
189.6095315892339
 72
     1
 10
236.0558385106897
 20
189.6095315892336
 11
236.0859867423335
 21
189.6224131916175
 72
     1
 10
236.0859867423343
 20
189.622413191618
 11
236.1154050178451
 21
189.6345087212066
 72
     1
 10
236.1154050178451
 20
189.6345087212066
 11
236.1434826111215
 21
189.6458950989691
 72
     1
 10
236.1434826111233
 20
189.6458950989699
 11
236.1702195221674
 21
189.6565723249072
 72
     1
 10
236.1702195221692
 20
189.6565723249079
 11
236.1956157509842
 21
189.6665403990211
 72
     1
 10
236.1956157509826
 20
189.6665403990206
 11
236.2196712975652
 21
189.6757993213086
 72
     1
 10
236.2196712975634
 20
189.6757993213079
 11
236.242386161912
 21
189.6843490917701
 72
     1
 10
236.2423861619118
 20
189.6843490917701
 11
236.263760344028
 21
189.6921897104068
 72
     1
 10
236.2637603440277
 20
189.6921897104068
 11
236.263867477167
 21
189.692227847349
 72
     1
 10
236.263867477167
 20
189.692227847349
 11
236.283793843912
 21
189.6993211772186
 97
        0
 92
        0
 93
       34
 72
     1
 10
235.8831445044364
 20
189.4899466908702
 11
235.9035923211231
 21
189.5101961363552
 72
     1
 10
235.9035923211226
 20
189.5101961363549
 11
235.9254477230209
 21
189.5293902856478
 72
     1
 10
235.9254477230209
 20
189.5293902856476
 11
235.9487107101311
 21
189.5475291387485
 72
     1
 10
235.948710710131
 20
189.5475291387485
 11
235.9733812824536
 21
189.5646126956578
 72
     1
 10
235.9733812824529
 20
189.5646126956575
 11
235.9994594399869
 21
189.5806409563748
 72
     1
 10
235.9994594399867
 20
189.5806409563747
 11
236.0269451827321
 21
189.5956139209001
 72
     1
 10
236.0269451827323
 20
189.5956139209001
 11
236.0382355711641
 21
189.6010524041991
 72
     1
 10
236.0382355711641
 20
189.6010524041991
 11
236.038235571164
 21
188.8196495879592
 72
     1
 10
236.038235571164
 20
188.8196495879592
 11
235.6382355711642
 21
188.8196495879592
 72
     1
 10
235.6382355711642
 20
188.8196495879592
 11
235.6464843160148
 21
188.8490449337729
 72
     1
 10
235.6464843160148
 20
188.8490449337729
 11
235.6547330608655
 21
188.8784402795867
 72
     1
 10
235.6547330608655
 20
188.8784402795867
 11
235.6629818057162
 21
188.9078356254005
 72
     1
 10
235.6629818057162
 20
188.9078356254005
 11
235.671230550567
 21
188.9372309712143
 72
     1
 10
235.671230550567
 20
188.9372309712143
 11
235.6794792954177
 21
188.9666263170281
 72
     1
 10
235.6794792954177
 20
188.9666263170281
 11
235.6877280402683
 21
188.9960216628419
 72
     1
 10
235.6877280402683
 20
188.9960216628419
 11
235.695976785119
 21
189.0254170086556
 72
     1
 10
235.695976785119
 20
189.0254170086556
 11
235.7042255299697
 21
189.0548123544694
 72
     1
 10
235.7042255299697
 20
189.0548123544694
 11
235.7124742748204
 21
189.0842077002832
 72
     1
 10
235.7124742748204
 20
189.0842077002832
 11
235.7207230196711
 21
189.113603046097
 72
     1
 10
235.7207230196711
 20
189.113603046097
 11
235.7289717645217
 21
189.1429983919108
 72
     1
 10
235.7289717645217
 20
189.1429983919108
 11
235.7372205093725
 21
189.1723937377245
 72
     1
 10
235.7372205093725
 20
189.1723937377245
 11
235.7454692542231
 21
189.2017890835383
 72
     1
 10
235.7454692542231
 20
189.2017890835383
 11
235.7537179990738
 21
189.2311844293521
 72
     1
 10
235.7537179990738
 20
189.2311844293521
 11
235.7619667439233
 21
189.2605797751966
 72
     1
 10
235.7619667439246
 20
189.2605797751659
 11
235.7702350385696
 21
189.2899604640865
 72
     1
 10
235.7702350385698
 20
189.2899604640881
 11
235.779422173562
 21
189.3186522791065
 72
     1
 10
235.7794221735618
 20
189.3186522791072
 11
235.790016893765
 21
189.3462887979337
 72
     1
 10
235.7900168937655
 20
189.3462887979346
 11
235.8020191991814
 21
189.372870020571
 72
     1
 10
235.802019199181
 20
189.3728700205701
 11
235.8154290898083
 21
189.3983959470133
 72
     1
 10
235.8154290898084
 20
189.3983959470139
 11
235.8302465656479
 21
189.4228665772659
 72
     1
 10
235.8302465656476
 20
189.4228665772658
 11
235.8464716266981
 21
189.4462819113254
 72
     1
 10
235.8464716266985
 20
189.4462819113259
 11
235.8641042729623
 21
189.4686419491944
 72
     1
 10
235.8641042729614
 20
189.468641949194
 11
235.8664631449465
 21
189.4712813686967
 72
     1
 10
235.8664631449465
 20
189.4712813686967
 11
235.8831445044364
 21
189.4899466908702
 97
        0
 75
     0
 76
     0
 52
90.0
 41
0.1
 77
     0
 78
     1
 53
90.0
 43
0.0
 44
0.0
 45
-0.1
 46
0.0
 79
     0
 98
        0
  0
LINE
  5
10C
330
F4
100
AcDbEntity
  8
0
  6
ByBlock
 62
     0
370
    -2
100
AcDbLine
 10
230.5018652406485
 20
164.6396545879592
 30
0.0
 11
227.6882355711641
 21
164.6396545879592
 31
0.0
  0
LINE
  5
10D
330
F4
100
AcDbEntity
  8
0
  6
ByBlock
 62
     0
370
    -2
100
AcDbLine
 10
230.4736442963205
 20
163.8396545879594
 30
0.0
 11
227.6882355711641
 21
163.8396545879592
 31
0.0
  0
ARC
  5
10E
330
F4
100
AcDbEntity
  8
0
  6
ByBlock
 62
     0
370
    -2
100
AcDbCircle
 10
230.5018652406485
 20
165.0396545879592
 30
0.0
 40
0.4
100
AcDbArc
 50
270.0
 51
345.0000000000043
  0
ARC
  5
10F
330
F4
100
AcDbEntity
  8
0
  6
ByBlock
 62
     0
370
    -2
100
AcDbCircle
 10
230.4736442963205
 20
165.0396545879593
 30
0.0
 40
1.2
100
AcDbArc
 50
270.0
 51
344.9999999999998
  0
ARC
  5
110
330
F4
100
AcDbEntity
  8
0
  6
ByBlock
 62
     0
370
    -2
100
AcDbCircle
 10
230.4736442963203
 20
159.4796545879592
 30
0.0
 40
1.2
100
AcDbArc
 50
14.02060803031949
 51
90.0
  0
ARC
  5
111
330
F4
100
AcDbEntity
  8
0
  6
ByBlock
 62
     0
370
    -2
100
AcDbCircle
 10
230.5018652406485
 20
159.4796545879593
 30
0.0
 40
0.4
100
AcDbArc
 50
14.99999999999571
 51
90.0
  0
LINE
  5
112
330
F4
100
AcDbEntity
  8
0
  6
ByBlock
 62
     0
370
    -2
100
AcDbLine
 10
227.6882355711641
 20
159.8796545879594
 30
0.0
 11
230.5018652406485
 21
159.8796545879594
 31
0.0
  0
LINE
  5
113
330
F4
100
AcDbEntity
  8
0
  6
ByBlock
 62
     0
370
    -2
100
AcDbLine
 10
227.688235571164
 20
160.6796545879594
 30
0.0
 11
230.4736442963203
 21
160.6796545879594
 31
0.0
  0
LINE
  5
114
330
F4
100
AcDbEntity
  8
0
  6
ByBlock
 62
     0
370
    -2
100
AcDbLine
 10
231.6882355711641
 20
188.819649587959
 30
0.0
 11
230.8882339972796
 21
164.9361270226371
 31
0.0
  0
LINE
  5
115
330
F4
100
AcDbEntity
  8
0
  6
ByBlock
 62
     0
370
    -2
100
AcDbLine
 10
231.6882355711641
 20
138.6196495879593
 30
0.0
 11
230.8882366062915
 21
159.5831822455023
 31
0.0
  0
LINE
  5
116
330
F4
100
AcDbEntity
  8
0
  6
ByBlock
 62
     0
370
    -2
100
AcDbLine
 10
232.4451001823867
 20
138.6180035181468
 30
0.0
 11
232.4450373659632
 21
138.6196495879593
 31
0.0
  0
LINE
  5
117
330
F4
100
AcDbEntity
  8
0
  6
ByBlock
 62
     0
370
    -2
100
AcDbLine
 10
231.6882355711641
 20
158.45122417391
 30
0.0
 11
231.6378946757636
 21
159.7703796367015
 31
0.0
  0
LINE
  5
118
330
F4
100
AcDbEntity
  8
0
  6
ByBlock
 62
     0
370
    -2
100
AcDbLine
 10
231.6882355711641
 20
166.3853992228115
 30
0.0
 11
231.6327552878673
 21
164.7290717338363
 31
0.0
  0
SPLINE
  5
119
330
F4
100
AcDbEntity
  8
0
  6
ByBlock
 62
     0
370
    -2
100
AcDbSpline
210
0.0
220
0.0
230
1.0
 70
     8
 71
     2
 72
    11
 73
     8
 74
     0
 42
0.000000001
 43
0.0000000001
 40
0.0
 40
0.0
 40
0.0
 40
1.0
 40
2.0
 40
3.0
 40
4.0
 40
5.0
 40
6.0
 40
6.0
 40
6.0
 10
237.2382355711642
 20
138.6196495879593
 30
0.0
 10
237.1668900457769
 20
138.4151563143097
 30
0.0
 10
237.0241989950023
 20
138.0061697670104
 30
0.0
 10
236.4649995128956
 20
137.6975517153927
 30
0.0
 10
236.3176221808567
 20
137.7206407087005
 30
0.0
 10
235.8341432613681
 20
137.9215101248823
 30
0.0
 10
235.7035381345654
 20
138.3869364336003
 30
0.0
 10
235.6382355711642
 20
138.6196495879593
 30
0.0
  0
SPLINE
  5
11A
330
F4
100
AcDbEntity
  8
0
  6
ByBlock
 62
     0
370
    -2
100
AcDbSpline
210
0.0
220
0.0
230
1.0
 70
     8
 71
     2
 72
    11
 73
     8
 74
     0
 42
0.000000001
 43
0.0000000001
 40
0.0
 40
0.0
 40
0.0
 40
1.0
 40
2.0
 40
3.0
 40
4.0
 40
5.0
 40
6.0
 40
6.0
 40
6.0
 10
237.2382355711642
 20
188.8196495879592
 30
0.0
 10
237.1668900457769
 20
189.0241428616088
 30
0.0
 10
237.0241989950023
 20
189.4331294089081
 30
0.0
 10
236.4649995128956
 20
189.7417474605258
 30
0.0
 10
236.3176221808567
 20
189.718658467218
 30
0.0
 10
235.8341432613681
 20
189.5177890510362
 30
0.0
 10
235.7035381345654
 20
189.0523627423183
 30
0.0
 10
235.6382355711642
 20
188.8196495879592
 30
0.0
  0
SPLINE
  5
11B
330
F4
100
AcDbEntity
  8
0
  6
ByBlock
 62
     0
370
    -2
100
AcDbSpline
210
0.0
220
0.0
230
1.0
 70
     8
 71
     2
 72
    11
 73
     8
 74
     0
 42
0.000000001
 43
0.0000000001
 40
0.0
 40
0.0
 40
0.0
 40
1.0
 40
2.0
 40
3.0
 40
4.0
 40
5.0
 40
6.0
 40
6.0
 40
6.0
 10
231.6882355711642
 20
188.8196495879592
 30
0.0
 10
231.8455853186092
 20
189.1011291538914
 30
0.0
 10
232.1602848134992
 20
189.6640882857562
 30
0.0
 10
233.0817002871022
 20
189.9803418394029
 30
0.0
 10
233.8864380804964
 20
190.0705568096243
 30
0.0
 10
235.116941266236
 20
190.1686845437579
 30
0.0
 10
235.4644708028547
 20
190.1693279065588
 30
0.0
 10
235.6382355711642
 20
190.1696495879593
 30
0.0
  0
SPLINE
  5
11C
330
F4
100
AcDbEntity
  8
0
  6
ByBlock
 62
     0
370
    -2
100
AcDbSpline
210
0.0
220
0.0
230
1.0
 70
     8
 71
     2
 72
    10
 73
     7
 74
     0
 42
0.000000001
 43
0.0000000001
 40
0.0
 40
0.0
 40
0.0
 40
1.0
 40
2.0
 40
3.0
 40
4.0
 40
5.0
 40
5.0
 40
5.0
 10
232.4882355711641
 20
188.8196495879592
 30
0.0
 10
232.6156652057103
 20
188.9737344689795
 30
0.0
 10
232.8705244748028
 20
189.2819042310204
 30
0.0
 10
233.8628448961874
 20
189.4430944147229
 30
0.0
 10
234.4104474492794
 20
189.466109191577
 30
0.0
 10
235.2289728638691
 20
189.4018027891651
 30
0.0
 10
235.638235571164
 20
189.3696495879592
 30
0.0
  0
SPLINE
  5
11D
330
F4
100
AcDbEntity
  8
0
  6
ByBlock
 62
     0
370
    -2
100
AcDbSpline
210
0.0
220
0.0
230
1.0
 70
     8
 71
     2
 72
     9
 73
     6
 74
     0
 42
0.000000001
 43
0.0000000001
 40
0.0
 40
0.0
 40
0.0
 40
1.0
 40
2.0
 40
3.0
 40
4.0
 40
4.0
 40
4.0
 10
231.6882355711641
 20
138.6196495879593
 30
0.0
 10
231.9239827160186
 20
138.3732024829423
 30
0.0
 10
232.3954770057273
 20
137.8803082729081
 30
0.0
 10
233.5107622622879
 20
137.3412145338208
 30
0.0
 10
234.9290778015387
 20
137.2935045699129
 30
0.0
 10
235.6382355711642
 20
137.2696495879592
 30
0.0
  0
SPLINE
  5
11E
330
F4
100
AcDbEntity
  8
0
  6
ByBlock
 62
     0
370
    -2
100
AcDbSpline
210
0.0
220
0.0
230
1.0
 70
     8
 71
     2
 72
     9
 73
     6
 74
     0
 42
0.000000001
 43
0.0000000001
 40
1.825912176253826
 40
1.825912176253826
 40
1.825912176253826
 40
2.0
 40
3.0
 40
4.0
 40
5.0
 40
5.0
 40
5.0
 10
232.5940320368704
 20
138.6196495879987
 30
0.0
 10
232.6356556774238
 20
138.5615314208332
 30
0.0
 10
232.9135146860024
 20
138.324269324843
 30
0.0
 10
234.3132939048045
 20
137.9437198553561
 30
0.0
 10
235.1965883490442
 20
138.0276730104248
 30
0.0
 10
235.638235571164
 20
138.0696495879592
 30
0.0
  0
ENDBLK
  5
F6
330
F4
100
AcDbEntity
  8
0
100
AcDbBlockEnd
  0
BLOCK
  5
120
330
11F
100
AcDbEntity
  8
0
100
AcDbBlockBegin
  2
BLKF026
 70
     0
 10
0.0
 20
0.0
 30
0.0
  3
BLKF026
  1
BLKF026
  0
INSERT
  5
126
330
11F
100
AcDbEntity
  8
0
  6
ByBlock
 62
     0
370
    -2
100
AcDbBlockReference
  2
BLKF027
 10
0.0
 20
0.0
 30
0.0
  0
CIRCLE
  5
1A2
330
11F
100
AcDbEntity
  8
0
  6
ByBlock
 62
     0
370
    -2
100
AcDbCircle
 10
224.688236571164
 20
168.1996535879593
 30
0.0
 40
1.2
  0
CIRCLE
  5
1A3
330
11F
100
AcDbEntity
  8
0
  6
ByBlock
 62
     0
370
    -2
100
AcDbCircle
 10
224.688236571164
 20
168.1996535879593
 30
0.0
 40
0.5
  0
CIRCLE
  5
1A4
330
11F
100
AcDbEntity
  8
0
  6
ByBlock
 62
     0
370
    -2
100
AcDbCircle
 10
224.688236571164
 20
156.3196545879593
 30
0.0
 40
0.5
  0
CIRCLE
  5
1A5
330
11F
100
AcDbEntity
  8
0
  6
ByBlock
 62
     0
370
    -2
100
AcDbCircle
 10
224.688236571164
 20
160.2796545879593
 30
0.0
 40
0.5
  0
CIRCLE
  5
1A6
330
11F
100
AcDbEntity
  8
0
  6
ByBlock
 62
     0
370
    -2
100
AcDbCircle
 10
224.688236571164
 20
164.2396545879591
 30
0.0
 40
0.5
  0
CIRCLE
  5
1A7
330
11F
100
AcDbEntity
  8
0
  6
ByBlock
 62
     0
370
    -2
100
AcDbCircle
 10
224.688236571164
 20
164.2396545879591
 30
0.0
 40
1.2
  0
CIRCLE
  5
1A8
330
11F
100
AcDbEntity
  8
0
  6
ByBlock
 62
     0
370
    -2
100
AcDbCircle
 10
224.688236571164
 20
160.2796545879593
 30
0.0
 40
1.2
  0
LINE
  5
1A9
330
11F
100
AcDbEntity
  8
0
  6
ByBlock
 62
     0
370
    -2
100
AcDbLine
 10
187.688236571164
 20
167.0246535879593
 30
0.0
 11
161.0191760915897
 21
167.0246535879592
 31
0.0
  0
LINE
  5
1AA
330
11F
100
AcDbEntity
  8
0
  6
ByBlock
 62
     0
370
    -2
100
AcDbLine
 10
187.688236571164
 20
169.3746535879592
 30
0.0
 11
161.0191760915897
 21
169.3746535879592
 31
0.0
  0
LINE
  5
1AB
330
11F
100
AcDbEntity
  8
0
  6
ByBlock
 62
     0
370
    -2
100
AcDbLine
 10
187.688236571164
 20
155.1446545879593
 30
0.0
 11
160.4490759007915
 21
155.1446545879593
 31
0.0
  0
LINE
  5
1AC
330
11F
100
AcDbEntity
  8
0
  6
ByBlock
 62
     0
370
    -2
100
AcDbLine
 10
187.688236571164
 20
157.4946545879592
 30
0.0
 11
160.4490759007915
 21
157.4946545879592
 31
0.0
  0
LINE
  5
1AD
330
11F
100
AcDbEntity
  8
0
  6
ByBlock
 62
     0
370
    -2
100
AcDbLine
 10
156.2509989646974
 20
169.3746535879592
 30
0.0
 11
151.188236571164
 21
169.3746535879592
 31
0.0
  0
LINE
  5
1AE
330
11F
100
AcDbEntity
  8
0
  6
ByBlock
 62
     0
370
    -2
100
AcDbLine
 10
156.2509989646974
 20
167.0246535879593
 30
0.0
 11
151.188236571164
 21
167.0246535879593
 31
0.0
  0
LINE
  5
1AF
330
11F
100
AcDbEntity
  8
0
  6
ByBlock
 62
     0
370
    -2
100
AcDbLine
 10
155.6808974001608
 20
157.4946545879592
 30
0.0
 11
151.188236571164
 21
157.4946545879592
 31
0.0
  0
LINE
  5
1B0
330
11F
100
AcDbEntity
  8
0
  6
ByBlock
 62
     0
370
    -2
100
AcDbLine
 10
155.6808974001608
 20
155.1446545879593
 30
0.0
 11
151.188236571164
 21
155.1446545879593
 31
0.0
  0
LINE
  5
1B1
330
11F
100
AcDbEntity
  8
0
  6
ByBlock
 62
     0
370
    -2
100
AcDbLine
 10
147.6882365711639
 20
169.3746535879592
 30
0.0
 11
132.6882365711639
 21
169.3746535879592
 31
0.0
  0
LINE
  5
1B2
330
11F
100
AcDbEntity
  8
0
  6
ByBlock
 62
     0
370
    -2
100
AcDbLine
 10
147.6882365711639
 20
167.0246535879592
 30
0.0
 11
132.6882365711639
 21
167.0246535879593
 31
0.0
  0
LINE
  5
1B3
330
11F
100
AcDbEntity
  8
0
  6
ByBlock
 62
     0
370
    -2
100
AcDbLine
 10
147.6882365711639
 20
157.4946545879592
 30
0.0
 11
132.6882365711639
 21
157.4946545879592
 31
0.0
  0
LINE
  5
1B4
330
11F
100
AcDbEntity
  8
0
  6
ByBlock
 62
     0
370
    -2
100
AcDbLine
 10
147.6882365711639
 20
155.1446545879593
 30
0.0
 11
132.6882365711639
 21
155.1446545879593
 31
0.0
  0
ENDBLK
  5
121
330
11F
100
AcDbEntity
  8
0
100
AcDbBlockEnd
  0
BLOCK
  5
124
330
123
100
AcDbEntity
  8
0
100
AcDbBlockBegin
  2
BLKF027
 70
     0
 10
0.0
 20
0.0
 30
0.0
  3
BLKF027
  1
BLKF027
  0
LINE
  5
127
330
123
100
AcDbEntity
  8
0
  6
ByBlock
 62
     0
370
    -2
100
AcDbLine
 10
189.6882375711639
 20
143.7196515879592
 30
0.0
 11
225.6882375711641
 21
143.7196515879592
 31
0.0
  0
ARC
  5
128
330
123
100
AcDbEntity
  8
0
  6
ByBlock
 62
     0
370
    -2
100
AcDbCircle
 10
189.6882375711639
 20
143.7196515879592
 30
0.0
 40
0.0499999999999972
100
AcDbArc
 50
90.0
 51
270.0
  0
ARC
  5
129
330
123
100
AcDbEntity
  8
0
  6
ByBlock
 62
     0
370
    -2
100
AcDbCircle
 10
189.6882375711639
 20
143.7196515879592
 30
0.0
 40
0.0499999999999972
100
AcDbArc
 50
270.0
 51
90.0
  0
ARC
  5
12A
330
123
100
AcDbEntity
  8
0
  6
ByBlock
 62
     0
370
    -2
100
AcDbCircle
 10
225.6882375711641
 20
143.7196515879592
 30
0.0
 40
0.0499999999999972
100
AcDbArc
 50
90.0
 51
270.0
  0
ARC
  5
12B
330
123
100
AcDbEntity
  8
0
  6
ByBlock
 62
     0
370
    -2
100
AcDbCircle
 10
225.6882375711641
 20
143.7196515879592
 30
0.0
 40
0.0499999999999972
100
AcDbArc
 50
270.0
 51
90.0
  0
LINE
  5
12C
330
123
100
AcDbEntity
  8
0
  6
ByBlock
 62
     0
370
    -2
100
AcDbLine
 10
227.6882355711641
 20
145.7196525879591
 30
0.0
 11
227.6882355711641
 21
181.7196500879592
 31
0.0
  0
ARC
  5
12D
330
123
100
AcDbEntity
  8
0
  6
ByBlock
 62
     0
370
    -2
100
AcDbCircle
 10
227.6882355711641
 20
145.7196525879591
 30
0.0
 40
0.0500000000000043
100
AcDbArc
 50
90.0
 51
270.0
  0
ARC
  5
12E
330
123
100
AcDbEntity
  8
0
  6
ByBlock
 62
     0
370
    -2
100
AcDbCircle
 10
227.6882355711641
 20
145.7196525879591
 30
0.0
 40
0.0500000000000043
100
AcDbArc
 50
270.0
 51
90.0
  0
ARC
  5
12F
330
123
100
AcDbEntity
  8
0
  6
ByBlock
 62
     0
370
    -2
100
AcDbCircle
 10
227.6882355711641
 20
181.7196515879592
 30
0.0
 40
0.0499999999999972
100
AcDbArc
 50
90.0
 51
270.0
  0
ARC
  5
130
330
123
100
AcDbEntity
  8
0
  6
ByBlock
 62
     0
370
    -2
100
AcDbCircle
 10
227.6882355711641
 20
181.7196515879592
 30
0.0
 40
0.0499999999999972
100
AcDbArc
 50
270.0
 51
90.0
  0
LINE
  5
131
330
123
100
AcDbEntity
  8
0
  6
ByBlock
 62
     0
370
    -2
100
AcDbLine
 10
189.6882375711639
 20
183.7196495879593
 30
0.0
 11
225.6882375711641
 21
183.7196495879593
 31
0.0
  0
ARC
  5
132
330
123
100
AcDbEntity
  8
0
  6
ByBlock
 62
     0
370
    -2
100
AcDbCircle
 10
189.6882375711639
 20
183.7196500879593
 30
0.0
 40
0.0499994999999984
100
AcDbArc
 50
90.0
 51
270.0
  0
ARC
  5
133
330
123
100
AcDbEntity
  8
0
  6
ByBlock
 62
     0
370
    -2
100
AcDbCircle
 10
189.6882375711639
 20
183.7196500879593
 30
0.0
 40
0.0499994999999984
100
AcDbArc
 50
270.0
 51
90.0
  0
ARC
  5
134
330
123
100
AcDbEntity
  8
0
  6
ByBlock
 62
     0
370
    -2
100
AcDbCircle
 10
225.6882375711641
 20
183.7196500879593
 30
0.0
 40
0.0499994999999984
100
AcDbArc
 50
90.0
 51
270.0
  0
ARC
  5
135
330
123
100
AcDbEntity
  8
0
  6
ByBlock
 62
     0
370
    -2
100
AcDbCircle
 10
225.6882375711641
 20
183.7196500879593
 30
0.0
 40
0.0499994999999984
100
AcDbArc
 50
270.0
 51
90.0
  0
LINE
  5
136
330
123
100
AcDbEntity
  8
0
  6
ByBlock
 62
     0
370
    -2
100
AcDbLine
 10
187.688236571164
 20
145.7196525879591
 30
0.0
 11
187.688236571164
 21
181.7696515879592
 31
0.0
  0
ARC
  5
137
330
123
100
AcDbEntity
  8
0
  6
ByBlock
 62
     0
370
    -2
100
AcDbCircle
 10
187.688236571164
 20
145.7196525879591
 30
0.0
 40
0.0500000000000043
100
AcDbArc
 50
90.0
 51
270.0
  0
ARC
  5
138
330
123
100
AcDbEntity
  8
0
  6
ByBlock
 62
     0
370
    -2
100
AcDbCircle
 10
187.688236571164
 20
145.7196525879591
 30
0.0
 40
0.0500000000000043
100
AcDbArc
 50
270.0
 51
90.0
  0
ARC
  5
139
330
123
100
AcDbEntity
  8
0
  6
ByBlock
 62
     0
370
    -2
100
AcDbCircle
 10
187.688236571164
 20
181.7196515879592
 30
0.0
 40
0.0499999999999972
100
AcDbArc
 50
90.0
 51
270.0
  0
ARC
  5
13A
330
123
100
AcDbEntity
  8
0
  6
ByBlock
 62
     0
370
    -2
100
AcDbCircle
 10
187.688236571164
 20
181.7196515879592
 30
0.0
 40
0.0499999999999972
100
AcDbArc
 50
270.0
 51
90.0
  0
ARC
  5
13B
330
123
100
AcDbEntity
  8
0
  6
ByBlock
 62
     0
370
    -2
100
AcDbCircle
 10
227.688234077013
 20
183.7196480938082
 30
0.0
 40
1.999999505849442
100
AcDbArc
 50
179.9999571957128
 51
270.0000428042871
  0
ARC
  5
13C
330
123
100
AcDbEntity
  8
0
  6
ByBlock
 62
     0
370
    -2
100
AcDbCircle
 10
225.688234571164
 20
183.7196500879593
 30
0.0
 40
0.0499994999999984
100
AcDbArc
 50
90.0
 51
270.0
  0
ARC
  5
13D
330
123
100
AcDbEntity
  8
0
  6
ByBlock
 62
     0
370
    -2
100
AcDbCircle
 10
227.6882355711641
 20
181.7196485879593
 30
0.0
 40
0.0499999999999972
100
AcDbArc
 50
90.0
 51
270.0
  0
ARC
  5
13E
330
123
100
AcDbEntity
  8
0
  6
ByBlock
 62
     0
370
    -2
100
AcDbCircle
 10
227.6882355711641
 20
181.7196485879593
 30
0.0
 40
0.0499999999999972
100
AcDbArc
 50
270.0
 51
90.0
  0
ARC
  5
13F
330
123
100
AcDbEntity
  8
0
  6
ByBlock
 62
     0
370
    -2
100
AcDbCircle
 10
187.6882380653151
 20
183.7196480938082
 30
0.0
 40
1.999999505849442
100
AcDbArc
 50
269.9999571957128
 51
0.0000428042871295
  0
ARC
  5
140
330
123
100
AcDbEntity
  8
0
  6
ByBlock
 62
     0
370
    -2
100
AcDbCircle
 10
187.688236571164
 20
181.7196485879593
 30
0.0
 40
0.0499999999999972
100
AcDbArc
 50
90.0
 51
270.0
  0
ARC
  5
141
330
123
100
AcDbEntity
  8
0
  6
ByBlock
 62
     0
370
    -2
100
AcDbCircle
 10
187.688236571164
 20
181.7196485879593
 30
0.0
 40
0.0499999999999972
100
AcDbArc
 50
270.0
 51
90.0
  0
ARC
  5
142
330
123
100
AcDbEntity
  8
0
  6
ByBlock
 62
     0
370
    -2
100
AcDbCircle
 10
189.6882375711639
 20
183.7196500879593
 30
0.0
 40
0.0499994999999984
100
AcDbArc
 50
90.0
 51
270.0
  0
ARC
  5
143
330
123
100
AcDbEntity
  8
0
  6
ByBlock
 62
     0
370
    -2
100
AcDbCircle
 10
189.6882375711639
 20
183.7196500879593
 30
0.0
 40
0.0499994999999984
100
AcDbArc
 50
270.0
 51
90.0
  0
ARC
  5
144
330
123
100
AcDbEntity
  8
0
  6
ByBlock
 62
     0
370
    -2
100
AcDbCircle
 10
187.6882380653151
 20
143.7196530821103
 30
0.0
 40
1.999999505849442
100
AcDbArc
 50
359.9999571957129
 51
41.42251862747271
  0
ARC
  5
145
330
123
100
AcDbEntity
  8
0
  6
ByBlock
 62
     0
370
    -2
100
AcDbCircle
 10
189.6882375711639
 20
143.7196515879592
 30
0.0
 40
0.0499999999999972
100
AcDbArc
 50
90.0
 51
270.0
  0
ARC
  5
146
330
123
100
AcDbEntity
  8
0
  6
ByBlock
 62
     0
370
    -2
100
AcDbCircle
 10
189.6882375711639
 20
143.7196515879592
 30
0.0
 40
0.0499999999999972
100
AcDbArc
 50
270.0
 51
90.0
  0
ARC
  5
147
330
123
100
AcDbEntity
  8
0
  6
ByBlock
 62
     0
370
    -2
100
AcDbCircle
 10
187.688236571164
 20
145.7196525879591
 30
0.0
 40
0.0500000000000043
100
AcDbArc
 50
90.0
 51
270.0
  0
ARC
  5
148
330
123
100
AcDbEntity
  8
0
  6
ByBlock
 62
     0
370
    -2
100
AcDbCircle
 10
187.688236571164
 20
145.7196525879591
 30
0.0
 40
0.0500000000000043
100
AcDbArc
 50
270.0
 51
90.0
  0
ARC
  5
149
330
123
100
AcDbEntity
  8
0
  6
ByBlock
 62
     0
370
    -2
100
AcDbCircle
 10
227.688234077013
 20
143.7196530821103
 30
0.0
 40
1.999999505849442
100
AcDbArc
 50
89.99995719571285
 51
180.0000428042872
  0
ARC
  5
14A
330
123
100
AcDbEntity
  8
0
  6
ByBlock
 62
     0
370
    -2
100
AcDbCircle
 10
227.6882355711641
 20
145.7196525879591
 30
0.0
 40
0.0500000000000043
100
AcDbArc
 50
90.0
 51
270.0
  0
ARC
  5
14B
330
123
100
AcDbEntity
  8
0
  6
ByBlock
 62
     0
370
    -2
100
AcDbCircle
 10
227.6882355711641
 20
145.7196525879591
 30
0.0
 40
0.0500000000000043
100
AcDbArc
 50
270.0
 51
90.0
  0
ARC
  5
14C
330
123
100
AcDbEntity
  8
0
  6
ByBlock
 62
     0
370
    -2
100
AcDbCircle
 10
225.688234571164
 20
143.7196515879592
 30
0.0
 40
0.0499999999999972
100
AcDbArc
 50
90.0
 51
270.0
  0
ARC
  5
14D
330
123
100
AcDbEntity
  8
0
  6
ByBlock
 62
     0
370
    -2
100
AcDbCircle
 10
225.688234571164
 20
143.7196515879592
 30
0.0
 40
0.0499999999999972
100
AcDbArc
 50
270.0
 51
90.0
  0
INSERT
  5
151
330
123
100
AcDbEntity
  8
0
  6
ByBlock
 62
     0
370
    -2
100
AcDbBlockReference
  2
BLKF028
 10
0.0
 20
0.0
 30
0.0
  0
CIRCLE
  5
199
330
123
100
AcDbEntity
  8
0
  6
ByBlock
 62
     0
370
    -2
100
AcDbCircle
 10
224.688236571164
 20
156.3196545879593
 30
0.0
 40
1.200799999999987
  0
CIRCLE
  5
19A
330
123
100
AcDbEntity
  8
0
  6
ByBlock
 62
     0
370
    -2
100
AcDbCircle
 10
208.2642355711641
 20
178.3636545879592
 30
0.0
 40
0.900801
  0
CIRCLE
  5
19B
330
123
100
AcDbEntity
  8
0
  6
ByBlock
 62
     0
370
    -2
100
AcDbCircle
 10
205.264236571164
 20
175.8236545879593
 30
0.0
 40
0.900801
  0
CIRCLE
  5
19C
330
123
100
AcDbEntity
  8
0
  6
ByBlock
 62
     0
370
    -2
100
AcDbCircle
 10
205.264236571164
 20
180.9036545879592
 30
0.0
 40
0.900801
  0
TEXT
  5
19D
330
123
100
AcDbEntity
  8
0
  6
ByBlock
 62
     7
370
    20
100
AcDbText
 10
215.6121826171875
 20
180.2002410888672
 30
0.0
 40
1.799999952316284
  1
ＦＥＴ
 50
270.0
 41
0.9607843228155234
  7
FX_VECTOR
 72
     5
 11
215.6121826171875
 21
176.0002411603928
 31
0.0
100
AcDbText
  0
LINE
  5
19E
330
123
100
AcDbEntity
  8
基準ﾚｲﾔｸﾞﾙｰﾌﾟ_01
  6
破線
 62
     7
370
    20
100
AcDbLine
 10
220.1280365711641
 20
173.2836545879592
 30
0.0
 11
220.1280365711641
 21
183.4436545879593
 31
0.0
  0
LINE
  5
19F
330
123
100
AcDbEntity
  8
基準ﾚｲﾔｸﾞﾙｰﾌﾟ_01
  6
一点鎖線
 62
     7
370
    20
100
AcDbLine
 10
224.1882355711641
 20
184.85046860651
 30
0.0
 11
224.1882355711641
 21
172.5661636646934
 31
0.0
  0
LINE
  5
1A0
330
123
100
AcDbEntity
  8
基準ﾚｲﾔｸﾞﾙｰﾌﾟ_01
  6
一点鎖線
 62
     7
370
    20
100
AcDbLine
 10
220.5379558374329
 20
178.2196495879593
 30
0.0
 11
229.2750919355612
 21
178.2196495879593
 31
0.0
  0
ARC
  5
1A1
330
123
100
AcDbEntity
  8
0
  6
ByBlock
 62
     0
370
    -2
100
AcDbCircle
 10
187.6882380653151
 20
143.7196530821103
 30
0.0
 40
1.999999505849442
100
AcDbArc
 50
48.57748137253023
 51
90.00004280428722
  0
ENDBLK
  5
125
330
123
100
AcDbEntity
  8
0
100
AcDbBlockEnd
  0
BLOCK
  5
14F
330
14E
100
AcDbEntity
  8
0
100
AcDbBlockBegin
  2
BLKF028
 70
     0
 10
0.0
 20
0.0
 30
0.0
  3
BLKF028
  1
BLKF028
  0
LINE
  5
153
330
14E
100
AcDbEntity
  8
基準ﾚｲﾔｸﾞﾙｰﾌﾟ_01
  6
破線
 62
     7
370
    20
100
AcDbLine
 10
210.008237571164
 20
178.3636545879592
 30
0.0
 11
211.5642365711642
 21
178.3636545879592
 31
0.0
  0
ARC
  5
154
330
14E
100
AcDbEntity
  8
0
  6
ByBlock
 62
     0
370
    -2
100
AcDbCircle
 10
210.008237571164
 20
178.3636545879592
 30
0.0
 40
0.0762
100
AcDbArc
 50
270.0
 51
90.0
  0
ARC
  5
155
330
14E
100
AcDbEntity
  8
0
  6
ByBlock
 62
     0
370
    -2
100
AcDbCircle
 10
210.008237571164
 20
178.3636545879592
 30
0.0
 40
0.0762
100
AcDbArc
 50
90.0
 51
270.0
  0
ARC
  5
156
330
14E
100
AcDbEntity
  8
0
  6
ByBlock
 62
     0
370
    -2
100
AcDbCircle
 10
211.5642365711642
 20
178.3636545879592
 30
0.0
 40
0.0762
100
AcDbArc
 50
270.0
 51
90.0
  0
ARC
  5
157
330
14E
100
AcDbEntity
  8
0
  6
ByBlock
 62
     0
370
    -2
100
AcDbCircle
 10
211.5642365711642
 20
178.3636545879592
 30
0.0
 40
0.0762
100
AcDbArc
 50
90.0
 51
270.0
  0
LINE
  5
158
330
14E
100
AcDbEntity
  8
基準ﾚｲﾔｸﾞﾙｰﾌﾟ_01
  6
破線
 62
     7
370
    20
100
AcDbLine
 10
226.8042365711642
 20
173.2836545879592
 30
0.0
 11
226.8042365711642
 21
181.9256173156298
 31
0.0
  0
ARC
  5
159
330
14E
100
AcDbEntity
  8
0
  6
ByBlock
 62
     0
370
    -2
100
AcDbCircle
 10
226.8042365711642
 20
173.2836545879592
 30
0.0
 40
0.0762
100
AcDbArc
 50
270.0
 51
90.0
  0
ARC
  5
15A
330
14E
100
AcDbEntity
  8
0
  6
ByBlock
 62
     0
370
    -2
100
AcDbCircle
 10
226.8042365711642
 20
173.2836545879592
 30
0.0
 40
0.0762
100
AcDbArc
 50
90.0
 51
270.0
  0
ARC
  5
15B
330
14E
100
AcDbEntity
  8
0
  6
ByBlock
 62
     0
370
    -2
100
AcDbCircle
 10
226.8042365711642
 20
183.4436545879593
 30
0.0
 40
0.0762
100
AcDbArc
 50
270.0
 51
90.0
  0
ARC
  5
15C
330
14E
100
AcDbEntity
  8
0
  6
ByBlock
 62
     0
370
    -2
100
AcDbCircle
 10
226.8042365711642
 20
183.4436545879593
 30
0.0
 40
0.0762
100
AcDbArc
 50
90.0
 51
270.0
  0
LINE
  5
15D
330
14E
100
AcDbEntity
  8
基準ﾚｲﾔｸﾞﾙｰﾌﾟ_01
  6
破線
 62
     7
370
    20
100
AcDbLine
 10
225.534236571164
 20
173.2836545879592
 30
0.0
 11
226.804236571164
 21
173.2836545879592
 31
0.0
  0
ARC
  5
15E
330
14E
100
AcDbEntity
  8
0
  6
ByBlock
 62
     0
370
    -2
100
AcDbCircle
 10
225.534236571164
 20
173.2836545879592
 30
0.0
 40
0.0762
100
AcDbArc
 50
270.0
 51
90.0
  0
ARC
  5
15F
330
14E
100
AcDbEntity
  8
0
  6
ByBlock
 62
     0
370
    -2
100
AcDbCircle
 10
225.534236571164
 20
173.2836545879592
 30
0.0
 40
0.0762
100
AcDbArc
 50
90.0
 51
270.0
  0
ARC
  5
160
330
14E
100
AcDbEntity
  8
0
  6
ByBlock
 62
     0
370
    -2
100
AcDbCircle
 10
226.8042365711642
 20
173.2836545879592
 30
0.0
 40
0.0762
100
AcDbArc
 50
270.0
 51
90.0
  0
ARC
  5
161
330
14E
100
AcDbEntity
  8
0
  6
ByBlock
 62
     0
370
    -2
100
AcDbCircle
 10
226.8042365711642
 20
173.2836545879592
 30
0.0
 40
0.0762
100
AcDbArc
 50
90.0
 51
270.0
  0
LINE
  5
162
330
14E
100
AcDbEntity
  8
基準ﾚｲﾔｸﾞﾙｰﾌﾟ_01
  6
破線
 62
     7
370
    20
100
AcDbLine
 10
225.534236571164
 20
173.2836545879592
 30
0.0
 11
225.534236571164
 21
174.5536545879593
 31
0.0
  0
ARC
  5
163
330
14E
100
AcDbEntity
  8
0
  6
ByBlock
 62
     0
370
    -2
100
AcDbCircle
 10
225.534236571164
 20
173.2836545879592
 30
0.0
 40
0.0762
100
AcDbArc
 50
270.0
 51
90.0
  0
ARC
  5
164
330
14E
100
AcDbEntity
  8
0
  6
ByBlock
 62
     0
370
    -2
100
AcDbCircle
 10
225.534236571164
 20
173.2836545879592
 30
0.0
 40
0.0762
100
AcDbArc
 50
90.0
 51
270.0
  0
ARC
  5
165
330
14E
100
AcDbEntity
  8
0
  6
ByBlock
 62
     0
370
    -2
100
AcDbCircle
 10
225.534236571164
 20
174.5536545879593
 30
0.0
 40
0.0762
100
AcDbArc
 50
270.0
 51
90.0
  0
ARC
  5
166
330
14E
100
AcDbEntity
  8
0
  6
ByBlock
 62
     0
370
    -2
100
AcDbCircle
 10
225.534236571164
 20
174.5536545879593
 30
0.0
 40
0.0762
100
AcDbArc
 50
90.0
 51
270.0
  0
LINE
  5
167
330
14E
100
AcDbEntity
  8
基準ﾚｲﾔｸﾞﾙｰﾌﾟ_01
  6
破線
 62
     7
370
    20
100
AcDbLine
 10
222.994236571164
 20
174.5536545879593
 30
0.0
 11
225.534236571164
 21
174.5536545879593
 31
0.0
  0
ARC
  5
168
330
14E
100
AcDbEntity
  8
0
  6
ByBlock
 62
     0
370
    -2
100
AcDbCircle
 10
222.994236571164
 20
174.5536545879593
 30
0.0
 40
0.0762
100
AcDbArc
 50
270.0
 51
90.0
  0
ARC
  5
169
330
14E
100
AcDbEntity
  8
0
  6
ByBlock
 62
     0
370
    -2
100
AcDbCircle
 10
222.994236571164
 20
174.5536545879593
 30
0.0
 40
0.0762
100
AcDbArc
 50
90.0
 51
270.0
  0
ARC
  5
16A
330
14E
100
AcDbEntity
  8
0
  6
ByBlock
 62
     0
370
    -2
100
AcDbCircle
 10
225.534236571164
 20
174.5536545879593
 30
0.0
 40
0.0762
100
AcDbArc
 50
270.0
 51
90.0
  0
ARC
  5
16B
330
14E
100
AcDbEntity
  8
0
  6
ByBlock
 62
     0
370
    -2
100
AcDbCircle
 10
225.534236571164
 20
174.5536545879593
 30
0.0
 40
0.0762
100
AcDbArc
 50
90.0
 51
270.0
  0
LINE
  5
16C
330
14E
100
AcDbEntity
  8
基準ﾚｲﾔｸﾞﾙｰﾌﾟ_01
  6
破線
 62
     7
370
    20
100
AcDbLine
 10
222.994236571164
 20
173.2836545879592
 30
0.0
 11
222.994236571164
 21
174.5536545879593
 31
0.0
  0
ARC
  5
16D
330
14E
100
AcDbEntity
  8
0
  6
ByBlock
 62
     0
370
    -2
100
AcDbCircle
 10
222.994236571164
 20
173.2836545879592
 30
0.0
 40
0.0762
100
AcDbArc
 50
270.0
 51
90.0
  0
ARC
  5
16E
330
14E
100
AcDbEntity
  8
0
  6
ByBlock
 62
     0
370
    -2
100
AcDbCircle
 10
222.994236571164
 20
173.2836545879592
 30
0.0
 40
0.0762
100
AcDbArc
 50
90.0
 51
270.0
  0
ARC
  5
16F
330
14E
100
AcDbEntity
  8
0
  6
ByBlock
 62
     0
370
    -2
100
AcDbCircle
 10
222.994236571164
 20
174.5536545879593
 30
0.0
 40
0.0762
100
AcDbArc
 50
270.0
 51
90.0
  0
ARC
  5
170
330
14E
100
AcDbEntity
  8
0
  6
ByBlock
 62
     0
370
    -2
100
AcDbCircle
 10
222.994236571164
 20
174.5536545879593
 30
0.0
 40
0.0762
100
AcDbArc
 50
90.0
 51
270.0
  0
LINE
  5
171
330
14E
100
AcDbEntity
  8
基準ﾚｲﾔｸﾞﾙｰﾌﾟ_01
  6
破線
 62
     7
370
    20
100
AcDbLine
 10
211.5642365711642
 20
173.2836545879592
 30
0.0
 11
222.994236571164
 21
173.2836545879592
 31
0.0
  0
ARC
  5
172
330
14E
100
AcDbEntity
  8
0
  6
ByBlock
 62
     0
370
    -2
100
AcDbCircle
 10
211.5642365711642
 20
173.2836545879592
 30
0.0
 40
0.0762
100
AcDbArc
 50
270.0
 51
90.0
  0
ARC
  5
173
330
14E
100
AcDbEntity
  8
0
  6
ByBlock
 62
     0
370
    -2
100
AcDbCircle
 10
211.5642365711642
 20
173.2836545879592
 30
0.0
 40
0.0762
100
AcDbArc
 50
90.0
 51
270.0
  0
ARC
  5
174
330
14E
100
AcDbEntity
  8
0
  6
ByBlock
 62
     0
370
    -2
100
AcDbCircle
 10
222.994236571164
 20
173.2836545879592
 30
0.0
 40
0.0762
100
AcDbArc
 50
270.0
 51
90.0
  0
ARC
  5
175
330
14E
100
AcDbEntity
  8
0
  6
ByBlock
 62
     0
370
    -2
100
AcDbCircle
 10
222.994236571164
 20
173.2836545879592
 30
0.0
 40
0.0762
100
AcDbArc
 50
90.0
 51
270.0
  0
LINE
  5
176
330
14E
100
AcDbEntity
  8
基準ﾚｲﾔｸﾞﾙｰﾌﾟ_01
  6
破線
 62
     7
370
    20
100
AcDbLine
 10
211.5642365711642
 20
173.2836545879592
 30
0.0
 11
211.5642365711642
 21
183.4436545879593
 31
0.0
  0
ARC
  5
177
330
14E
100
AcDbEntity
  8
0
  6
ByBlock
 62
     0
370
    -2
100
AcDbCircle
 10
211.5642365711642
 20
173.2836545879592
 30
0.0
 40
0.0762
100
AcDbArc
 50
270.0
 51
90.0
  0
ARC
  5
178
330
14E
100
AcDbEntity
  8
0
  6
ByBlock
 62
     0
370
    -2
100
AcDbCircle
 10
211.5642365711642
 20
173.2836545879592
 30
0.0
 40
0.0762
100
AcDbArc
 50
90.0
 51
270.0
  0
ARC
  5
179
330
14E
100
AcDbEntity
  8
0
  6
ByBlock
 62
     0
370
    -2
100
AcDbCircle
 10
211.5642365711642
 20
183.4436545879593
 30
0.0
 40
0.0762
100
AcDbArc
 50
270.0
 51
90.0
  0
ARC
  5
17A
330
14E
100
AcDbEntity
  8
0
  6
ByBlock
 62
     0
370
    -2
100
AcDbCircle
 10
211.5642365711642
 20
183.4436545879593
 30
0.0
 40
0.0762
100
AcDbArc
 50
90.0
 51
270.0
  0
LINE
  5
17B
330
14E
100
AcDbEntity
  8
基準ﾚｲﾔｸﾞﾙｰﾌﾟ_01
  6
破線
 62
     7
370
    20
100
AcDbLine
 10
211.5642365711642
 20
183.4436545879593
 30
0.0
 11
222.994236571164
 21
183.4436545879593
 31
0.0
  0
ARC
  5
17C
330
14E
100
AcDbEntity
  8
0
  6
ByBlock
 62
     0
370
    -2
100
AcDbCircle
 10
211.5642365711642
 20
183.4436545879593
 30
0.0
 40
0.0762
100
AcDbArc
 50
270.0
 51
90.0
  0
ARC
  5
17D
330
14E
100
AcDbEntity
  8
0
  6
ByBlock
 62
     0
370
    -2
100
AcDbCircle
 10
211.5642365711642
 20
183.4436545879593
 30
0.0
 40
0.0762
100
AcDbArc
 50
90.0
 51
270.0
  0
LINE
  5
17E
330
14E
100
AcDbEntity
  8
基準ﾚｲﾔｸﾞﾙｰﾌﾟ_01
  6
破線
 62
     7
370
    20
100
AcDbLine
 10
222.994236571164
 20
182.1736545879593
 30
0.0
 11
222.994236571164
 21
183.4436545879593
 31
0.0
  0
LINE
  5
17F
330
14E
100
AcDbEntity
  8
基準ﾚｲﾔｸﾞﾙｰﾌﾟ_01
  6
破線
 62
     7
370
    20
100
AcDbLine
 10
222.994236571164
 20
182.1736545879593
 30
0.0
 11
225.534236571164
 21
182.1736545879593
 31
0.0
  0
ARC
  5
180
330
14E
100
AcDbEntity
  8
0
  6
ByBlock
 62
     0
370
    -2
100
AcDbCircle
 10
222.994236571164
 20
182.1736545879593
 30
0.0
 40
0.0762
100
AcDbArc
 50
270.0
 51
90.0
  0
ARC
  5
181
330
14E
100
AcDbEntity
  8
0
  6
ByBlock
 62
     0
370
    -2
100
AcDbCircle
 10
225.534236571164
 20
182.1736545879593
 30
0.0
 40
0.0762
100
AcDbArc
 50
270.0
 51
90.0
  0
ARC
  5
182
330
14E
100
AcDbEntity
  8
0
  6
ByBlock
 62
     0
370
    -2
100
AcDbCircle
 10
225.534236571164
 20
182.1736545879593
 30
0.0
 40
0.0762
100
AcDbArc
 50
90.0
 51
270.0
  0
LINE
  5
183
330
14E
100
AcDbEntity
  8
基準ﾚｲﾔｸﾞﾙｰﾌﾟ_01
  6
破線
 62
     7
370
    20
100
AcDbLine
 10
225.534236571164
 20
182.1736545879593
 30
0.0
 11
225.534236571164
 21
183.4436545879593
 31
0.0
  0
ARC
  5
184
330
14E
100
AcDbEntity
  8
0
  6
ByBlock
 62
     0
370
    -2
100
AcDbCircle
 10
225.534236571164
 20
182.1736545879593
 30
0.0
 40
0.0762
100
AcDbArc
 50
270.0
 51
90.0
  0
ARC
  5
185
330
14E
100
AcDbEntity
  8
0
  6
ByBlock
 62
     0
370
    -2
100
AcDbCircle
 10
225.534236571164
 20
182.1736545879593
 30
0.0
 40
0.0762
100
AcDbArc
 50
90.0
 51
270.0
  0
ARC
  5
186
330
14E
100
AcDbEntity
  8
0
  6
ByBlock
 62
     0
370
    -2
100
AcDbCircle
 10
225.534236571164
 20
183.4436545879593
 30
0.0
 40
0.0762
100
AcDbArc
 50
270.0
 51
90.0
  0
ARC
  5
187
330
14E
100
AcDbEntity
  8
0
  6
ByBlock
 62
     0
370
    -2
100
AcDbCircle
 10
225.534236571164
 20
183.4436545879593
 30
0.0
 40
0.0762
100
AcDbArc
 50
90.0
 51
270.0
  0
LINE
  5
188
330
14E
100
AcDbEntity
  8
0
  6
ByBlock
 62
     0
370
    -2
100
AcDbLine
 10
225.7073692133417
 20
183.4436545879593
 30
0.0
 11
226.804236571164
 21
183.4436545879593
 31
0.0
  0
ARC
  5
189
330
14E
100
AcDbEntity
  8
0
  6
ByBlock
 62
     0
370
    -2
100
AcDbCircle
 10
225.534236571164
 20
183.4436545879593
 30
0.0
 40
0.0762
100
AcDbArc
 50
270.0
 51
90.0
  0
ARC
  5
18A
330
14E
100
AcDbEntity
  8
0
  6
ByBlock
 62
     0
370
    -2
100
AcDbCircle
 10
225.534236571164
 20
183.4436545879593
 30
0.0
 40
0.0762
100
AcDbArc
 50
90.0
 51
270.0
  0
ARC
  5
18B
330
14E
100
AcDbEntity
  8
0
  6
ByBlock
 62
     0
370
    -2
100
AcDbCircle
 10
226.8042365711642
 20
183.4436545879593
 30
0.0
 40
0.0762
100
AcDbArc
 50
270.0
 51
90.0
  0
ARC
  5
18C
330
14E
100
AcDbEntity
  8
0
  6
ByBlock
 62
     0
370
    -2
100
AcDbCircle
 10
226.8042365711642
 20
183.4436545879593
 30
0.0
 40
0.0762
100
AcDbArc
 50
90.0
 51
270.0
  0
LINE
  5
18D
330
14E
100
AcDbEntity
  8
基準ﾚｲﾔｸﾞﾙｰﾌﾟ_01
  6
破線
 62
     7
370
    20
100
AcDbLine
 10
208.0082365711642
 20
180.9036545879592
 30
0.0
 11
211.5642365711642
 21
180.9036545879592
 31
0.0
  0
ARC
  5
18E
330
14E
100
AcDbEntity
  8
0
  6
ByBlock
 62
     0
370
    -2
100
AcDbCircle
 10
208.0082365711642
 20
180.9036545879592
 30
0.0
 40
0.0762
100
AcDbArc
 50
270.0
 51
90.0
  0
ARC
  5
18F
330
14E
100
AcDbEntity
  8
0
  6
ByBlock
 62
     0
370
    -2
100
AcDbCircle
 10
208.0082365711642
 20
180.9036545879592
 30
0.0
 40
0.0762
100
AcDbArc
 50
90.0
 51
270.0
  0
ARC
  5
190
330
14E
100
AcDbEntity
  8
0
  6
ByBlock
 62
     0
370
    -2
100
AcDbCircle
 10
211.5642365711642
 20
180.9036545879592
 30
0.0
 40
0.0762
100
AcDbArc
 50
270.0
 51
90.0
  0
ARC
  5
191
330
14E
100
AcDbEntity
  8
0
  6
ByBlock
 62
     0
370
    -2
100
AcDbCircle
 10
211.5642365711642
 20
180.9036545879592
 30
0.0
 40
0.0762
100
AcDbArc
 50
90.0
 51
270.0
  0
LINE
  5
192
330
14E
100
AcDbEntity
  8
基準ﾚｲﾔｸﾞﾙｰﾌﾟ_01
  6
破線
 62
     7
370
    20
100
AcDbLine
 10
208.0082365711642
 20
175.8236545879593
 30
0.0
 11
211.5642365711642
 21
175.8236545879593
 31
0.0
  0
ARC
  5
193
330
14E
100
AcDbEntity
  8
0
  6
ByBlock
 62
     0
370
    -2
100
AcDbCircle
 10
208.0082365711642
 20
175.8236545879593
 30
0.0
 40
0.0762
100
AcDbArc
 50
270.0
 51
90.0
  0
ARC
  5
194
330
14E
100
AcDbEntity
  8
0
  6
ByBlock
 62
     0
370
    -2
100
AcDbCircle
 10
208.0082365711642
 20
175.8236545879593
 30
0.0
 40
0.0762
100
AcDbArc
 50
90.0
 51
270.0
  0
ARC
  5
195
330
14E
100
AcDbEntity
  8
0
  6
ByBlock
 62
     0
370
    -2
100
AcDbCircle
 10
211.5642365711642
 20
175.8236545879593
 30
0.0
 40
0.0762
100
AcDbArc
 50
270.0
 51
90.0
  0
ARC
  5
196
330
14E
100
AcDbEntity
  8
0
  6
ByBlock
 62
     0
370
    -2
100
AcDbCircle
 10
211.5642365711642
 20
175.8236545879593
 30
0.0
 40
0.0762
100
AcDbArc
 50
90.0
 51
270.0
  0
CIRCLE
  5
197
330
14E
100
AcDbEntity
  8
0
  6
ByBlock
 62
     0
370
    -2
100
AcDbCircle
 10
224.264236571164
 20
178.3636545879592
 30
0.0
 40
3.049999
  0
LINE
  5
198
330
14E
100
AcDbEntity
  8
0
  6
ByBlock
 62
     0
370
    -2
100
AcDbLine
 10
226.8042365711642
 20
181.9256173156298
 30
0.0
 11
226.8042365711642
 21
183.4436545879593
 31
0.0
  0
ENDBLK
  5
150
330
14E
100
AcDbEntity
  8
0
100
AcDbBlockEnd
  0
BLOCK
  5
1B6
330
1B5
100
AcDbEntity
  8
0
100
AcDbBlockBegin
  2
BLKF029
 70
     0
 10
0.0
 20
0.0
 30
0.0
  3
BLKF029
  1
BLKF029
  0
LINE
  5
1B9
330
1B5
100
AcDbEntity
  8
0
  6
ByBlock
 62
     0
370
    -2
100
AcDbLine
 10
212.980379033424
 20
156.6761944400277
 30
0.0
 11
196.980379033424
 21
156.6761944400277
 31
0.0
  0
LINE
  5
1BA
330
1B5
100
AcDbEntity
  8
0
  6
ByBlock
 62
     0
370
    -2
100
AcDbLine
 10
195.980379033424
 20
155.6761944400277
 30
0.0
 11
195.980379033424
 21
147.6761944400277
 31
0.0
  0
LINE
  5
1BB
330
1B5
100
AcDbEntity
  8
0
  6
ByBlock
 62
     0
370
    -2
100
AcDbLine
 10
196.980379033424
 20
146.6761944400277
 30
0.0
 11
212.980379033424
 21
146.6761944400277
 31
0.0
  0
LINE
  5
1BC
330
1B5
100
AcDbEntity
  8
0
  6
ByBlock
 62
     0
370
    -2
100
AcDbLine
 10
213.980379033424
 20
147.6761944400277
 30
0.0
 11
213.980379033424
 21
155.6761944400277
 31
0.0
  0
ARC
  5
1BD
330
1B5
100
AcDbEntity
  8
0
  6
ByBlock
 62
     0
370
    -2
100
AcDbCircle
 10
196.980379033424
 20
155.6761944400277
 30
0.0
 40
1.0
100
AcDbArc
 50
90.0
 51
180.0
  0
ARC
  5
1BE
330
1B5
100
AcDbEntity
  8
0
  6
ByBlock
 62
     0
370
    -2
100
AcDbCircle
 10
196.980379033424
 20
147.6761944400277
 30
0.0
 40
1.0
100
AcDbArc
 50
180.0
 51
270.0
  0
ARC
  5
1BF
330
1B5
100
AcDbEntity
  8
0
  6
ByBlock
 62
     0
370
    -2
100
AcDbCircle
 10
212.980379033424
 20
147.6761944400277
 30
0.0
 40
1.0
100
AcDbArc
 50
270.0
 51
0.0
  0
ARC
  5
1C0
330
1B5
100
AcDbEntity
  8
0
  6
ByBlock
 62
     0
370
    -2
100
AcDbCircle
 10
212.980379033424
 20
155.6761944400277
 30
0.0
 40
1.0
100
AcDbArc
 50
0.0
 51
90.0
  0
TEXT
  5
1C1
330
1B5
100
AcDbEntity
  8
0
  6
ByBlock
 62
     7
370
    20
100
AcDbText
 10
200.6277232358487
 20
149.6761932373047
 30
0.0
 40
4.0
  1
ＮＰ
 41
1.272727272727273
 51
10.0
  7
FX_VECTOR
 72
     5
 11
208.6277232358487
 21
149.6761932373047
 31
0.0
100
AcDbText
  0
ENDBLK
  5
1B7
330
1B5
100
AcDbEntity
  8
0
100
AcDbBlockEnd
  0
BLOCK
  5
1CF
330
1CE
100
AcDbEntity
  8
0
100
AcDbBlockBegin
  2
BLKF030
 70
     0
 10
0.0
 20
0.0
 30
0.0
  3
BLKF030
  1
BLKF030
  0
ARC
  5
1D2
330
1CE
100
AcDbEntity
  8
0
  6
ByBlock
 62
     0
370
    -2
100
AcDbCircle
 10
161.9102177582563
 20
167.6121535879592
 30
0.0
 40
1.067291666666685
100
AcDbArc
 50
146.6015115320125
 51
213.3984884679888
  0
ARC
  5
1D3
330
1CE
100
AcDbEntity
  8
0
  6
ByBlock
 62
     0
370
    -2
100
AcDbCircle
 10
160.1281344249229
 20
167.6121535879592
 30
0.0
 40
1.067291666666697
100
AcDbArc
 50
326.6015115320116
 51
33.39848846798711
  0
ARC
  5
1D4
330
1CE
100
AcDbEntity
  8
0
  6
ByBlock
 62
     0
370
    -2
100
AcDbCircle
 10
161.9102177582563
 20
168.7871535879592
 30
0.0
 40
1.067291666666669
100
AcDbArc
 50
146.6015115320112
 51
213.3984884679875
  0
ENDBLK
  5
1D0
330
1CE
100
AcDbEntity
  8
0
100
AcDbBlockEnd
  0
BLOCK
  5
1D6
330
1D5
100
AcDbEntity
  8
0
100
AcDbBlockBegin
  2
BLKF031
 70
     0
 10
0.0
 20
0.0
 30
0.0
  3
BLKF031
  1
BLKF031
  0
ARC
  5
1D9
330
1D5
100
AcDbEntity
  8
0
  6
ByBlock
 62
     0
370
    -2
100
AcDbCircle
 10
161.3401175674583
 20
155.7321545879592
 30
0.0
 40
1.067291666666721
100
AcDbArc
 50
146.601511532015
 51
213.3984884679875
  0
ARC
  5
1DA
330
1D5
100
AcDbEntity
  8
0
  6
ByBlock
 62
     0
370
    -2
100
AcDbCircle
 10
159.5580342341249
 20
155.7321545879592
 30
0.0
 40
1.067291666666721
100
AcDbArc
 50
326.6015115320125
 51
33.39848846798497
  0
ARC
  5
1DB
330
1D5
100
AcDbEntity
  8
0
  6
ByBlock
 62
     0
370
    -2
100
AcDbCircle
 10
161.3401175674583
 20
156.9071545879592
 30
0.0
 40
1.067291666666705
100
AcDbArc
 50
146.6015115320137
 51
213.3984884679862
  0
ENDBLK
  5
1D7
330
1D5
100
AcDbEntity
  8
0
100
AcDbBlockEnd
  0
BLOCK
  5
1DD
330
1DC
100
AcDbEntity
  8
0
100
AcDbBlockBegin
  2
BLKF032
 70
     0
 10
0.0
 20
0.0
 30
0.0
  3
BLKF032
  1
BLKF032
  0
ARC
  5
1E0
330
1DC
100
AcDbEntity
  8
0
  6
ByBlock
 62
     0
370
    -2
100
AcDbCircle
 10
154.7898557334942
 20
156.9071545879591
 30
0.0
 40
1.067291666666648
100
AcDbArc
 50
326.6015115320123
 51
33.39848846798645
  0
ARC
  5
1E1
330
1DC
100
AcDbEntity
  8
0
  6
ByBlock
 62
     0
370
    -2
100
AcDbCircle
 10
156.5719390668274
 20
156.9071545879591
 30
0.0
 40
1.06729166666666
100
AcDbArc
 50
146.601511532014
 51
213.3984884679873
  0
ARC
  5
1E2
330
1DC
100
AcDbEntity
  8
0
  6
ByBlock
 62
     0
370
    -2
100
AcDbCircle
 10
154.7898557334942
 20
155.7321545879592
 30
0.0
 40
1.067291666666664
100
AcDbArc
 50
326.6015115320135
 51
33.39848846798772
  0
ENDBLK
  5
1DE
330
1DC
100
AcDbEntity
  8
0
100
AcDbBlockEnd
  0
BLOCK
  5
1E4
330
1E3
100
AcDbEntity
  8
0
100
AcDbBlockBegin
  2
BLKF033
 70
     0
 10
0.0
 20
0.0
 30
0.0
  3
BLKF033
  1
BLKF033
  0
ARC
  5
1E7
330
1E3
100
AcDbEntity
  8
0
  6
ByBlock
 62
     0
370
    -2
100
AcDbCircle
 10
155.3599572980307
 20
168.7871535879594
 30
0.0
 40
1.067291666666705
100
AcDbArc
 50
326.6015115320125
 51
33.39848846798624
  0
ARC
  5
1E8
330
1E3
100
AcDbEntity
  8
0
  6
ByBlock
 62
     0
370
    -2
100
AcDbCircle
 10
157.1420406313641
 20
168.7871535879594
 30
0.0
 40
1.067291666666711
100
AcDbArc
 50
146.601511532014
 51
213.3984884679873
  0
ARC
  5
1E9
330
1E3
100
AcDbEntity
  8
0
  6
ByBlock
 62
     0
370
    -2
100
AcDbCircle
 10
155.3599572980307
 20
167.6121535879592
 30
0.0
 40
1.067291666666705
100
AcDbArc
 50
326.6015115320125
 51
33.39848846798624
  0
ENDBLK
  5
1E5
330
1E3
100
AcDbEntity
  8
0
100
AcDbBlockEnd
  0
BLOCK
  5
20F
330
20E
100
AcDbEntity
  8
0
100
AcDbBlockBegin
  2
BLKF034
 70
     0
 10
0.0
 20
0.0
 30
0.0
  3
BLKF034
  1
BLKF034
  0
LINE
  5
212
330
20E
100
AcDbEntity
  8
0
  6
ByBlock
 62
     0
370
    -2
100
AcDbLine
 10
207.6882355711638
 20
133.7196515879592
 30
0.0
 11
207.6882355711638
 21
143.7196515879592
 31
0.0
  0
LINE
  5
213
330
20E
100
AcDbEntity
  8
0
  6
ByBlock
 62
     0
370
    -2
100
AcDbLine
 10
211.4436003254267
 20
188.7196495879595
 30
0.0
 11
203.4436003254267
 21
188.7196495879595
 31
0.0
  0
LINE
  5
214
330
20E
100
AcDbEntity
  8
0
  6
ByBlock
 62
     0
370
    -2
100
AcDbLine
 10
211.4436003254267
 20
138.7196495879595
 30
0.0
 11
203.4436003254267
 21
138.7196495879595
 31
0.0
  0
INSERT
  5
218
330
20E
100
AcDbEntity
  8
基準ﾚｲﾔｸﾞﾙｰﾌﾟ_01
  6
実線
 62
     3
370
    40
100
AcDbBlockReference
  2
BLKF035
 10
0.0
 20
0.0
 30
0.0
  0
INSERT
  5
21E
330
20E
100
AcDbEntity
  8
基準ﾚｲﾔｸﾞﾙｰﾌﾟ_01
  6
実線
 62
     3
370
    40
100
AcDbBlockReference
  2
BLKF036
 10
0.0
 20
0.0
 30
0.0
  0
LINE
  5
221
330
20E
100
AcDbEntity
  8
0
  6
ByBlock
 62
     0
370
    -2
100
AcDbLine
 10
207.6882355711638
 20
184.8326902345798
 30
0.0
 11
207.6882355711638
 21
192.8326902345798
 31
0.0
  0
ENDBLK
  5
210
330
20E
100
AcDbEntity
  8
0
100
AcDbBlockEnd
  0
BLOCK
  5
216
330
215
100
AcDbEntity
  8
0
100
AcDbBlockBegin
  2
BLKF035
 70
     0
 10
0.0
 20
0.0
 30
0.0
  3
BLKF035
  1
BLKF035
  0
ARC
  5
219
330
215
100
AcDbEntity
  8
0
  6
ByBlock
 62
     7
370
    20
100
AcDbCircle
 10
207.6882355711639
 20
188.7196495879595
 30
0.0
 40
2.0
100
AcDbArc
 50
80.0
 51
349.9999999999999
  0
CIRCLE
  5
21A
330
215
100
AcDbEntity
  8
0
  6
ByBlock
 62
     0
370
    -2
100
AcDbCircle
 10
207.6882355711639
 20
188.7196495879595
 30
0.0
 40
1.6
  0
ENDBLK
  5
217
330
215
100
AcDbEntity
  8
0
100
AcDbBlockEnd
  0
BLOCK
  5
21C
330
21B
100
AcDbEntity
  8
0
100
AcDbBlockBegin
  2
BLKF036
 70
     0
 10
0.0
 20
0.0
 30
0.0
  3
BLKF036
  1
BLKF036
  0
ARC
  5
21F
330
21B
100
AcDbEntity
  8
0
  6
ByBlock
 62
     7
370
    20
100
AcDbCircle
 10
207.6882355711639
 20
138.7196495879595
 30
0.0
 40
2.0
100
AcDbArc
 50
80.0
 51
349.9999999999999
  0
CIRCLE
  5
220
330
21B
100
AcDbEntity
  8
0
  6
ByBlock
 62
     0
370
    -2
100
AcDbCircle
 10
207.6882355711639
 20
138.7196495879595
 30
0.0
 40
1.6
  0
ENDBLK
  5
21D
330
21B
100
AcDbEntity
  8
0
100
AcDbBlockEnd
  0
BLOCK
  5
269
330
268
100
AcDbEntity
  8
0
100
AcDbBlockBegin
  2
BLKF037
 70
     0
 10
0.0
 20
0.0
 30
0.0
  3
BLKF037
  1
BLKF037
  0
ARC
  5
26C
330
268
100
AcDbEntity
  8
0
  6
ByBlock
 62
     0
370
    -2
100
AcDbCircle
 10
161.3401175674583
 20
80.097862245802
 30
0.0
 40
1.067291666666721
100
AcDbArc
 50
146.601511532015
 51
213.3984884679875
  0
ARC
  5
26D
330
268
100
AcDbEntity
  8
0
  6
ByBlock
 62
     0
370
    -2
100
AcDbCircle
 10
159.5580342341248
 20
80.097862245802
 30
0.0
 40
1.067291666666721
100
AcDbArc
 50
326.6015115320125
 51
33.39848846798497
  0
ARC
  5
26E
330
268
100
AcDbEntity
  8
0
  6
ByBlock
 62
     0
370
    -2
100
AcDbCircle
 10
161.3401175674583
 20
81.27286224580202
 30
0.0
 40
1.067291666666705
100
AcDbArc
 50
146.6015115320137
 51
213.3984884679862
  0
ENDBLK
  5
26A
330
268
100
AcDbEntity
  8
0
100
AcDbBlockEnd
  0
BLOCK
  5
270
330
26F
100
AcDbEntity
  8
0
100
AcDbBlockBegin
  2
BLKF038
 70
     0
 10
0.0
 20
0.0
 30
0.0
  3
BLKF038
  1
BLKF038
  0
ARC
  5
273
330
26F
100
AcDbEntity
  8
0
  6
ByBlock
 62
     0
370
    -2
100
AcDbCircle
 10
154.7898557334942
 20
81.27286224580196
 30
0.0
 40
1.067291666666648
100
AcDbArc
 50
326.6015115320123
 51
33.39848846798645
  0
ARC
  5
274
330
26F
100
AcDbEntity
  8
0
  6
ByBlock
 62
     0
370
    -2
100
AcDbCircle
 10
156.5719390668274
 20
81.27286224580196
 30
0.0
 40
1.06729166666666
100
AcDbArc
 50
146.601511532014
 51
213.3984884679873
  0
ARC
  5
275
330
26F
100
AcDbEntity
  8
0
  6
ByBlock
 62
     0
370
    -2
100
AcDbCircle
 10
154.7898557334942
 20
80.09786224580195
 30
0.0
 40
1.067291666666664
100
AcDbArc
 50
326.6015115320135
 51
33.39848846798772
  0
ENDBLK
  5
271
330
26F
100
AcDbEntity
  8
0
100
AcDbBlockEnd
  0
BLOCK
  5
28D
330
28C
100
AcDbEntity
  8
0
100
AcDbBlockBegin
  2
BLKF039
 70
     0
 10
0.0
 20
0.0
 30
0.0
  3
BLKF039
  1
BLKF039
  0
CIRCLE
  5
290
330
28C
100
AcDbEntity
  8
0
  6
ByBlock
 62
     0
370
    -2
100
AcDbCircle
 10
224.188235571164
 20
178.2196495879593
 30
0.0
 40
2.75
  0
LINE
  5
291
330
28C
100
AcDbEntity
  8
0
  6
ByBlock
 62
     0
370
    -2
100
AcDbLine
 10
223.738235571164
 20
180.0196495879593
 30
0.0
 11
224.638235571164
 21
180.0196495879593
 31
0.0
  0
LINE
  5
292
330
28C
100
AcDbEntity
  8
0
  6
ByBlock
 62
     0
370
    -2
100
AcDbLine
 10
225.988235571164
 20
178.6696495879592
 30
0.0
 11
225.988235571164
 21
177.7696495879593
 31
0.0
  0
LINE
  5
293
330
28C
100
AcDbEntity
  8
0
  6
ByBlock
 62
     0
370
    -2
100
AcDbLine
 10
223.738235571164
 20
176.4196495879592
 30
0.0
 11
224.638235571164
 21
176.4196495879592
 31
0.0
  0
LINE
  5
294
330
28C
100
AcDbEntity
  8
0
  6
ByBlock
 62
     0
370
    -2
100
AcDbLine
 10
222.388235571164
 20
178.6696495879592
 30
0.0
 11
222.388235571164
 21
177.7696495879593
 31
0.0
  0
LINE
  5
295
330
28C
100
AcDbEntity
  8
0
  6
ByBlock
 62
     0
370
    -2
100
AcDbLine
 10
224.638235571164
 20
180.0196495879593
 30
0.0
 11
224.638235571164
 21
179.1196495879593
 31
0.0
  0
LINE
  5
296
330
28C
100
AcDbEntity
  8
0
  6
ByBlock
 62
     0
370
    -2
100
AcDbLine
 10
223.738235571164
 20
180.0196495879593
 30
0.0
 11
223.738235571164
 21
179.1196495879593
 31
0.0
  0
LINE
  5
297
330
28C
100
AcDbEntity
  8
0
  6
ByBlock
 62
     0
370
    -2
100
AcDbLine
 10
224.638235571164
 20
177.3196495879592
 30
0.0
 11
224.638235571164
 21
176.4196495879592
 31
0.0
  0
LINE
  5
298
330
28C
100
AcDbEntity
  8
0
  6
ByBlock
 62
     0
370
    -2
100
AcDbLine
 10
223.738235571164
 20
177.3196495879592
 30
0.0
 11
223.738235571164
 21
176.4196495879592
 31
0.0
  0
LINE
  5
299
330
28C
100
AcDbEntity
  8
0
  6
ByBlock
 62
     0
370
    -2
100
AcDbLine
 10
222.388235571164
 20
178.6696495879592
 30
0.0
 11
223.288235571164
 21
178.6696495879592
 31
0.0
  0
LINE
  5
29A
330
28C
100
AcDbEntity
  8
0
  6
ByBlock
 62
     0
370
    -2
100
AcDbLine
 10
222.388235571164
 20
177.7696495879593
 30
0.0
 11
223.288235571164
 21
177.7696495879593
 31
0.0
  0
LINE
  5
29B
330
28C
100
AcDbEntity
  8
0
  6
ByBlock
 62
     0
370
    -2
100
AcDbLine
 10
225.088235571164
 20
178.6696495879592
 30
0.0
 11
225.988235571164
 21
178.6696495879592
 31
0.0
  0
LINE
  5
29C
330
28C
100
AcDbEntity
  8
0
  6
ByBlock
 62
     0
370
    -2
100
AcDbLine
 10
225.088235571164
 20
177.7696495879593
 30
0.0
 11
225.988235571164
 21
177.7696495879593
 31
0.0
  0
ARC
  5
29D
330
28C
100
AcDbEntity
  8
0
  6
ByBlock
 62
     0
370
    -2
100
AcDbCircle
 10
225.088235571164
 20
179.1196495879593
 30
0.0
 40
0.45
100
AcDbArc
 50
180.0
 51
270.0
  0
ARC
  5
29E
330
28C
100
AcDbEntity
  8
0
  6
ByBlock
 62
     0
370
    -2
100
AcDbCircle
 10
223.288235571164
 20
179.1196495879593
 30
0.0
 40
0.45
100
AcDbArc
 50
270.0
 51
0.0
  0
ARC
  5
29F
330
28C
100
AcDbEntity
  8
0
  6
ByBlock
 62
     0
370
    -2
100
AcDbCircle
 10
223.288235571164
 20
177.3196495879592
 30
0.0
 40
0.45
100
AcDbArc
 50
0.0
 51
90.0
  0
ARC
  5
2A0
330
28C
100
AcDbEntity
  8
0
  6
ByBlock
 62
     0
370
    -2
100
AcDbCircle
 10
225.088235571164
 20
177.3196495879592
 30
0.0
 40
0.45
100
AcDbArc
 50
90.0
 51
180.0
  0
ENDBLK
  5
28E
330
28C
100
AcDbEntity
  8
0
100
AcDbBlockEnd
  0
BLOCK
  5
2A4
330
2A3
100
AcDbEntity
  8
0
100
AcDbBlockBegin
  2
BLKF040
 70
     0
 10
0.0
 20
0.0
 30
0.0
  3
BLKF040
  1
BLKF040
  0
CIRCLE
  5
2A7
330
2A3
100
AcDbEntity
  8
0
  6
ByBlock
 62
     0
370
    -2
100
AcDbCircle
 10
190.688236571164
 20
146.7196515879592
 30
0.0
 40
2.25
  0
LINE
  5
2A8
330
2A3
100
AcDbEntity
  8
0
  6
ByBlock
 62
     0
370
    -2
100
AcDbLine
 10
190.363236571164
 20
148.0196515879593
 30
0.0
 11
191.013236571164
 21
148.0196515879593
 31
0.0
  0
LINE
  5
2A9
330
2A3
100
AcDbEntity
  8
0
  6
ByBlock
 62
     0
370
    -2
100
AcDbLine
 10
191.988236571164
 20
147.0446515879592
 30
0.0
 11
191.988236571164
 21
146.3946515879593
 31
0.0
  0
LINE
  5
2AA
330
2A3
100
AcDbEntity
  8
0
  6
ByBlock
 62
     0
370
    -2
100
AcDbLine
 10
190.363236571164
 20
145.4196515879592
 30
0.0
 11
191.013236571164
 21
145.4196515879592
 31
0.0
  0
LINE
  5
2AB
330
2A3
100
AcDbEntity
  8
0
  6
ByBlock
 62
     0
370
    -2
100
AcDbLine
 10
189.388236571164
 20
147.0446515879592
 30
0.0
 11
189.388236571164
 21
146.3946515879593
 31
0.0
  0
LINE
  5
2AC
330
2A3
100
AcDbEntity
  8
0
  6
ByBlock
 62
     0
370
    -2
100
AcDbLine
 10
191.013236571164
 20
148.0196515879593
 30
0.0
 11
191.013236571164
 21
147.3696515879593
 31
0.0
  0
LINE
  5
2AD
330
2A3
100
AcDbEntity
  8
0
  6
ByBlock
 62
     0
370
    -2
100
AcDbLine
 10
190.363236571164
 20
148.0196515879593
 30
0.0
 11
190.363236571164
 21
147.3696515879593
 31
0.0
  0
LINE
  5
2AE
330
2A3
100
AcDbEntity
  8
0
  6
ByBlock
 62
     0
370
    -2
100
AcDbLine
 10
191.013236571164
 20
146.0696515879592
 30
0.0
 11
191.013236571164
 21
145.4196515879592
 31
0.0
  0
LINE
  5
2AF
330
2A3
100
AcDbEntity
  8
0
  6
ByBlock
 62
     0
370
    -2
100
AcDbLine
 10
190.363236571164
 20
146.0696515879592
 30
0.0
 11
190.363236571164
 21
145.4196515879592
 31
0.0
  0
LINE
  5
2B0
330
2A3
100
AcDbEntity
  8
0
  6
ByBlock
 62
     0
370
    -2
100
AcDbLine
 10
189.388236571164
 20
147.0446515879592
 30
0.0
 11
190.038236571164
 21
147.0446515879592
 31
0.0
  0
LINE
  5
2B1
330
2A3
100
AcDbEntity
  8
0
  6
ByBlock
 62
     0
370
    -2
100
AcDbLine
 10
189.388236571164
 20
146.3946515879593
 30
0.0
 11
190.038236571164
 21
146.3946515879593
 31
0.0
  0
LINE
  5
2B2
330
2A3
100
AcDbEntity
  8
0
  6
ByBlock
 62
     0
370
    -2
100
AcDbLine
 10
191.338236571164
 20
147.0446515879592
 30
0.0
 11
191.988236571164
 21
147.0446515879592
 31
0.0
  0
LINE
  5
2B3
330
2A3
100
AcDbEntity
  8
0
  6
ByBlock
 62
     0
370
    -2
100
AcDbLine
 10
191.338236571164
 20
146.3946515879593
 30
0.0
 11
191.988236571164
 21
146.3946515879593
 31
0.0
  0
ARC
  5
2B4
330
2A3
100
AcDbEntity
  8
0
  6
ByBlock
 62
     0
370
    -2
100
AcDbCircle
 10
191.338236571164
 20
147.3696515879593
 30
0.0
 40
0.325
100
AcDbArc
 50
180.0
 51
270.0
  0
ARC
  5
2B5
330
2A3
100
AcDbEntity
  8
0
  6
ByBlock
 62
     0
370
    -2
100
AcDbCircle
 10
190.038236571164
 20
147.3696515879593
 30
0.0
 40
0.325
100
AcDbArc
 50
270.0
 51
0.0
  0
ARC
  5
2B6
330
2A3
100
AcDbEntity
  8
0
  6
ByBlock
 62
     0
370
    -2
100
AcDbCircle
 10
190.038236571164
 20
146.0696515879592
 30
0.0
 40
0.325
100
AcDbArc
 50
0.0
 51
90.0
  0
ARC
  5
2B7
330
2A3
100
AcDbEntity
  8
0
  6
ByBlock
 62
     0
370
    -2
100
AcDbCircle
 10
191.338236571164
 20
146.0696515879592
 30
0.0
 40
0.325
100
AcDbArc
 50
90.0
 51
180.0
  0
ENDBLK
  5
2A5
330
2A3
100
AcDbEntity
  8
0
100
AcDbBlockEnd
  0
BLOCK
  5
2BA
330
2B9
100
AcDbEntity
  8
0
100
AcDbBlockBegin
  2
BLKF041
 70
     0
 10
0.0
 20
0.0
 30
0.0
  3
BLKF041
  1
BLKF041
  0
LINE
  5
2BD
330
2B9
100
AcDbEntity
  8
0
  6
ByBlock
 62
     0
370
    -2
100
AcDbLine
 10
188.4395327562765
 20
84.53536224580192
 30
0.0
 11
188.4786551407858
 21
85.28186181217366
 31
0.0
  0
LINE
  5
2BE
330
2B9
100
AcDbEntity
  8
0
  6
ByBlock
 62
     0
370
    -2
100
AcDbLine
 10
192.9395327562765
 20
84.53536224580192
 30
0.0
 11
192.9004103717672
 21
85.28186181217366
 31
0.0
  0
LINE
  5
2BF
330
2B9
100
AcDbEntity
  8
0
  6
ByBlock
 62
     0
370
    -2
100
AcDbLine
 10
188.4395327562765
 20
84.53536224580192
 30
0.0
 11
192.9395327562765
 21
84.53536224580192
 31
0.0
  0
ARC
  5
2C0
330
2B9
100
AcDbEntity
  8
0
  6
ByBlock
 62
     0
370
    -2
100
AcDbCircle
 10
189.2775587685895
 20
85.2399930471793
 30
0.0
 40
0.8
100
AcDbArc
 50
105.755536998594
 51
176.9999999999995
  0
ARC
  5
2C1
330
2B9
100
AcDbEntity
  8
0
  6
ByBlock
 62
     0
370
    -2
100
AcDbCircle
 10
192.1015067439635
 20
85.2399930471793
 30
0.0
 40
0.8
100
AcDbArc
 50
3.000000000000455
 51
74.24446300140605
  0
ARC
  5
2C2
330
2B9
100
AcDbEntity
  8
0
  6
ByBlock
 62
     0
370
    -2
100
AcDbCircle
 10
190.6895327562765
 20
80.23536224580192
 30
0.0
 40
6.0
100
AcDbArc
 50
74.24446300140605
 51
105.755536998594
  0
ENDBLK
  5
2BB
330
2B9
100
AcDbEntity
  8
0
100
AcDbBlockEnd
  0
BLOCK
  5
2C4
330
2C3
100
AcDbEntity
  8
0
100
AcDbBlockBegin
  2
BLKF042
 70
     0
 10
0.0
 20
0.0
 30
0.0
  3
BLKF042
  1
BLKF042
  0
LINE
  5
2C7
330
2C3
100
AcDbEntity
  8
0
  6
ByBlock
 62
     0
370
    -2
100
AcDbLine
 10
221.4382385711639
 20
81.83536224580197
 30
0.0
 11
221.4803599758266
 21
82.63908652564967
 31
0.0
  0
LINE
  5
2C8
330
2C3
100
AcDbEntity
  8
0
  6
ByBlock
 62
     0
370
    -2
100
AcDbLine
 10
226.9382385711639
 20
81.83536224580197
 30
0.0
 11
226.8961171665012
 21
82.63908652564967
 31
0.0
  0
LINE
  5
2C9
330
2C3
100
AcDbEntity
  8
0
  6
ByBlock
 62
     0
370
    -2
100
AcDbLine
 10
221.4382385711639
 20
81.83536224580197
 30
0.0
 11
226.9382385711639
 21
81.83536224580197
 31
0.0
  0
ARC
  5
2CA
330
2C3
100
AcDbEntity
  8
0
  6
ByBlock
 62
     0
370
    -2
100
AcDbCircle
 10
222.4789895105812
 20
82.58675056940673
 30
0.0
 40
1.0
100
AcDbArc
 50
106.5513675242197
 51
177.0000000000003
  0
ARC
  5
2CB
330
2C3
100
AcDbEntity
  8
0
  6
ByBlock
 62
     0
370
    -2
100
AcDbCircle
 10
225.8974876317466
 20
82.58675056940673
 30
0.0
 40
1.0
100
AcDbArc
 50
2.999999999999716
 51
73.44863247578034
  0
ARC
  5
2CC
330
2C3
100
AcDbEntity
  8
0
  6
ByBlock
 62
     0
370
    -2
100
AcDbCircle
 10
224.1882385711639
 20
76.83536224580197
 30
0.0
 40
7.0
100
AcDbArc
 50
73.44863247578034
 51
106.5513675242197
  0
LINE
  5
2CD
330
2C3
100
AcDbEntity
  8
0
  6
ByBlock
 62
     0
370
    -2
100
AcDbLine
 10
221.2382385711638
 20
81.83536224580197
 30
0.0
 11
221.2382385711638
 21
81.13536224580197
 31
0.0
  0
LINE
  5
2CE
330
2C3
100
AcDbEntity
  8
0
  6
ByBlock
 62
     0
370
    -2
100
AcDbLine
 10
221.2382385711638
 20
81.13536224580197
 30
0.0
 11
227.1382385711639
 21
81.13536224580197
 31
0.0
  0
LINE
  5
2CF
330
2C3
100
AcDbEntity
  8
0
  6
ByBlock
 62
     0
370
    -2
100
AcDbLine
 10
227.1382385711639
 20
81.13536224580197
 30
0.0
 11
227.1382385711639
 21
81.83536224580197
 31
0.0
  0
LINE
  5
2D0
330
2C3
100
AcDbEntity
  8
0
  6
ByBlock
 62
     0
370
    -2
100
AcDbLine
 10
227.1382385711639
 20
81.83536224580197
 30
0.0
 11
221.2382385711638
 21
81.83536224580197
 31
0.0
  0
LINE
  5
2D1
330
2C3
100
AcDbEntity
  8
0
  6
ByBlock
 62
     0
370
    -2
100
AcDbLine
 10
223.7840933827312
 20
81.83536224580197
 30
0.0
 11
224.1882385711639
 21
81.13536224580197
 31
0.0
  0
LINE
  5
2D2
330
2C3
100
AcDbEntity
  8
0
  6
ByBlock
 62
     0
370
    -2
100
AcDbLine
 10
224.1882385711639
 20
81.83536224580197
 30
0.0
 11
224.5923837595966
 21
81.13536224580197
 31
0.0
  0
ENDBLK
  5
2C5
330
2C3
100
AcDbEntity
  8
0
100
AcDbBlockEnd
  0
ENDSEC
  0
SECTION
  2
ENTITIES
  0
INSERT
  5
DF
330
1F
100
AcDbEntity
  8
基準ﾚｲﾔｸﾞﾙｰﾌﾟ_01
 62
     7
100
AcDbBlockReference
  2
BLKF023
 10
0.0
 20
0.0
 30
0.0
  0
TEXT
  5
F2
330
1F
100
AcDbEntity
  8
基準ﾚｲﾔｸﾞﾙｰﾌﾟ_01
 62
     7
100
AcDbText
 10
336.7079162597656
 20
12.6154899597168
 30
0.0
 40
4.0
  1
ＳＲＣ－１０
 41
1.2
 51
10.0
  7
FX_VECTOR
 72
     5
 11
360.7079162597656
 21
12.6154899597168
 31
0.0
100
AcDbText
  0
TEXT
  5
F3
330
1F
100
AcDbEntity
  8
基準ﾚｲﾔｸﾞﾙｰﾌﾟ_01
 62
     7
100
AcDbText
 10
336.7119140625
 20
18.54879760742188
 30
0.0
 40
3.5
  1
１：１　Ａ３
 41
1.2
 51
10.0
  7
FX_VECTOR
 72
     5
 11
357.7119140625
 21
18.54879760742188
 31
0.0
100
AcDbText
  0
INSERT
  5
F7
330
1F
100
AcDbEntity
  8
基準ﾚｲﾔｸﾞﾙｰﾌﾟ_01
370
    40
100
AcDbBlockReference
  2
BLKF025
 10
0.0
 20
0.0
 30
0.0
  0
INSERT
  5
122
330
1F
100
AcDbEntity
  8
基準ﾚｲﾔｸﾞﾙｰﾌﾟ_01
370
    40
100
AcDbBlockReference
  2
BLKF026
 10
0.0
 20
0.0
 30
0.0
  0
INSERT
  5
1B8
330
1F
100
AcDbEntity
  8
基準ﾚｲﾔｸﾞﾙｰﾌﾟ_01
370
    40
100
AcDbBlockReference
  2
BLKF029
 10
0.0
 20
0.0
 30
0.0
  0
LINE
  5
1C2
330
1F
100
AcDbEntity
  8
基準ﾚｲﾔｸﾞﾙｰﾌﾟ_01
370
    40
100
AcDbLine
 10
132.6882365711639
 20
155.1446545879593
 30
0.0
 11
132.6882365711639
 21
157.4946545879592
 31
0.0
  0
LINE
  5
1C3
330
1F
100
AcDbEntity
  8
基準ﾚｲﾔｸﾞﾙｰﾌﾟ_01
370
    40
100
AcDbLine
 10
147.6882365711639
 20
155.1446545879593
 30
0.0
 11
147.6882365711639
 21
157.4946545879592
 31
0.0
  0
LINE
  5
1C4
330
1F
100
AcDbEntity
  8
基準ﾚｲﾔｸﾞﾙｰﾌﾟ_01
370
    40
100
AcDbLine
 10
147.6882365711639
 20
167.0246535879593
 30
0.0
 11
147.6882365711639
 21
169.3746535879592
 31
0.0
  0
LINE
  5
1C5
330
1F
100
AcDbEntity
  8
基準ﾚｲﾔｸﾞﾙｰﾌﾟ_01
370
    40
100
AcDbLine
 10
132.6882365711639
 20
167.0246535879593
 30
0.0
 11
132.6882365711639
 21
169.3746535879592
 31
0.0
  0
LINE
  5
1C6
330
1F
100
AcDbEntity
  8
基準ﾚｲﾔｸﾞﾙｰﾌﾟ_01
370
    40
100
AcDbLine
 10
151.188236571164
 20
169.3746535879592
 30
0.0
 11
151.188236571164
 21
167.0246535879592
 31
0.0
  0
LINE
  5
1C7
330
1F
100
AcDbEntity
  8
基準ﾚｲﾔｸﾞﾙｰﾌﾟ_01
370
    40
100
AcDbLine
 10
151.188236571164
 20
168.8068552896013
 30
0.0
 11
147.6882365711639
 21
168.8115806637926
 31
0.0
  0
LINE
  5
1C8
330
1F
100
AcDbEntity
  8
基準ﾚｲﾔｸﾞﾙｰﾌﾟ_01
370
    40
100
AcDbLine
 10
151.188236571164
 20
167.5968541868146
 30
0.0
 11
147.6882365711639
 21
167.6015795610062
 31
0.0
  0
HATCH
  5
1C9
330
1F
100
AcDbEntity
  8
基準ﾚｲﾔｸﾞﾙｰﾌﾟ_01
 62
     7
100
AcDbHatch
 10
0.0
 20
0.0
 30
0.0
210
0.0
220
0.0
230
1.0
  2
_USER
 70
     0
 71
     0
 91
        2
 92
        0
 93
        4
 72
     1
 10
151.188236571164
 20
168.8068552896013
 11
147.6882365711639
 21
168.8115806637927
 72
     1
 10
147.6882365711639
 20
168.8115806637927
 11
147.6882365711639
 21
168.2065801123994
 72
     1
 10
147.6882365711639
 20
168.2065801123994
 11
151.188236571164
 21
168.201854738208
 72
     1
 10
151.188236571164
 20
168.201854738208
 11
151.188236571164
 21
168.8068552896013
 97
        0
 92
        0
 93
        5
 72
     1
 10
151.188236571164
 20
168.201854738208
 11
147.6882365711639
 21
168.2065801123994
 72
     1
 10
147.6882365711639
 20
168.2065801123994
 11
147.6882365711639
 21
167.6015795610062
 72
     1
 10
147.6882365711639
 20
167.6015795610062
 11
151.188236571164
 21
167.5968541868146
 72
     1
 10
151.188236571164
 20
167.5968541868146
 11
151.188236571164
 21
167.8996084769696
 72
     1
 10
151.188236571164
 20
167.8996084769696
 11
151.188236571164
 21
168.201854738208
 97
        0
 75
     0
 76
     0
 52
45.0
 41
0.5
 77
     0
 78
     1
 53
45.0
 43
0.0
 44
0.0
 45
-0.3535533905932737
 46
0.3535533905932738
 79
     0
 98
        0
  0
LINE
  5
1CA
330
1F
100
AcDbEntity
  8
基準ﾚｲﾔｸﾞﾙｰﾌﾟ_01
370
    40
100
AcDbLine
 10
151.188236571164
 20
156.9268562896013
 30
0.0
 11
147.6882365711639
 21
156.9315816637926
 31
0.0
  0
LINE
  5
1CB
330
1F
100
AcDbEntity
  8
基準ﾚｲﾔｸﾞﾙｰﾌﾟ_01
370
    40
100
AcDbLine
 10
151.188236571164
 20
155.7168551868146
 30
0.0
 11
147.6882365711639
 21
155.7215805610062
 31
0.0
  0
HATCH
  5
1CC
330
1F
100
AcDbEntity
  8
基準ﾚｲﾔｸﾞﾙｰﾌﾟ_01
 62
     7
100
AcDbHatch
 10
0.0
 20
0.0
 30
0.0
210
0.0
220
0.0
230
1.0
  2
_USER
 70
     0
 71
     0
 91
        2
 92
        0
 93
        4
 72
     1
 10
151.188236571164
 20
156.9268562896013
 11
147.6882365711639
 21
156.9315816637926
 72
     1
 10
147.6882365711639
 20
156.9315816637926
 11
147.6882365711639
 21
156.3265811123994
 72
     1
 10
147.6882365711639
 20
156.3265811123994
 11
151.188236571164
 21
156.3218557382079
 72
     1
 10
151.188236571164
 20
156.3218557382079
 11
151.188236571164
 21
156.9268562896013
 97
        0
 92
        0
 93
        5
 72
     1
 10
151.188236571164
 20
156.3218557382079
 11
147.6882365711639
 21
156.3265811123994
 72
     1
 10
147.6882365711639
 20
156.3265811123994
 11
147.6882365711639
 21
155.7215805610062
 72
     1
 10
147.6882365711639
 20
155.7215805610062
 11
151.188236571164
 21
155.7168551868146
 72
     1
 10
151.188236571164
 20
155.7168551868146
 11
151.188236571164
 21
156.0196094769696
 72
     1
 10
151.188236571164
 20
156.0196094769696
 11
151.188236571164
 21
156.3218557382079
 97
        0
 75
     0
 76
     0
 52
45.0
 41
0.5
 77
     0
 78
     1
 53
45.0
 43
0.0
 44
0.0
 45
-0.3535533905932737
 46
0.3535533905932738
 79
     0
 98
        0
  0
LINE
  5
1CD
330
1F
100
AcDbEntity
  8
基準ﾚｲﾔｸﾞﾙｰﾌﾟ_01
370
    40
100
AcDbLine
 10
151.188236571164
 20
157.4946545879592
 30
0.0
 11
151.188236571164
 21
155.1446545879592
 31
0.0
  0
INSERT
  5
1D1
330
1F
100
AcDbEntity
  8
基準ﾚｲﾔｸﾞﾙｰﾌﾟ_01
370
    40
100
AcDbBlockReference
  2
BLKF030
 10
0.0
 20
0.0
 30
0.0
  0
INSERT
  5
1D8
330
1F
100
AcDbEntity
  8
基準ﾚｲﾔｸﾞﾙｰﾌﾟ_01
370
    40
100
AcDbBlockReference
  2
BLKF031
 10
0.0
 20
0.0
 30
0.0
  0
INSERT
  5
1DF
330
1F
100
AcDbEntity
  8
基準ﾚｲﾔｸﾞﾙｰﾌﾟ_01
370
    40
100
AcDbBlockReference
  2
BLKF032
 10
0.0
 20
0.0
 30
0.0
  0
INSERT
  5
1E6
330
1F
100
AcDbEntity
  8
基準ﾚｲﾔｸﾞﾙｰﾌﾟ_01
370
    40
100
AcDbBlockReference
  2
BLKF033
 10
0.0
 20
0.0
 30
0.0
  0
HATCH
  5
1EA
330
1F
100
AcDbEntity
  8
基準ﾚｲﾔｸﾞﾙｰﾌﾟ_01
 62
     7
100
AcDbHatch
 10
0.0
 20
0.0
 30
0.0
210
0.0
220
0.0
230
1.0
  2
_USER
 70
     0
 71
     0
 91
        1
 92
        0
 93
        3
 72
     1
 10
161.0263844461812
 20
168.1885721867619
 11
161.0119802168456
 21
168.1885916340117
 72
     2
 10
161.9102177582563
 20
167.6121535879592
 40
1.067291666666685
 50
147.3099478640559
 51
213.3984884679888
 73
     1
 72
     2
 10
160.1281344249229
 20
167.6121535879592
 40
1.067291666666697
 50
326.6015115320116
 51
392.6888116649845
 73
     1
 97
        0
 75
     0
 76
     0
 52
0.0
 41
0.1
 77
     0
 78
     1
 53
0.0
 43
0.0
 44
0.0
 45
0.0
 46
0.1
 79
     0
 98
        0
  0
HATCH
  5
1EB
330
1F
100
AcDbEntity
  8
基準ﾚｲﾔｸﾞﾙｰﾌﾟ_01
 62
     7
100
AcDbHatch
 10
0.0
 20
0.0
 30
0.0
210
0.0
220
0.0
230
1.0
  2
_USER
 70
     0
 71
     0
 91
        1
 92
        0
 93
        2
 72
     2
 10
157.1420406313641
 20
168.7871535879594
 40
1.067291666666711
 50
146.601511532014
 51
213.398488467986
 73
     1
 72
     2
 10
155.3599572980307
 20
168.7871535879594
 40
1.067291666666705
 50
326.6015115320125
 51
393.3984884679862
 73
     1
 97
        0
 75
     0
 76
     0
 52
0.0
 41
0.1
 77
     0
 78
     1
 53
0.0
 43
0.0
 44
0.0
 45
0.0
 46
0.1
 79
     0
 98
        0
  0
HATCH
  5
1EC
330
1F
100
AcDbEntity
  8
基準ﾚｲﾔｸﾞﾙｰﾌﾟ_01
 62
     7
100
AcDbHatch
 10
0.0
 20
0.0
 30
0.0
210
0.0
220
0.0
230
1.0
  2
_USER
 70
     0
 71
     0
 91
        1
 92
        0
 93
        2
 72
     2
 10
156.5719390668274
 20
156.9071545879591
 40
1.06729166666666
 50
146.601511532014
 51
213.398488467986
 73
     1
 72
     2
 10
154.7898557334942
 20
156.9071545879591
 40
1.067291666666648
 50
326.6015115320123
 51
393.3984884679865
 73
     1
 97
        0
 75
     0
 76
     0
 52
0.0
 41
0.1
 77
     0
 78
     1
 53
0.0
 43
0.0
 44
0.0
 45
0.0
 46
0.1
 79
     0
 98
        0
  0
HATCH
  5
1ED
330
1F
100
AcDbEntity
  8
基準ﾚｲﾔｸﾞﾙｰﾌﾟ_01
 62
     7
100
AcDbHatch
 10
0.0
 20
0.0
 30
0.0
210
0.0
220
0.0
230
1.0
  2
_USER
 70
     0
 71
     0
 91
        1
 92
        0
 93
        3
 72
     1
 10
160.4557894360851
 20
156.309343551029
 11
160.4423740105741
 21
156.3093616632877
 72
     2
 10
161.3401175674583
 20
155.7321545879592
 40
1.067291666666721
 50
147.2608803886914
 51
213.3984884679875
 73
     1
 72
     2
 10
159.5580342341249
 20
155.7321545879592
 40
1.067291666666721
 50
326.6015115320125
 51
392.7379636584274
 73
     1
 97
        0
 75
     0
 76
     0
 52
0.0
 41
0.1
 77
     0
 78
     1
 53
0.0
 43
0.0
 44
0.0
 45
0.0
 46
0.1
 79
     0
 98
        0
  0
LINE
  5
1EE
330
1F
100
AcDbEntity
  8
基準ﾚｲﾔｸﾞﾙｰﾌﾟ_01
  6
一点鎖線
 62
     7
100
AcDbLine
 10
257.6882355711638
 20
139.7442113771739
 30
0.0
 11
257.6882355711638
 21
153.7576213388607
 31
0.0
  0
LINE
  5
1EF
330
1F
100
AcDbEntity
  8
基準ﾚｲﾔｸﾞﾙｰﾌﾟ_01
  6
一点鎖線
 62
     7
100
AcDbLine
 10
167.6882355711638
 20
188.3380811089777
 30
0.0
 11
167.6882355711638
 21
174.5353991166398
 31
0.0
  0
LINE
  5
1F0
330
1F
100
AcDbEntity
  8
基準ﾚｲﾔｸﾞﾙｰﾌﾟ_01
  6
一点鎖線
 62
     7
100
AcDbLine
 10
174.8060700588291
 20
181.2196495879595
 30
0.0
 11
162.8060700588291
 21
181.2196495879595
 31
0.0
  0
LINE
  5
1F1
330
1F
100
AcDbEntity
  8
基準ﾚｲﾔｸﾞﾙｰﾌﾟ_01
370
    40
100
AcDbLine
 10
261.6882355711638
 20
135.2196495879595
 30
0.0
 11
261.6882355711638
 21
143.9696495879595
 31
0.0
  0
LINE
  5
1F2
330
1F
100
AcDbEntity
  8
基準ﾚｲﾔｸﾞﾙｰﾌﾟ_01
370
    40
100
AcDbLine
 10
261.6882355711638
 20
148.4696495879595
 30
0.0
 11
261.6882355711638
 21
192.2196495879595
 31
0.0
  0
LINE
  5
1F3
330
1F
100
AcDbEntity
  8
基準ﾚｲﾔｸﾞﾙｰﾌﾟ_01
370
    40
100
AcDbLine
 10
163.6882355711637
 20
192.2196495879595
 30
0.0
 11
163.6882355711637
 21
183.4696495879595
 31
0.0
  0
LINE
  5
1F4
330
1F
100
AcDbEntity
  8
基準ﾚｲﾔｸﾞﾙｰﾌﾟ_01
370
    40
100
AcDbLine
 10
163.6882355711637
 20
178.9696495879595
 30
0.0
 11
163.6882355711637
 21
169.3746535879592
 31
0.0
  0
LINE
  5
1F5
330
1F
100
AcDbEntity
  8
基準ﾚｲﾔｸﾞﾙｰﾌﾟ_01
370
    40
100
AcDbLine
 10
166.6882355711637
 20
132.2196495879595
 30
0.0
 11
258.6882355711638
 21
132.2196495879595
 31
0.0
  0
LINE
  5
1F6
330
1F
100
AcDbEntity
  8
基準ﾚｲﾔｸﾞﾙｰﾌﾟ_01
370
    40
100
AcDbLine
 10
258.6882355711638
 20
195.2196495879595
 30
0.0
 11
166.6882355711637
 21
195.2196495879595
 31
0.0
  0
LINE
  5
1F7
330
1F
100
AcDbEntity
  8
基準ﾚｲﾔｸﾞﾙｰﾌﾟ_01
370
    40
100
AcDbLine
 10
166.6882355711637
 20
195.2196495879595
 30
0.0
 11
163.6882355711637
 21
192.2196495879595
 31
0.0
  0
LINE
  5
1F8
330
1F
100
AcDbEntity
  8
基準ﾚｲﾔｸﾞﾙｰﾌﾟ_01
370
    40
100
AcDbLine
 10
261.6882355711638
 20
192.2196495879595
 30
0.0
 11
258.6882355711638
 21
195.2196495879595
 31
0.0
  0
LINE
  5
1F9
330
1F
100
AcDbEntity
  8
基準ﾚｲﾔｸﾞﾙｰﾌﾟ_01
370
    40
100
AcDbLine
 10
261.6882355711638
 20
135.2196495879595
 30
0.0
 11
258.6882355711638
 21
132.2196495879595
 31
0.0
  0
LINE
  5
1FA
330
1F
100
AcDbEntity
  8
基準ﾚｲﾔｸﾞﾙｰﾌﾟ_01
370
    40
100
AcDbLine
 10
166.6882355711637
 20
132.2196495879595
 30
0.0
 11
163.6882355711637
 21
135.2196495879595
 31
0.0
  0
ARC
  5
1FB
330
1F
100
AcDbEntity
  8
基準ﾚｲﾔｸﾞﾙｰﾌﾟ_01
370
    40
100
AcDbCircle
 10
167.6882355711638
 20
181.2196495879595
 30
0.0
 40
2.25
100
AcDbArc
 50
269.9999999999993
 51
90.00000000000072
  0
LINE
  5
1FC
330
1F
100
AcDbEntity
  8
基準ﾚｲﾔｸﾞﾙｰﾌﾟ_01
370
    40
100
AcDbLine
 10
167.6882355711638
 20
178.9696495879595
 30
0.0
 11
163.6882355711637
 21
178.9696495879595
 31
0.0
  0
LINE
  5
1FD
330
1F
100
AcDbEntity
  8
基準ﾚｲﾔｸﾞﾙｰﾌﾟ_01
370
    40
100
AcDbLine
 10
167.6882355711638
 20
183.4696495879595
 30
0.0
 11
163.6882355711637
 21
183.4696495879595
 31
0.0
  0
ARC
  5
1FE
330
1F
100
AcDbEntity
  8
基準ﾚｲﾔｸﾞﾙｰﾌﾟ_01
370
    40
100
AcDbCircle
 10
257.6882355711638
 20
146.2196495879595
 30
0.0
 40
2.25
100
AcDbArc
 50
90.0
 51
270.0
  0
LINE
  5
1FF
330
1F
100
AcDbEntity
  8
基準ﾚｲﾔｸﾞﾙｰﾌﾟ_01
370
    40
100
AcDbLine
 10
257.6882355711638
 20
143.9696495879595
 30
0.0
 11
261.6882355711638
 21
143.9696495879595
 31
0.0
  0
LINE
  5
200
330
1F
100
AcDbEntity
  8
基準ﾚｲﾔｸﾞﾙｰﾌﾟ_01
370
    40
100
AcDbLine
 10
257.6882355711638
 20
148.4696495879595
 30
0.0
 11
261.6882355711638
 21
148.4696495879595
 31
0.0
  0
LINE
  5
201
330
1F
100
AcDbEntity
  8
基準ﾚｲﾔｸﾞﾙｰﾌﾟ_01
  6
一点鎖線
 62
     7
100
AcDbLine
 10
172.3921804157579
 20
139.2196495879595
 30
0.0
 11
180.3921804157579
 21
139.2196495879595
 31
0.0
  0
LINE
  5
202
330
1F
100
AcDbEntity
  8
基準ﾚｲﾔｸﾞﾙｰﾌﾟ_01
  6
一点鎖線
 62
     7
100
AcDbLine
 10
175.6882355711637
 20
143.5636318970986
 30
0.0
 11
175.6882355711637
 21
135.5636318970986
 31
0.0
  0
LINE
  5
203
330
1F
100
AcDbEntity
  8
基準ﾚｲﾔｸﾞﾙｰﾌﾟ_01
  6
一点鎖線
 62
     7
100
AcDbLine
 10
171.6710344374957
 20
188.2196495879599
 30
0.0
 11
179.6710344374957
 21
188.2196495879599
 31
0.0
  0
LINE
  5
204
330
1F
100
AcDbEntity
  8
基準ﾚｲﾔｸﾞﾙｰﾌﾟ_01
  6
一点鎖線
 62
     7
100
AcDbLine
 10
175.6882355711637
 20
192.8326902345798
 30
0.0
 11
175.6882355711637
 21
183.8326902345798
 31
0.0
  0
LINE
  5
205
330
1F
100
AcDbEntity
  8
基準ﾚｲﾔｸﾞﾙｰﾌﾟ_01
  6
一点鎖線
 62
     7
100
AcDbLine
 10
245.2960622338998
 20
188.2196495879596
 30
0.0
 11
253.2960622338998
 21
188.2196495879596
 31
0.0
  0
LINE
  5
206
330
1F
100
AcDbEntity
  8
基準ﾚｲﾔｸﾞﾙｰﾌﾟ_01
  6
一点鎖線
 62
     7
100
AcDbLine
 10
249.6882355711637
 20
192.8326902345798
 30
0.0
 11
249.6882355711637
 21
183.8326902345798
 31
0.0
  0
LINE
  5
207
330
1F
100
AcDbEntity
  8
基準ﾚｲﾔｸﾞﾙｰﾌﾟ_01
  6
一点鎖線
 62
     7
100
AcDbLine
 10
243.5154023297099
 20
139.2196495879594
 30
0.0
 11
255.5656511516601
 21
139.2196495879594
 31
0.0
  0
LINE
  5
208
330
1F
100
AcDbEntity
  8
基準ﾚｲﾔｸﾞﾙｰﾌﾟ_01
  6
一点鎖線
 62
     7
100
AcDbLine
 10
249.6882355711637
 20
145.9437132012276
 30
0.0
 11
249.6882355711637
 21
133.2273702232903
 31
0.0
  0
CIRCLE
  5
209
330
1F
100
AcDbEntity
  8
基準ﾚｲﾔｸﾞﾙｰﾌﾟ_01
370
    40
100
AcDbCircle
 10
249.6882355711637
 20
139.2196495879595
 30
0.0
 40
1.75
  0
CIRCLE
  5
20A
330
1F
100
AcDbEntity
  8
基準ﾚｲﾔｸﾞﾙｰﾌﾟ_01
370
    40
100
AcDbCircle
 10
249.6882355711637
 20
188.2196495879596
 30
0.0
 40
1.75
  0
CIRCLE
  5
20B
330
1F
100
AcDbEntity
  8
基準ﾚｲﾔｸﾞﾙｰﾌﾟ_01
370
    40
100
AcDbCircle
 10
175.6882355711637
 20
139.2196495879595
 30
0.0
 40
1.75
  0
CIRCLE
  5
20C
330
1F
100
AcDbEntity
  8
基準ﾚｲﾔｸﾞﾙｰﾌﾟ_01
370
    40
100
AcDbCircle
 10
175.6882355711637
 20
188.2196495879599
 30
0.0
 40
1.75
  0
LINE
  5
20D
330
1F
100
AcDbEntity
  8
基準ﾚｲﾔｸﾞﾙｰﾌﾟ_01
  6
一点鎖線
 62
     7
100
AcDbLine
 10
251.8771972524385
 20
146.2196495879595
 30
0.0
 11
263.584306660698
 21
146.2196495879595
 31
0.0
  0
INSERT
  5
211
330
1F
100
AcDbEntity
  8
基準ﾚｲﾔｸﾞﾙｰﾌﾟ_01
  6
一点鎖線
 62
     7
100
AcDbBlockReference
  2
BLKF034
 10
0.0
 20
0.0
 30
0.0
  0
LINE
  5
222
330
1F
100
AcDbEntity
  8
基準ﾚｲﾔｸﾞﾙｰﾌﾟ_01
370
    40
100
AcDbLine
 10
163.6882355711637
 20
167.0246535879592
 30
0.0
 11
163.6882355711637
 21
157.4946545879592
 31
0.0
  0
LINE
  5
223
330
1F
100
AcDbEntity
  8
基準ﾚｲﾔｸﾞﾙｰﾌﾟ_01
370
    40
100
AcDbLine
 10
163.6882355711637
 20
155.1446545879593
 30
0.0
 11
163.6882355711637
 21
135.2196495879595
 31
0.0
  0
LINE
  5
224
330
1F
100
AcDbEntity
  8
基準ﾚｲﾔｸﾞﾙｰﾌﾟ_01
370
    40
100
AcDbLine
 10
187.6882380711639
 20
82.93536224580193
 30
0.0
 11
187.6882380711639
 21
84.53536224580193
 31
0.0
  0
LINE
  5
225
330
1F
100
AcDbEntity
  8
基準ﾚｲﾔｸﾞﾙｰﾌﾟ_01
370
    40
100
AcDbLine
 10
227.6882360711639
 20
82.93536224580193
 30
0.0
 11
227.6882360711639
 21
84.53536224580193
 31
0.0
  0
LINE
  5
226
330
1F
100
AcDbEntity
  8
基準ﾚｲﾔｸﾞﾙｰﾌﾟ_01
  6
一点鎖線
 62
     7
100
AcDbLine
 10
224.1882385711639
 20
73.27112555986754
 30
0.0
 11
224.1882385711639
 21
86.31204199115228
 31
0.0
  0
LINE
  5
227
330
1F
100
AcDbEntity
  8
基準ﾚｲﾔｸﾞﾙｰﾌﾟ_01
370
    40
100
AcDbLine
 10
187.6882380711639
 20
84.53536224580193
 30
0.0
 11
227.6882360711639
 21
84.53536224580193
 31
0.0
  0
LINE
  5
228
330
1F
100
AcDbEntity
  8
基準ﾚｲﾔｸﾞﾙｰﾌﾟ_01
370
    40
100
AcDbLine
 10
187.6882380711639
 20
82.93536224580193
 30
0.0
 11
221.5417222599632
 21
82.93536224580193
 31
0.0
  0
LINE
  5
229
330
1F
100
AcDbEntity
  8
基準ﾚｲﾔｸﾞﾙｰﾌﾟ_01
370
    40
100
AcDbLine
 10
188.838240571164
 20
78.43536224580193
 30
0.0
 11
188.838240571164
 21
82.93536224580193
 31
0.0
  0
LINE
  5
22A
330
1F
100
AcDbEntity
  8
基準ﾚｲﾔｸﾞﾙｰﾌﾟ_01
370
    40
100
AcDbLine
 10
192.5382405711639
 20
78.43536224580193
 30
0.0
 11
192.5382405711639
 21
82.93536224580193
 31
0.0
  0
LINE
  5
22B
330
1F
100
AcDbEntity
  8
基準ﾚｲﾔｸﾞﾙｰﾌﾟ_01
370
    40
100
AcDbLine
 10
220.0520385711638
 20
81.13536224580197
 30
0.0
 11
226.6520385711639
 21
81.13536224580197
 31
0.0
  0
LINE
  5
22C
330
1F
100
AcDbEntity
  8
基準ﾚｲﾔｸﾞﾙｰﾌﾟ_01
370
    40
100
AcDbLine
 10
226.6520385711639
 20
81.13536224580197
 30
0.0
 11
226.6520385711639
 21
78.43536224580193
 31
0.0
  0
LINE
  5
22D
330
1F
100
AcDbEntity
  8
基準ﾚｲﾔｸﾞﾙｰﾌﾟ_01
370
    40
100
AcDbLine
 10
211.4882385711638
 20
82.93536224580193
 30
0.0
 11
211.4882385711638
 21
81.860362245802
 31
0.0
  0
LINE
  5
22E
330
1F
100
AcDbEntity
  8
基準ﾚｲﾔｸﾞﾙｰﾌﾟ_01
370
    40
100
AcDbLine
 10
220.0520385711638
 20
82.93536224580193
 30
0.0
 11
220.0520385711638
 21
81.13536224580197
 31
0.0
  0
LINE
  5
22F
330
1F
100
AcDbEntity
  8
基準ﾚｲﾔｸﾞﾙｰﾌﾟ_01
  6
破線
 62
     7
100
AcDbLine
 10
211.4882385711638
 20
80.88536224580197
 30
0.0
 11
206.4642395711639
 21
80.88536224580186
 31
0.0
  0
LINE
  5
230
330
1F
100
AcDbEntity
  8
基準ﾚｲﾔｸﾞﾙｰﾌﾟ_01
  6
破線
 62
     7
100
AcDbLine
 10
211.4882385711638
 20
80.485362245802
 30
0.0
 11
206.4642395711639
 21
80.485362245802
 31
0.0
  0
LINE
  5
231
330
1F
100
AcDbEntity
  8
基準ﾚｲﾔｸﾞﾙｰﾌﾟ_01
370
    40
100
AcDbLine
 10
205.4642395711639
 20
82.93536224580193
 30
0.0
 11
205.4642395711639
 21
81.88536224580197
 31
0.0
  0
LINE
  5
232
330
1F
100
AcDbEntity
  8
基準ﾚｲﾔｸﾞﾙｰﾌﾟ_01
370
    40
100
AcDbLine
 10
205.064239571164
 20
82.93536224580193
 30
0.0
 11
205.064239571164
 21
81.88536224580197
 31
0.0
  0
ARC
  5
233
330
1F
100
AcDbEntity
  8
基準ﾚｲﾔｸﾞﾙｰﾌﾟ_01
  6
破線
 62
     7
100
AcDbCircle
 10
206.4642395711639
 20
81.88536224580197
 30
0.0
 40
1.0
100
AcDbArc
 50
180.0
 51
270.0
  0
ARC
  5
234
330
1F
100
AcDbEntity
  8
基準ﾚｲﾔｸﾞﾙｰﾌﾟ_01
  6
破線
 62
     7
100
AcDbCircle
 10
206.4642395711639
 20
81.88536224580197
 30
0.0
 40
1.4
100
AcDbArc
 50
180.0
 51
270.0
  0
LINE
  5
235
330
1F
100
AcDbEntity
  8
基準ﾚｲﾔｸﾞﾙｰﾌﾟ_01
370
    40
100
AcDbLine
 10
208.4642385711639
 20
82.93536224580193
 30
0.0
 11
208.4642385711639
 21
81.88536224580197
 31
0.0
  0
LINE
  5
236
330
1F
100
AcDbEntity
  8
基準ﾚｲﾔｸﾞﾙｰﾌﾟ_01
370
    40
100
AcDbLine
 10
208.064238571164
 20
82.93536224580193
 30
0.0
 11
208.064238571164
 21
81.88536224580197
 31
0.0
  0
ARC
  5
237
330
1F
100
AcDbEntity
  8
基準ﾚｲﾔｸﾞﾙｰﾌﾟ_01
  6
破線
 62
     7
100
AcDbCircle
 10
209.4642385711639
 20
81.88536224580197
 30
0.0
 40
1.0
100
AcDbArc
 50
180.0
 51
270.0
  0
ARC
  5
238
330
1F
100
AcDbEntity
  8
基準ﾚｲﾔｸﾞﾙｰﾌﾟ_01
  6
破線
 62
     7
100
AcDbCircle
 10
209.4642385711639
 20
81.88536224580197
 30
0.0
 40
1.4
100
AcDbArc
 50
180.0
 51
225.5846914028106
  0
LINE
  5
239
330
1F
100
AcDbEntity
  8
基準ﾚｲﾔｸﾞﾙｰﾌﾟ_01
370
    40
100
AcDbLine
 10
208.064238571164
 20
85.53536224580193
 30
0.0
 11
208.4642385711639
 21
85.53536224580193
 31
0.0
  0
ARC
  5
23A
330
1F
100
AcDbEntity
  8
基準ﾚｲﾔｸﾞﾙｰﾌﾟ_01
370
    40
100
AcDbCircle
 10
209.4642385711639
 20
85.53536224580193
 30
0.0
 40
1.0
100
AcDbArc
 50
180.0
 51
270.0
  0
ARC
  5
23B
330
1F
100
AcDbEntity
  8
基準ﾚｲﾔｸﾞﾙｰﾌﾟ_01
370
    40
100
AcDbCircle
 10
207.064238571164
 20
85.53536224580193
 30
0.0
 40
1.0
100
AcDbArc
 50
270.0
 51
0.0
  0
LINE
  5
23C
330
1F
100
AcDbEntity
  8
基準ﾚｲﾔｸﾞﾙｰﾌﾟ_01
370
    40
100
AcDbLine
 10
205.0642395711639
 20
85.53536224580193
 30
0.0
 11
205.4642395711638
 21
85.53536224580193
 31
0.0
  0
ARC
  5
23D
330
1F
100
AcDbEntity
  8
基準ﾚｲﾔｸﾞﾙｰﾌﾟ_01
370
    40
100
AcDbCircle
 10
206.4642395711638
 20
85.53536224580193
 30
0.0
 40
1.0
100
AcDbArc
 50
180.0
 51
270.0
  0
ARC
  5
23E
330
1F
100
AcDbEntity
  8
基準ﾚｲﾔｸﾞﾙｰﾌﾟ_01
370
    40
100
AcDbCircle
 10
204.0642395711639
 20
85.53536224580193
 30
0.0
 40
1.0
100
AcDbArc
 50
270.0
 51
0.0
  0
TEXT
  5
23F
330
1F
100
AcDbEntity
  8
基準ﾚｲﾔｸﾞﾙｰﾌﾟ_01
 62
     7
100
AcDbText
 10
215.3350830078125
 20
82.74050903320312
 30
0.0
 40
1.799999952316284
  1
ＦＥＴ
 50
270.0
 41
0.9607843228155234
  7
FX_VECTOR
 72
     5
 11
215.3350830078125
 21
78.5405091047287
 31
0.0
100
AcDbText
  0
LINE
  5
240
330
1F
100
AcDbEntity
  8
基準ﾚｲﾔｸﾞﾙｰﾌﾟ_01
370
    40
100
AcDbLine
 10
220.0520385711638
 20
81.860362245802
 30
0.0
 11
217.4567458604004
 21
81.860362245802
 31
0.0
  0
LINE
  5
241
330
1F
100
AcDbEntity
  8
基準ﾚｲﾔｸﾞﾙｰﾌﾟ_01
370
    40
100
AcDbLine
 10
227.1382385711638
 20
82.93536224580193
 30
0.0
 11
227.1382385711638
 21
84.53536224580193
 31
0.0
  0
LINE
  5
242
330
1F
100
AcDbEntity
  8
基準ﾚｲﾔｸﾞﾙｰﾌﾟ_01
370
    40
100
AcDbLine
 10
221.2382385711638
 20
82.93536224580193
 30
0.0
 11
221.2382385711638
 21
84.53536224580193
 31
0.0
  0
LINE
  5
243
330
1F
100
AcDbEntity
  8
基準ﾚｲﾔｸﾞﾙｰﾌﾟ_01
370
    40
100
AcDbLine
 10
226.8347548823646
 20
82.93536224580193
 30
0.0
 11
227.6882360711639
 21
82.93536224580193
 31
0.0
  0
LINE
  5
244
330
1F
100
AcDbEntity
  8
基準ﾚｲﾔｸﾞﾙｰﾌﾟ_01
370
    40
100
AcDbLine
 10
261.6882355711638
 20
78.43536224580184
 30
0.0
 11
163.6882355711637
 21
78.4353622458022
 31
0.0
  0
LINE
  5
245
330
1F
100
AcDbEntity
  8
基準ﾚｲﾔｸﾞﾙｰﾌﾟ_01
370
    40
100
AcDbLine
 10
188.838240571164
 20
79.51036224580186
 30
0.0
 11
160.4490759007915
 21
79.51036224580197
 31
0.0
  0
LINE
  5
246
330
1F
100
AcDbEntity
  8
基準ﾚｲﾔｸﾞﾙｰﾌﾟ_01
370
    40
100
AcDbLine
 10
188.838240571164
 20
81.86036224580194
 30
0.0
 11
160.4490759007915
 21
81.86036224580194
 31
0.0
  0
LINE
  5
247
330
1F
100
AcDbEntity
  8
基準ﾚｲﾔｸﾞﾙｰﾌﾟ_01
370
    40
100
AcDbLine
 10
221.1222064308497
 20
79.51036224580186
 30
0.0
 11
217.4567458604004
 21
79.51036224580186
 31
0.0
  0
LINE
  5
248
330
1F
100
AcDbEntity
  8
基準ﾚｲﾔｸﾞﾙｰﾌﾟ_01
370
    40
100
AcDbLine
 10
208.064461803247
 20
81.860362245802
 30
0.0
 11
205.4645521200073
 21
81.860362245802
 31
0.0
  0
LINE
  5
249
330
1F
100
AcDbEntity
  8
基準ﾚｲﾔｸﾞﾙｰﾌﾟ_01
370
    40
100
AcDbLine
 10
205.064462803247
 20
81.860362245802
 30
0.0
 11
192.5382405711639
 21
81.86036224580194
 31
0.0
  0
LINE
  5
24A
330
1F
100
AcDbEntity
  8
基準ﾚｲﾔｸﾞﾙｰﾌﾟ_01
  6
破線
 62
     7
100
AcDbLine
 10
211.4882385711639
 20
81.860362245802
 30
0.0
 11
211.4882385711638
 21
79.51036224580186
 31
0.0
  0
LINE
  5
24B
330
1F
100
AcDbEntity
  8
基準ﾚｲﾔｸﾞﾙｰﾌﾟ_01
370
    40
100
AcDbLine
 10
211.4882385711638
 20
79.51036224580186
 30
0.0
 11
211.4882385711638
 21
78.43536224580193
 31
0.0
  0
LINE
  5
24C
330
1F
100
AcDbEntity
  8
基準ﾚｲﾔｸﾞﾙｰﾌﾟ_01
370
    40
100
AcDbLine
 10
215.2140965477573
 20
81.860362245802
 30
0.0
 11
208.4642385711639
 21
81.860362245802
 31
0.0
  0
LINE
  5
24D
330
1F
100
AcDbEntity
  8
基準ﾚｲﾔｸﾞﾙｰﾌﾟ_01
370
    40
100
AcDbLine
 10
215.2140965477573
 20
79.51036224580186
 30
0.0
 11
192.5382405711639
 21
79.51036224580197
 31
0.0
  0
LINE
  5
24E
330
1F
100
AcDbEntity
  8
基準ﾚｲﾔｸﾞﾙｰﾌﾟ_01
  6
一点鎖線
 62
     7
100
AcDbLine
 10
245.5710768995948
 20
83.38536224580196
 30
0.0
 11
230.4321305673734
 21
83.38536224580196
 31
0.0
  0
LINE
  5
24F
330
1F
100
AcDbEntity
  8
基準ﾚｲﾔｸﾞﾙｰﾌﾟ_01
370
    40
100
AcDbLine
 10
231.6882355711641
 20
78.43536224580198
 30
0.0
 11
241.1882355711641
 21
78.43536224580198
 31
0.0
  0
LINE
  5
250
330
1F
100
AcDbEntity
  8
基準ﾚｲﾔｸﾞﾙｰﾌﾟ_01
370
    40
100
AcDbLine
 10
241.1882355711641
 20
78.43536224580198
 30
0.0
 11
241.1882355711641
 21
88.33536224580197
 31
0.0
  0
LINE
  5
251
330
1F
100
AcDbEntity
  8
基準ﾚｲﾔｸﾞﾙｰﾌﾟ_01
370
    40
100
AcDbLine
 10
231.6882355711641
 20
88.33536224580197
 30
0.0
 11
231.6882355711641
 21
84.48536224580192
 31
0.0
  0
ARC
  5
252
330
1F
100
AcDbEntity
  8
基準ﾚｲﾔｸﾞﾙｰﾌﾟ_01
370
    40
100
AcDbCircle
 10
236.4382355711641
 20
83.38536224580196
 30
0.0
 40
0.4
100
AcDbArc
 50
269.9999999999919
 51
90.0000000000082
  0
LINE
  5
253
330
1F
100
AcDbEntity
  8
基準ﾚｲﾔｸﾞﾙｰﾌﾟ_01
370
    40
100
AcDbLine
 10
236.438235571164
 20
83.78536224580199
 30
0.0
 11
230.8882355711642
 21
83.78536224580199
 31
0.0
  0
LINE
  5
254
330
1F
100
AcDbEntity
  8
基準ﾚｲﾔｸﾞﾙｰﾌﾟ_01
370
    40
100
AcDbLine
 10
236.438235571164
 20
82.98536224580194
 30
0.0
 11
230.8882355711642
 21
82.98536224580194
 31
0.0
  0
HATCH
  5
255
330
1F
100
AcDbEntity
  8
基準ﾚｲﾔｸﾞﾙｰﾌﾟ_01
 62
     7
100
AcDbHatch
 10
0.0
 20
0.0
 30
0.0
210
0.0
220
0.0
230
1.0
  2
_USER
 70
     0
 71
     0
 91
        4
 92
        0
 93
      123
 72
     1
 10
238.8382355711641
 20
83.38536224580196
 11
238.8263189509557
 21
83.65636504525361
 72
     1
 10
238.8263189509554
 20
83.65636504526373
 11
238.8255231625297
 21
83.67212052215467
 72
     1
 10
238.82552316253
 20
83.67212052215274
 11
238.8245721369757
 21
83.68757167671544
 72
     1
 10
238.824572136976
 20
83.68757167671077
 11
238.8234658742936
 21
83.70271850893829
 72
     1
 10
238.8234658742937
 20
83.70271850893783
 11
238.8222043744827
 21
83.7175610188325
 72
     1
 10
238.8222043744829
 20
83.71756101883403
 11
238.8207876375433
 21
83.73209920640176
 72
     1
 10
238.8207876375435
 20
83.73209920639931
 11
238.8192156634759
 21
83.74633307163452
 72
     1
 10
238.8192156634759
 20
83.74633307163361
 11
238.8174884522788
 21
83.76026261453887
 72
     1
 10
238.8174884522798
 20
83.760262614537
 11
238.8156060039553
 21
83.77388783510912
 72
     1
 10
238.8156060039553
 20
83.77388783510946
 11
238.8135683185017
 21
83.78720873335169
 72
     1
 10
238.8135683185021
 20
83.78720873335106
 11
238.8113753959209
 21
83.80022530926004
 72
     1
 10
238.8113753959208
 20
83.80022530926163
 11
238.8090272362111
 21
83.81293756283952
 72
     1
 10
238.8090272362109
 20
83.81293756284134
 11
238.8065238393725
 21
83.8253454940878
 72
     1
 10
238.8065238393726
 20
83.82534549409007
 11
238.8038652054054
 21
83.83744910300999
 72
     1
 10
238.8038652054059
 20
83.83744910300788
 11
238.8010513343094
 21
83.84924838960166
 72
     1
 10
238.8010513343107
 20
83.84924838959483
 11
238.7980822260865
 21
83.86074335385268
 72
     1
 10
238.7980822260871
 20
83.86074335385081
 11
238.7949578807365
 21
83.87193399577092
 72
     1
 10
238.7949578807351
 20
83.87193399577586
 11
238.791673093848
 21
83.88283512209779
 72
     1
 10
238.7916730938467
 20
83.88283512209983
 11
238.7880860453116
 21
83.8938502162128
 72
     1
 10
238.7880860453112
 20
83.89385021621075
 11
238.784132981133
 21
83.90516066054994
 72
     1
 10
238.7841329811333
 20
83.90516066054937
 11
238.7798139013137
 21
83.91676645511603
 72
     1
 10
238.7798139013131
 20
83.91676645511546
 11
238.7751288058504
 21
83.92866759991017
 72
     1
 10
238.7751288058507
 20
83.92866759990915
 11
238.7700776947445
 21
83.94086409493235
 72
     1
 10
238.770077694746
 20
83.94086409493048
 11
238.7646605679989
 21
83.95335594018098
 72
     1
 10
238.7646605679989
 20
83.95335594017928
 11
238.7588774256102
 21
83.966143135653
 72
     1
 10
238.7588774256096
 20
83.96614313565573
 11
238.7527282675777
 21
83.97922568135886
 72
     1
 10
238.752728267578
 20
83.97922568135965
 11
238.7462130939064
 21
83.99260357728508
 72
     1
 10
238.7462130939041
 20
83.99260357729116
 11
238.7393319045865
 21
84.00627682345134
 72
     1
 10
238.7393319045881
 20
84.00627682345026
 11
238.7320846996296
 21
84.02024541983627
 72
     1
 10
238.7320846996295
 20
84.02024541983695
 11
238.7244714790278
 21
84.03450936645385
 72
     1
 10
238.7244714790288
 20
84.03450936645118
 11
238.7164922427869
 21
84.04906866329407
 72
     1
 10
238.7164922427859
 20
84.04906866329299
 11
238.7081469909006
 21
84.06392331036352
 72
     1
 10
238.7081469909004
 20
84.06392331036233
 11
238.6994357233748
 21
84.0790733076546
 72
     1
 10
238.699435723373
 20
84.07907330765926
 11
238.690358440197
 21
84.09451865519031
 72
     1
 10
238.690358440203
 20
84.09451865518378
 11
238.6809308509905
 21
84.11022905587896
 72
     1
 10
238.6809308509906
 20
84.11022905587578
 11
238.6713571805294
 21
84.12581064795654
 72
     1
 10
238.6713571805327
 20
84.12581064795432
 11
238.6617002672301
 21
84.14114224317478
 72
     1
 10
238.6617002672283
 20
84.14114224317899
 11
238.6519601110764
 21
84.15622384155307
 72
     1
 10
238.6519601110776
 20
84.15622384154989
 11
238.6421367120762
 21
84.1710554430685
 72
     1
 10
238.6421367120804
 20
84.17105544306696
 11
238.6322300702361
 21
84.18563704773243
 72
     1
 10
238.6322300702368
 20
84.18563704773021
 11
238.6222401855439
 21
84.19996865554134
 72
     1
 10
238.6222401855466
 20
84.19996865553975
 11
238.6121670580065
 21
84.21405026649717
 72
     1
 10
238.6121670580102
 20
84.21405026649546
 11
238.6020106876275
 21
84.22788188059673
 72
     1
 10
238.6020106876273
 20
84.2278818805973
 11
238.5917710743993
 21
84.24146349784536
 72
     1
 10
238.5917710743979
 20
84.24146349784536
 11
238.5814482183227
 21
84.2547951182392
 72
     1
 10
238.5814482183221
 20
84.25479511823966
 11
238.5710421193993
 21
84.26787674177922
 72
     1
 10
238.5710421193999
 20
84.26787674178007
 11
238.5605527776298
 21
84.28070836846672
 72
     1
 10
238.5605527776312
 20
84.28070836846672
 11
238.5499801930135
 21
84.29328999830028
 72
     1
 10
238.549980193016
 20
84.2932899982996
 11
238.5393243655509
 21
84.30562163128201
 72
     1
 10
238.5393243655545
 20
84.30562163127871
 11
238.5285852952472
 21
84.31770326740457
 72
     1
 10
238.5285852952467
 20
84.31770326740394
 11
238.5177629820921
 21
84.32953490667586
 72
     1
 10
238.5177629820922
 20
84.3295349066754
 11
238.5067427136939
 21
84.3410591290064
 72
     1
 10
238.5067427136938
 20
84.34105912900657
 11
238.4946569775454
 21
84.35184169499286
 72
     1
 10
238.4946569775453
 20
84.35184169499308
 11
238.4813265355257
 21
84.36179288574982
 72
     1
 10
238.4813265355257
 20
84.36179288574982
 11
238.466751387635
 21
84.37091270127661
 72
     1
 10
238.4667513876348
 20
84.37091270127672
 11
238.4509315338723
 21
84.37920114157401
 72
     1
 10
238.4509315338726
 20
84.37920114157379
 11
238.4338669742392
 21
84.38665820664113
 72
     1
 10
238.4338669742392
 20
84.38665820664107
 11
238.4155577087348
 21
84.39328389647852
 72
     1
 10
238.4155577087347
 20
84.39328389647852
 11
238.3960037373589
 21
84.39907821108625
 72
     1
 10
238.3960037373588
 20
84.39907821108619
 11
238.3752050601119
 21
84.40404115046402
 72
     1
 10
238.3752050601119
 20
84.40404115046414
 11
238.3531616769939
 21
84.40817271461214
 72
     1
 10
238.3531616769935
 20
84.40817271461219
 11
238.3298735880038
 21
84.41147290353041
 72
     1
 10
238.329873588004
 20
84.41147290353041
 11
238.3053407931424
 21
84.41394171721896
 72
     1
 10
238.3053407931433
 20
84.41394171721885
 11
238.2795632924119
 21
84.41557915567745
 72
     1
 10
238.2795632924114
 20
84.4155791556775
 11
238.2525410858076
 21
84.41638521890633
 72
     1
 10
238.2525410858082
 20
84.41638521890633
 11
238.2242741733338
 21
84.41635990690531
 72
     1
 10
238.2242741733338
 20
84.41635990690537
 11
238.1947625549889
 21
84.41550321967458
 72
     1
 10
238.1947625549881
 20
84.41550321967458
 11
238.1640062307717
 21
84.41381515721406
 72
     1
 10
238.1640062307713
 20
84.413815157214
 11
238.1322971030601
 21
84.4114125730697
 72
     1
 10
238.1322971030639
 20
84.41141257306998
 11
238.1010479793915
 21
84.40886103840575
 72
     1
 10
238.1010479793895
 20
84.40886103840666
 11
238.0704456772738
 21
84.406235339494
 72
     1
 10
238.0704456772713
 20
84.40623533949389
 11
238.0404901967115
 21
84.40353547633134
 72
     1
 10
238.0404901967098
 20
84.40353547633168
 11
238.0111815377022
 21
84.40076144891981
 72
     1
 10
238.0111815377046
 20
84.40076144891981
 11
237.9825197002549
 21
84.39791325725758
 72
     1
 10
237.9825197002559
 20
84.3979132572585
 11
237.954504684364
 21
84.39499090134717
 72
     1
 10
237.9545046843637
 20
84.39499090134763
 11
237.9271364900295
 21
84.391994381188
 72
     1
 10
237.9271364900279
 20
84.3919943811872
 11
237.9004151172498
 21
84.3889236967778
 72
     1
 10
237.9004151172487
 20
84.38892369677734
 11
237.8743405660264
 21
84.38577884811849
 72
     1
 10
237.8743405660258
 20
84.38577884811792
 11
237.8489128363663
 21
84.38255983520861
 72
     1
 10
237.8489128363594
 20
84.3825598352089
 11
237.824131928244
 21
84.37926665805008
 72
     1
 10
237.8241319282496
 20
84.37926665805043
 11
237.7999978416969
 21
84.3758993166428
 72
     1
 10
237.7999978416962
 20
84.3758993166424
 11
237.7765105767006
 21
84.37245781098562
 72
     1
 10
237.7765105766991
 20
84.37245781098483
 11
237.7536701332591
 21
84.36894214107832
 72
     1
 10
237.7536701332587
 20
84.36894214107775
 11
237.7314765113732
 21
84.36535230692147
 72
     1
 10
237.7314765113746
 20
84.36535230692118
 11
237.709929711047
 21
84.36168830851511
 72
     1
 10
237.709929711047
 20
84.36168830851506
 11
237.6889862634418
 21
84.35774206620812
 72
     1
 10
237.688986263442
 20
84.35774206620812
 11
237.6685048948494
 21
84.35283732113402
 72
     1
 10
237.6685048948493
 20
84.35283732113385
 11
237.6484747380613
 21
84.34692205337939
 72
     1
 10
237.6484747380608
 20
84.34692205337933
 11
237.6288957930757
 21
84.33999626294474
 72
     1
 10
237.6288957930761
 20
84.33999626294457
 11
237.6097680598943
 21
84.33205994982978
 72
     1
 10
237.6097680598956
 20
84.33205994982967
 11
237.5910915385193
 21
84.32311311403413
 72
     1
 10
237.5910915385189
 20
84.32311311403447
 11
237.5728662289458
 21
84.31315575555897
 72
     1
 10
237.5728662289462
 20
84.31315575555914
 11
237.5550921311772
 21
84.30218787440361
 72
     1
 10
237.5550921311774
 20
84.30218787440361
 11
237.5377692452128
 21
84.29020947056767
 72
     1
 10
237.5377692452128
 20
84.29020947056779
 11
237.5208975710516
 21
84.27722054405189
 72
     1
 10
237.5208975710519
 20
84.27722054405177
 11
237.5044771086956
 21
84.26322109485562
 72
     1
 10
237.5044771086953
 20
84.26322109485551
 11
237.4885078581431
 21
84.24821112298014
 72
     1
 10
237.4885078581424
 20
84.24821112297917
 11
237.4729898193938
 21
84.23219062842225
 72
     1
 10
237.4729898193935
 20
84.23219062842247
 11
237.4579229924481
 21
84.21515961118502
 72
     1
 10
237.4579229924487
 20
84.21515961118564
 11
237.4433073773071
 21
84.19711807126919
 72
     1
 10
237.4433073773077
 20
84.19711807126856
 11
237.4291429739706
 21
84.1780660086722
 72
     1
 10
237.4291429739708
 20
84.1780660086713
 11
237.4154297824372
 21
84.15800342339355
 72
     1
 10
237.4154297824379
 20
84.15800342339384
 11
237.4007833957563
 21
84.13747228300423
 72
     1
 10
237.4007833957562
 20
84.13747228300468
 11
237.3821242147858
 21
84.11767818883004
 72
     1
 10
237.3821242147858
 20
84.11767818882976
 11
237.3593392267147
 21
84.09866538311962
 72
     1
 10
237.3593392267144
 20
84.09866538311968
 11
237.3324284315414
 21
84.08043386587434
 72
     1
 10
237.3324284315419
 20
84.08043386587428
 11
237.301391829268
 21
84.06298363709351
 72
     1
 10
237.3013918292681
 20
84.06298363709368
 11
237.2662294198935
 21
84.04631469677821
 72
     1
 10
237.2662294198934
 20
84.04631469677787
 11
237.226941203416
 21
84.0304270449264
 72
     1
 10
237.2269412034176
 20
84.0304270449268
 11
237.1835271798402
 21
84.01532068154069
 72
     1
 10
237.1835271798408
 20
84.01532068154046
 11
237.1359873491626
 21
84.00099560661863
 72
     1
 10
237.1359873491627
 20
84.00099560661891
 11
237.0843217113842
 21
83.987451820162
 72
     1
 10
237.0843217113837
 20
83.98745182016216
 11
237.0285302665036
 21
83.97468932217038
 72
     1
 10
237.0285302665035
 20
83.97468932217015
 11
236.9686130145215
 21
83.96270811264299
 72
     1
 10
236.9686130145222
 20
83.96270811264287
 11
236.9045699554426
 21
83.95150819158113
 72
     1
 10
236.9045699554399
 20
83.95150819158039
 11
236.8364010892567
 21
83.94108955898247
 72
     1
 10
236.8364010892565
 20
83.9410895589827
 11
236.7641064159715
 21
83.93145221484923
 72
     1
 10
236.7641064159719
 20
83.93145221484968
 11
236.6876859355865
 21
83.92259615918152
 72
     1
 10
236.6876859355863
 20
83.92259615918152
 11
236.6071396480984
 21
83.91452139197833
 72
     1
 10
236.6071396480996
 20
83.91452139197804
 11
236.438235571164
 21
83.89906637642366
 72
     1
 10
236.438235571164
 20
83.89906637642366
 11
236.438235571164
 21
83.78536224580199
 72
     2
 10
236.4382355711641
 20
83.38536224580196
 40
0.4
 50
269.9999999999918
 51
360.0
 73
     0
 72
     1
 10
236.8382355711641
 20
83.38536224580196
 11
238.8382355711641
 21
83.38536224580196
 97
        0
 92
        0
 93
       18
 72
     1
 10
236.438235571164
 20
83.78536224580199
 11
236.4382355711641
 21
83.8990663764236
 72
     1
 10
236.4382355711641
 20
83.8990663764236
 11
236.3579622738991
 21
83.89172462978485
 72
     1
 10
236.3579622738991
 20
83.89172462978485
 11
236.2748946598506
 21
83.88412731664317
 72
     1
 10
236.2748946598506
 20
83.88412731664317
 11
236.1918270458021
 21
83.87653000350156
 72
     1
 10
236.1918270458021
 20
83.87653000350156
 11
236.1087594317537
 21
83.86893269035994
 72
     1
 10
236.1087594317537
 20
83.86893269035994
 11
236.0256918177051
 21
83.86133537721827
 72
     1
 10
236.0256918177051
 20
83.86133537721827
 11
235.9426242036567
 21
83.85373806407665
 72
     1
 10
235.9426242036567
 20
83.85373806407665
 11
235.8595565896081
 21
83.84614075093504
 72
     1
 10
235.8595565896081
 20
83.84614075093504
 11
235.7764889755597
 21
83.83854343779336
 72
     1
 10
235.7764889755597
 20
83.83854343779336
 11
235.6934213615111
 21
83.83094612465175
 72
     1
 10
235.6934213615111
 20
83.83094612465175
 11
235.6103537474627
 21
83.82334881151013
 72
     1
 10
235.6103537474627
 20
83.82334881151013
 11
235.5272861334142
 21
83.81575149836846
 72
     1
 10
235.5272861334142
 20
83.81575149836846
 11
235.4442185193656
 21
83.80815418522684
 72
     1
 10
235.4442185193656
 20
83.80815418522684
 11
235.3611509053172
 21
83.80055687208522
 72
     1
 10
235.3611509053172
 20
83.80055687208522
 11
235.2780832912687
 21
83.79295955894361
 72
     1
 10
235.2780832912687
 20
83.79295955894361
 11
235.1950156772206
 21
83.78536224580199
 72
     1
 10
235.1950156772206
 20
83.78536224580199
 11
236.2855031559071
 21
83.78536224580199
 72
     1
 10
236.2855031559071
 20
83.78536224580199
 11
236.438235571164
 21
83.78536224580199
 97
        0
 92
        0
 93
       18
 72
     1
 10
236.3579622738991
 20
82.87899986181908
 11
236.438235571164
 21
82.87165811518032
 72
     1
 10
236.438235571164
 20
82.87165811518032
 11
236.438235571164
 21
82.98536224580194
 72
     1
 10
236.438235571164
 20
82.98536224580194
 11
235.19501567722
 21
82.985362245802
 72
     1
 10
235.19501567722
 20
82.985362245802
 11
235.2780832912687
 21
82.97776493266038
 72
     1
 10
235.2780832912687
 20
82.97776493266038
 11
235.3611509053172
 21
82.9701676195187
 72
     1
 10
235.3611509053172
 20
82.9701676195187
 11
235.4442185193656
 21
82.96257030637709
 72
     1
 10
235.4442185193656
 20
82.96257030637709
 11
235.5272861334142
 21
82.95497299323547
 72
     1
 10
235.5272861334142
 20
82.95497299323547
 11
235.6103537474627
 21
82.9473756800938
 72
     1
 10
235.6103537474627
 20
82.9473756800938
 11
235.6934213615111
 21
82.93977836695213
 72
     1
 10
235.6934213615111
 20
82.93977836695213
 11
235.7764889755597
 21
82.93218105381057
 72
     1
 10
235.7764889755597
 20
82.93218105381057
 11
235.8595565896081
 21
82.9245837406689
 72
     1
 10
235.8595565896081
 20
82.9245837406689
 11
235.9426242036567
 21
82.91698642752722
 72
     1
 10
235.9426242036567
 20
82.91698642752722
 11
236.0256918177051
 21
82.90938911438566
 72
     1
 10
236.0256918177051
 20
82.90938911438566
 11
236.1087594317537
 21
82.90179180124399
 72
     1
 10
236.1087594317537
 20
82.90179180124399
 11
236.1918270458021
 21
82.89419448810237
 72
     1
 10
236.1918270458021
 20
82.89419448810237
 11
236.2748946598506
 21
82.88659717496076
 72
     1
 10
236.2748946598506
 20
82.88659717496076
 11
236.2921331914797
 21
82.88502054940831
 72
     1
 10
236.2921331914797
 20
82.88502054940831
 11
236.3579622738991
 21
82.87899986181908
 97
        0
 92
        0
 93
      142
 72
     1
 10
237.0285302665028
 20
82.796035169434
 11
237.0843217113838
 21
82.78327267144154
 72
     1
 10
237.0843217113837
 20
82.78327267144171
 11
237.1359873491635
 21
82.76972888498467
 72
     1
 10
237.1359873491627
 20
82.76972888498496
 11
237.1835271798402
 21
82.75540381006358
 72
     1
 10
237.1835271798408
 20
82.75540381006341
 11
237.2269412034181
 21
82.74029744667696
 72
     1
 10
237.2269412034176
 20
82.74029744667713
 11
237.2662294198935
 21
82.72440979482606
 72
     1
 10
237.2662294198934
 20
82.72440979482606
 11
237.3013918292684
 21
82.70774085451008
 72
     1
 10
237.3013918292681
 20
82.70774085451019
 11
237.3324284315419
 21
82.69029062572959
 72
     1
 10
237.3324284315419
 20
82.69029062572959
 11
237.3593392267146
 21
82.67205910848419
 72
     1
 10
237.3593392267144
 20
82.67205910848425
 11
237.382124214786
 21
82.65304630277406
 72
     1
 10
237.3821242147858
 20
82.65304630277417
 11
237.4007833957564
 21
82.63325220859902
 72
     1
 10
237.4007833957562
 20
82.63325220859925
 11
237.4154297824372
 21
82.61272106821106
 72
     1
 10
237.4154297824379
 20
82.61272106821009
 11
237.4291429739712
 21
82.59265848293246
 72
     1
 10
237.4291429739708
 20
82.59265848293258
 11
237.4433073773074
 21
82.57360642033525
 72
     1
 10
237.4433073773077
 20
82.57360642033537
 11
237.4579229924484
 21
82.555564880418
 72
     1
 10
237.4579229924487
 20
82.55556488041823
 11
237.4729898193932
 21
82.53853386318146
 72
     1
 10
237.4729898193935
 20
82.5385338631814
 11
237.4885078581428
 21
82.52251336862442
 72
     1
 10
237.4885078581424
 20
82.52251336862476
 11
237.504477108695
 21
82.5075033967487
 72
     1
 10
237.5044771086953
 20
82.5075033967483
 11
237.5208975710522
 21
82.49350394755227
 72
     1
 10
237.5208975710519
 20
82.49350394755216
 11
237.537769245213
 21
82.48051502103586
 72
     1
 10
237.5377692452128
 20
82.4805150210362
 11
237.5550921311772
 21
82.46853661720043
 72
     1
 10
237.5550921311774
 20
82.46853661720037
 11
237.5728662289458
 21
82.45756873604496
 72
     1
 10
237.5728662289462
 20
82.45756873604473
 11
237.5910915385189
 21
82.44761137756934
 72
     1
 10
237.5910915385189
 20
82.4476113775694
 11
237.6097680598956
 21
82.43866454177426
 72
     1
 10
237.6097680598956
 20
82.43866454177426
 11
237.6288957930759
 21
82.43072822865948
 72
     1
 10
237.6288957930761
 20
82.43072822865936
 11
237.6484747380603
 21
82.42380243822477
 72
     1
 10
237.6484747380608
 20
82.4238024382246
 11
237.66850489485
 21
82.41788717047002
 72
     1
 10
237.6685048948493
 20
82.41788717047008
 11
237.6889862634422
 21
82.41298242539581
 72
     1
 10
237.688986263442
 20
82.41298242539581
 11
237.7099297110442
 21
82.40903618308955
 72
     1
 10
237.709929711047
 20
82.40903618308887
 11
237.7314765113791
 21
82.40537218468201
 72
     1
 10
237.7314765113746
 20
82.40537218468275
 11
237.7536701332557
 21
82.4017823505264
 72
     1
 10
237.7536701332587
 20
82.40178235052618
 11
237.7765105766974
 21
82.3982666806191
 72
     1
 10
237.7765105766991
 20
82.3982666806191
 11
237.7999978417008
 21
82.39482517496067
 72
     1
 10
237.7999978416962
 20
82.39482517496158
 11
237.8241319282483
 21
82.39145783355328
 72
     1
 10
237.8241319282496
 20
82.39145783355356
 11
237.8489128363614
 21
82.38816465639486
 72
     1
 10
237.8489128363594
 20
82.38816465639509
 11
237.874340566026
 21
82.38494564348589
 72
     1
 10
237.8743405660258
 20
82.38494564348612
 11
237.9004151172528
 21
82.38180079482602
 72
     1
 10
237.9004151172487
 20
82.38180079482665
 11
237.9271364900212
 21
82.3787301104173
 72
     1
 10
237.9271364900279
 20
82.37873011041673
 11
237.9545046843708
 21
82.37573359025528
 72
     1
 10
237.9545046843637
 20
82.3757335902563
 11
237.9825197002542
 21
82.37281123434543
 72
     1
 10
237.9825197002559
 20
82.37281123434549
 11
238.0111815377028
 21
82.36996304268452
 72
     1
 10
238.0111815377046
 20
82.36996304268412
 11
238.0404901967115
 21
82.36718901527247
 72
     1
 10
238.0404901967098
 20
82.36718901527236
 11
238.0704456772714
 21
82.36448915210998
 72
     1
 10
238.0704456772713
 20
82.36448915211004
 11
238.1010479793899
 21
82.3618634531967
 72
     1
 10
238.1010479793895
 20
82.36186345319727
 11
238.1322971030595
 21
82.35931191853452
 72
     1
 10
238.1322971030639
 20
82.359311918534
 11
238.1640062307724
 21
82.35690933438993
 72
     1
 10
238.1640062307713
 20
82.35690933438993
 11
238.1947625549889
 21
82.35522127192924
 72
     1
 10
238.1947625549881
 20
82.35522127192935
 11
238.2242741733338
 21
82.35436458469856
 72
     1
 10
238.2242741733338
 20
82.35436458469856
 11
238.2525410858087
 21
82.3543392726976
 72
     1
 10
238.2525410858082
 20
82.3543392726976
 11
238.2795632924114
 21
82.35514533592637
 72
     1
 10
238.2795632924114
 20
82.35514533592642
 11
238.3053407931432
 21
82.35678277438508
 72
     1
 10
238.3053407931433
 20
82.35678277438508
 11
238.3298735880046
 21
82.35925158807352
 72
     1
 10
238.329873588004
 20
82.35925158807352
 11
238.3531616769928
 21
82.36255177699157
 72
     1
 10
238.3531616769935
 20
82.3625517769918
 11
238.3752050601126
 21
82.3666833411399
 72
     1
 10
238.3752050601119
 20
82.36668334113979
 11
238.3960037373588
 21
82.37164628051757
 72
     1
 10
238.3960037373588
 20
82.37164628051768
 11
238.4155577087353
 21
82.3774405951254
 72
     1
 10
238.4155577087347
 20
82.37744059512535
 11
238.4338669742393
 21
82.38406628496269
 72
     1
 10
238.4338669742392
 20
82.3840662849628
 11
238.4509315338729
 21
82.39152335003037
 72
     1
 10
238.4509315338726
 20
82.39152335003014
 11
238.4667513876344
 21
82.39981179032698
 72
     1
 10
238.4667513876348
 20
82.3998117903272
 11
238.4813265355257
 21
82.40893160585428
 72
     1
 10
238.4813265355257
 20
82.40893160585411
 11
238.4946569775452
 21
82.41888279661113
 72
     1
 10
238.4946569775453
 20
82.41888279661084
 11
238.5067427136936
 21
82.42966536259719
 72
     1
 10
238.5067427136938
 20
82.42966536259736
 11
238.5177629820948
 21
82.44118958492881
 72
     1
 10
238.5177629820922
 20
82.44118958492852
 11
238.5285852952472
 21
82.45302122419902
 72
     1
 10
238.5285852952467
 20
82.45302122419993
 11
238.5393243655517
 21
82.46510286032738
 72
     1
 10
238.5393243655545
 20
82.46510286032522
 11
238.5499801930179
 21
82.47743449330319
 72
     1
 10
238.549980193016
 20
82.47743449330433
 11
238.5605527776246
 21
82.49001612313783
 72
     1
 10
238.5605527776312
 20
82.49001612313721
 11
238.5710421194012
 21
82.50284774982363
 72
     1
 10
238.5710421193999
 20
82.50284774982386
 11
238.5814482183243
 21
82.5159293733637
 72
     1
 10
238.5814482183221
 20
82.51592937336427
 11
238.5917710744011
 21
82.52926099376016
 72
     1
 10
238.5917710743979
 20
82.52926099375857
 11
238.6020106876293
 21
82.54284261100692
 72
     1
 10
238.6020106876273
 20
82.54284261100663
 11
238.6121670580087
 21
82.55667422510938
 72
     1
 10
238.6121670580102
 20
82.55667422510858
 11
238.6222401855471
 21
82.57075583606748
 72
     1
 10
238.6222401855466
 20
82.57075583606424
 11
238.6322300702292
 21
82.5850874438715
 72
     1
 10
238.6322300702368
 20
82.58508744387366
 11
238.642136712078
 21
82.5996690485393
 72
     1
 10
238.6421367120804
 20
82.59966904853702
 11
238.6519601110793
 21
82.61450065005415
 72
     1
 10
238.6519601110776
 20
82.6145006500541
 11
238.6617002672326
 21
82.62958224842636
 72
     1
 10
238.6617002672283
 20
82.62958224842494
 11
238.6713571805275
 21
82.64491384364415
 72
     1
 10
238.6713571805327
 20
82.64491384364972
 11
238.6809308509917
 21
82.66049543573065
 72
     1
 10
238.6809308509906
 20
82.66049543572815
 11
238.6903584402048
 21
82.67620583641833
 72
     1
 10
238.690358440203
 20
82.67620583642015
 11
238.6994357233702
 21
82.69165118394092
 72
     1
 10
238.699435723373
 20
82.69165118394467
 11
238.7081469909009
 21
82.70680118124183
 72
     1
 10
238.7081469909004
 20
82.7068011812416
 11
238.7164922427829
 21
82.7216558283114
 72
     1
 10
238.7164922427859
 20
82.72165582831094
 11
238.7244714790298
 21
82.73621512515315
 72
     1
 10
238.7244714790288
 20
82.73621512515275
 11
238.7320846996298
 21
82.75047907176618
 72
     1
 10
238.7320846996295
 20
82.75047907176697
 11
238.7393319045885
 21
82.76444766815145
 72
     1
 10
238.7393319045881
 20
82.76444766815366
 11
238.7462130939052
 21
82.77812091431635
 72
     1
 10
238.7462130939041
 20
82.77812091431277
 11
238.752728267576
 21
82.79149881024246
 72
     1
 10
238.752728267578
 20
82.79149881024428
 11
238.7588774256101
 21
82.80458135594854
 72
     1
 10
238.7588774256096
 20
82.80458135594826
 11
238.7646605679989
 21
82.81736855142414
 72
     1
 10
238.7646605679989
 20
82.81736855142465
 11
238.7700776947448
 21
82.82986039667419
 72
     1
 10
238.770077694746
 20
82.82986039667351
 11
238.7751288058508
 21
82.84205689169603
 72
     1
 10
238.7751288058507
 20
82.84205689169478
 11
238.7798139013113
 21
82.85395803648994
 72
     1
 10
238.7798139013131
 20
82.85395803648846
 11
238.7841329811333
 21
82.8655638310549
 72
     1
 10
238.7841329811333
 20
82.86556383105456
 11
238.788086045312
 21
82.87687427539261
 72
     1
 10
238.7880860453112
 20
82.87687427539306
 11
238.7916730938462
 21
82.88788936950353
 72
     1
 10
238.7916730938467
 20
82.8878893695041
 11
238.7949578807359
 21
82.89879049583057
 72
     1
 10
238.7949578807351
 20
82.89879049582807
 11
238.7980822260853
 21
82.90998113775107
 72
     1
 10
238.7980822260871
 20
82.90998113775312
 11
238.8010513343119
 21
82.92147610201057
 72
     1
 10
238.8010513343107
 20
82.9214761020091
 11
238.8038652054056
 21
82.93327538859837
 72
     1
 10
238.8038652054059
 20
82.93327538859599
 11
238.8065238393726
 21
82.94537899751113
 72
     1
 10
238.8065238393726
 20
82.94537899751386
 11
238.8090272362109
 21
82.95778692876418
 72
     1
 10
238.8090272362109
 20
82.95778692876259
 11
238.8113753959208
 21
82.97049918233724
 72
     1
 10
238.8113753959208
 20
82.9704991823423
 11
238.8135683185017
 21
82.98351575825593
 72
     1
 10
238.8135683185021
 20
82.98351575825286
 11
238.8156060039547
 21
82.9968366564968
 72
     1
 10
238.8156060039553
 20
82.99683665649441
 11
238.8174884522804
 21
83.01046187706886
 72
     1
 10
238.8174884522798
 20
83.01046187706687
 11
238.8192156634751
 21
83.02439141996986
 72
     1
 10
238.8192156634759
 20
83.0243914199702
 11
238.8207876375433
 21
83.03862528520047
 72
     1
 10
238.8207876375435
 20
83.03862528520462
 11
238.8222043744831
 21
83.05316347276728
 72
     1
 10
238.8222043744829
 20
83.05316347276984
 11
238.8234658742939
 21
83.06800598266666
 72
     1
 10
238.8234658742937
 20
83.06800598266598
 11
238.8245721369757
 21
83.08315281488849
 72
     1
 10
238.824572136976
 20
83.08315281489315
 11
238.8255231625301
 21
83.09860396945119
 72
     1
 10
238.82552316253
 20
83.09860396945119
 11
238.8263189509556
 21
83.11435944633577
 72
     1
 10
238.8263189509554
 20
83.11435944634009
 11
238.8270208304448
 21
83.13029901870034
 72
     1
 10
238.8270208305007
 20
83.13029901945397
 11
238.8277217517922
 21
83.14624047110074
 72
     1
 10
238.8277217517922
 20
83.14624047110074
 11
238.8284226730837
 21
83.16218192274751
 72
     1
 10
238.8284226730837
 20
83.16218192274751
 11
238.8291235943751
 21
83.17812337439422
 72
     1
 10
238.8291235943751
 20
83.17812337439422
 11
238.8298245156667
 21
83.19406482604093
 72
     1
 10
238.8298245156667
 20
83.19406482604093
 11
238.8305254369581
 21
83.2100062776877
 72
     1
 10
238.8305254369581
 20
83.2100062776877
 11
238.8312263582495
 21
83.22594772933446
 72
     1
 10
238.8312263582495
 20
83.22594772933446
 11
238.831927279541
 21
83.24188918098123
 72
     1
 10
238.831927279541
 20
83.24188918098123
 11
238.8326282008325
 21
83.257830632628
 72
     1
 10
238.8326282008325
 20
83.257830632628
 11
238.8333291221238
 21
83.27377208427477
 72
     1
 10
238.8333291221238
 20
83.27377208427477
 11
238.8340300434153
 21
83.28971353592142
 72
     1
 10
238.8340300434153
 20
83.28971353592142
 11
238.8347309647068
 21
83.30565498756819
 72
     1
 10
238.8347309647068
 20
83.30565498756819
 11
238.8354318859982
 21
83.32159643921496
 72
     1
 10
238.8354318859982
 20
83.32159643921496
 11
238.8361328072897
 21
83.33753789086173
 72
     1
 10
238.8361328072897
 20
83.33753789086173
 11
238.8368337285812
 21
83.35347934250849
 72
     1
 10
238.8368337285812
 20
83.35347934250849
 11
238.8375346498726
 21
83.36942079415526
 72
     1
 10
238.8375346498726
 20
83.36942079415526
 11
238.8382355711641
 21
83.38536224580196
 72
     1
 10
238.8382355711641
 20
83.38536224580196
 11
236.8382355711641
 21
83.38536224580196
 72
     2
 10
236.4382355711641
 20
83.38536224580196
 40
0.4
 50
0.0
 51
90.00000000000813
 73
     0
 72
     1
 10
236.438235571164
 20
82.98536224580194
 11
236.4382355711641
 21
82.87165811518032
 72
     1
 10
236.4382355711641
 20
82.87165811518032
 11
236.4410298879477
 21
82.87140254867741
 72
     1
 10
236.4410298879477
 20
82.87140254867741
 11
236.5240975014374
 21
82.86380523555995
 72
     1
 10
236.5240975019962
 20
82.86380523553579
 11
236.6071396481019
 21
82.85620309962594
 72
     1
 10
236.6071396480996
 20
82.85620309962583
 11
236.6876859355857
 21
82.84812833242235
 72
     1
 10
236.6876859355863
 20
82.8481283324224
 11
236.7641064159723
 21
82.83927227675436
 72
     1
 10
236.7641064159719
 20
82.83927227675424
 11
236.8364010892556
 21
82.82963493262146
 72
     1
 10
236.8364010892565
 20
82.82963493262123
 11
236.904569955441
 21
82.81921630002348
 72
     1
 10
236.9045699554399
 20
82.81921630002354
 11
236.9686130145217
 21
82.808016378961
 72
     1
 10
236.9686130145222
 20
82.808016378961
 11
237.011492051106
 21
82.79944217529437
 72
     1
 10
237.011492051106
 20
82.79944217529437
 11
237.0285302665028
 21
82.796035169434
 97
        0
 75
     0
 76
     0
 52
0.0
 41
0.1
 77
     0
 78
     1
 53
0.0
 43
0.0
 44
0.0
 45
0.0
 46
0.1
 79
     0
 98
        0
  0
LINE
  5
256
330
1F
100
AcDbEntity
  8
基準ﾚｲﾔｸﾞﾙｰﾌﾟ_01
370
    40
100
AcDbLine
 10
237.0756929064717
 20
82.785362245802
 30
0.0
 11
232.1882355711641
 21
82.785362245802
 31
0.0
  0
LINE
  5
257
330
1F
100
AcDbEntity
  8
基準ﾚｲﾔｸﾞﾙｰﾌﾟ_01
370
    40
100
AcDbLine
 10
232.1882355711641
 20
82.785362245802
 30
0.0
 11
231.6882355711641
 21
82.285362245802
 31
0.0
  0
LINE
  5
258
330
1F
100
AcDbEntity
  8
基準ﾚｲﾔｸﾞﾙｰﾌﾟ_01
370
    40
100
AcDbLine
 10
237.0756929064717
 20
83.98536224580192
 30
0.0
 11
232.1882355711641
 21
83.98536224580192
 31
0.0
  0
LINE
  5
259
330
1F
100
AcDbEntity
  8
基準ﾚｲﾔｸﾞﾙｰﾌﾟ_01
370
    40
100
AcDbLine
 10
232.1882355711641
 20
83.98536224580192
 30
0.0
 11
231.6882355711641
 21
84.48536224580192
 31
0.0
  0
LINE
  5
25A
330
1F
100
AcDbEntity
  8
基準ﾚｲﾔｸﾞﾙｰﾌﾟ_01
370
    40
100
AcDbLine
 10
231.6882355711641
 20
82.28536224580206
 30
0.0
 11
231.6882355711641
 21
78.43536224580198
 31
0.0
  0
LINE
  5
25B
330
1F
100
AcDbEntity
  8
基準ﾚｲﾔｸﾞﾙｰﾌﾟ_01
370
    40
100
AcDbLine
 10
227.6882360711639
 20
80.78536224580195
 30
0.0
 11
226.6520385711639
 21
80.78536224580195
 31
0.0
  0
LINE
  5
25C
330
1F
100
AcDbEntity
  8
基準ﾚｲﾔｸﾞﾙｰﾌﾟ_01
370
    40
100
AcDbLine
 10
227.6882360711639
 20
79.98536224580188
 30
0.0
 11
226.6520385711639
 21
79.98536224580188
 31
0.0
  0
LINE
  5
25D
330
1F
100
AcDbEntity
  8
基準ﾚｲﾔｸﾞﾙｰﾌﾟ_01
370
    40
100
AcDbLine
 10
231.6882355711641
 20
88.33536224580197
 30
0.0
 11
241.1882355711641
 21
88.33536224580197
 31
0.0
  0
LINE
  5
25E
330
1F
100
AcDbEntity
  8
基準ﾚｲﾔｸﾞﾙｰﾌﾟ_01
370
    40
100
AcDbLine
 10
132.6882365711639
 20
81.860362245802
 30
0.0
 11
132.6882365711639
 21
79.51036224580197
 31
0.0
  0
LINE
  5
25F
330
1F
100
AcDbEntity
  8
基準ﾚｲﾔｸﾞﾙｰﾌﾟ_01
370
    40
100
AcDbLine
 10
147.6882365711639
 20
79.51036224580197
 30
0.0
 11
147.6882365711639
 21
81.860362245802
 31
0.0
  0
LINE
  5
260
330
1F
100
AcDbEntity
  8
基準ﾚｲﾔｸﾞﾙｰﾌﾟ_01
370
    40
100
AcDbLine
 10
151.188236571164
 20
81.29256394744398
 30
0.0
 11
147.6882365711639
 21
81.2972893216354
 31
0.0
  0
LINE
  5
261
330
1F
100
AcDbEntity
  8
基準ﾚｲﾔｸﾞﾙｰﾌﾟ_01
370
    40
100
AcDbLine
 10
151.188236571164
 20
80.08256284465735
 30
0.0
 11
147.6882365711639
 21
80.08728821884894
 31
0.0
  0
HATCH
  5
262
330
1F
100
AcDbEntity
  8
基準ﾚｲﾔｸﾞﾙｰﾌﾟ_01
 62
     7
100
AcDbHatch
 10
0.0
 20
0.0
 30
0.0
210
0.0
220
0.0
230
1.0
  2
_USER
 70
     0
 71
     0
 91
        2
 92
        0
 93
        4
 72
     1
 10
151.188236571164
 20
81.29256394744392
 11
147.6882365711639
 21
81.29728932163546
 72
     1
 10
147.6882365711639
 20
81.29728932163546
 11
147.6882365711639
 21
80.69228877024217
 72
     1
 10
147.6882365711639
 20
80.69228877024217
 11
151.188236571164
 21
80.68756339605069
 72
     1
 10
151.188236571164
 20
80.68756339605069
 11
151.188236571164
 21
81.29256394744392
 97
        0
 92
        0
 93
        5
 72
     1
 10
151.188236571164
 20
80.68756339605069
 11
147.6882365711639
 21
80.69228877024217
 72
     1
 10
147.6882365711639
 20
80.69228877024217
 11
147.6882365711639
 21
80.08728821884888
 72
     1
 10
147.6882365711639
 20
80.08728821884894
 11
151.188236571164
 21
80.08256284465735
 72
     1
 10
151.188236571164
 20
80.08256284465735
 11
151.188236571164
 21
80.38531713481235
 72
     1
 10
151.188236571164
 20
80.38531713481235
 11
151.188236571164
 21
80.68756339605069
 97
        0
 75
     0
 76
     0
 52
45.0
 41
0.5
 77
     0
 78
     1
 53
45.0
 43
0.0
 44
0.0
 45
-0.3535533905932737
 46
0.3535533905932738
 79
     0
 98
        0
  0
LINE
  5
263
330
1F
100
AcDbEntity
  8
基準ﾚｲﾔｸﾞﾙｰﾌﾟ_01
370
    40
100
AcDbLine
 10
151.188236571164
 20
81.860362245802
 30
0.0
 11
151.188236571164
 21
79.51036224580197
 31
0.0
  0
LINE
  5
264
330
1F
100
AcDbEntity
  8
基準ﾚｲﾔｸﾞﾙｰﾌﾟ_01
370
    40
100
AcDbLine
 10
147.6882365711639
 20
81.860362245802
 30
0.0
 11
132.6882365711639
 21
81.860362245802
 31
0.0
  0
LINE
  5
265
330
1F
100
AcDbEntity
  8
基準ﾚｲﾔｸﾞﾙｰﾌﾟ_01
370
    40
100
AcDbLine
 10
147.6882365711639
 20
79.51036224580197
 30
0.0
 11
132.6882365711639
 21
79.51036224580203
 31
0.0
  0
LINE
  5
266
330
1F
100
AcDbEntity
  8
基準ﾚｲﾔｸﾞﾙｰﾌﾟ_01
370
    40
100
AcDbLine
 10
155.6808974001608
 20
81.860362245802
 30
0.0
 11
151.188236571164
 21
81.860362245802
 31
0.0
  0
LINE
  5
267
330
1F
100
AcDbEntity
  8
基準ﾚｲﾔｸﾞﾙｰﾌﾟ_01
370
    40
100
AcDbLine
 10
155.6808974001608
 20
79.51036224580197
 30
0.0
 11
151.188236571164
 21
79.51036224580197
 31
0.0
  0
INSERT
  5
26B
330
1F
100
AcDbEntity
  8
基準ﾚｲﾔｸﾞﾙｰﾌﾟ_01
370
    40
100
AcDbBlockReference
  2
BLKF037
 10
0.0
 20
0.0
 30
0.0
  0
INSERT
  5
272
330
1F
100
AcDbEntity
  8
基準ﾚｲﾔｸﾞﾙｰﾌﾟ_01
370
    40
100
AcDbBlockReference
  2
BLKF038
 10
0.0
 20
0.0
 30
0.0
  0
HATCH
  5
276
330
1F
100
AcDbEntity
  8
基準ﾚｲﾔｸﾞﾙｰﾌﾟ_01
 62
     7
100
AcDbHatch
 10
0.0
 20
0.0
 30
0.0
210
0.0
220
0.0
230
1.0
  2
_USER
 70
     0
 71
     0
 91
        1
 92
        0
 93
        2
 72
     2
 10
156.5719390668274
 20
81.27286224580196
 40
1.06729166666666
 50
146.601511532014
 51
213.398488467986
 73
     1
 72
     2
 10
154.7898557334942
 20
81.27286224580196
 40
1.067291666666648
 50
326.6015115320123
 51
393.3984884679865
 73
     1
 97
        0
 75
     0
 76
     0
 52
0.0
 41
0.1
 77
     0
 78
     1
 53
0.0
 43
0.0
 44
0.0
 45
0.0
 46
0.1
 79
     0
 98
        0
  0
HATCH
  5
277
330
1F
100
AcDbEntity
  8
基準ﾚｲﾔｸﾞﾙｰﾌﾟ_01
 62
     7
100
AcDbHatch
 10
0.0
 20
0.0
 30
0.0
210
0.0
220
0.0
230
1.0
  2
_USER
 70
     0
 71
     0
 91
        1
 92
        0
 93
        3
 72
     1
 10
160.4557894360851
 20
80.67505120887178
 11
160.4423740105741
 21
80.6750693211305
 72
     2
 10
161.3401175674583
 20
80.097862245802
 40
1.067291666666721
 50
147.2608803886914
 51
213.3984884679875
 73
     1
 72
     2
 10
159.5580342341248
 20
80.097862245802
 40
1.067291666666721
 50
326.6015115320125
 51
392.7379636584274
 73
     1
 97
        0
 75
     0
 76
     0
 52
0.0
 41
0.1
 77
     0
 78
     1
 53
0.0
 43
0.0
 44
0.0
 45
0.0
 46
0.1
 79
     0
 98
        0
  0
LINE
  5
278
330
1F
100
AcDbEntity
  8
基準ﾚｲﾔｸﾞﾙｰﾌﾟ_01
370
    40
100
AcDbLine
 10
261.6882355711638
 20
78.4353622458021
 30
0.0
 11
261.6882355711638
 21
76.43536224580204
 31
0.0
  0
LINE
  5
279
330
1F
100
AcDbEntity
  8
基準ﾚｲﾔｸﾞﾙｰﾌﾟ_01
370
    40
100
AcDbLine
 10
163.6882355711637
 20
78.43536224580204
 30
0.0
 11
163.6882355711637
 21
76.43536224580221
 31
0.0
  0
LINE
  5
27A
330
1F
100
AcDbEntity
  8
基準ﾚｲﾔｸﾞﾙｰﾌﾟ_01
370
    40
100
AcDbLine
 10
258.6882355711638
 20
78.43536224580204
 30
0.0
 11
258.6882355711638
 21
76.4353622458021
 31
0.0
  0
LINE
  5
27B
330
1F
100
AcDbEntity
  8
基準ﾚｲﾔｸﾞﾙｰﾌﾟ_01
370
    40
100
AcDbLine
 10
166.6882355711637
 20
78.43536224580204
 30
0.0
 11
166.6882355711637
 21
76.43536224580221
 31
0.0
  0
LINE
  5
27C
330
1F
100
AcDbEntity
  8
基準ﾚｲﾔｸﾞﾙｰﾌﾟ_01
370
    40
100
AcDbLine
 10
261.6882355711638
 20
76.43536224580204
 30
0.0
 11
163.6882355711637
 21
76.43536224580221
 31
0.0
  0
LINE
  5
27D
330
1F
100
AcDbEntity
  8
基準ﾚｲﾔｸﾞﾙｰﾌﾟ_01
370
    40
100
AcDbLine
 10
222.6882385711639
 20
78.4353622458021
 30
0.0
 11
218.3218324113992
 21
78.4353622458021
 31
0.0
  0
LINE
  5
27E
330
1F
100
AcDbEntity
  8
基準ﾚｲﾔｸﾞﾙｰﾌﾟ_01
 62
     7
100
AcDbLine
 10
191.9395327562765
 20
76.53536224580195
 30
0.0
 11
191.9395327562765
 21
76.43536224580221
 31
0.0
  0
LINE
  5
27F
330
1F
100
AcDbEntity
  8
基準ﾚｲﾔｸﾞﾙｰﾌﾟ_01
 62
     7
100
AcDbLine
 10
189.4395327562765
 20
76.53536224580195
 30
0.0
 11
189.4395327562765
 21
76.43536224580221
 31
0.0
  0
LINE
  5
280
330
1F
100
AcDbEntity
  8
基準ﾚｲﾔｸﾞﾙｰﾌﾟ_01
370
    40
100
AcDbLine
 10
189.6895327562765
 20
76.53536224580195
 30
0.0
 11
189.6895327562765
 21
76.43536224580221
 31
0.0
  0
LINE
  5
281
330
1F
100
AcDbEntity
  8
基準ﾚｲﾔｸﾞﾙｰﾌﾟ_01
370
    40
100
AcDbLine
 10
191.6895327562765
 20
76.53536224580195
 30
0.0
 11
191.6895327562765
 21
76.43536224580221
 31
0.0
  0
SPLINE
  5
282
330
1F
100
AcDbEntity
  8
基準ﾚｲﾔｸﾞﾙｰﾌﾟ_01
 62
     7
100
AcDbSpline
210
0.0
220
0.0
230
1.0
 70
     8
 71
     2
 72
    19
 73
    16
 74
     0
 42
0.000000001
 43
0.0000000001
 40
0.0
 40
0.0
 40
0.0
 40
1.0
 40
2.0
 40
3.0
 40
4.0
 40
5.0
 40
6.0
 40
7.0
 40
8.0
 40
9.0
 40
10.0
 40
11.0
 40
12.0
 40
13.0
 40
14.0
 40
14.0
 40
14.0
 10
188.8533771726613
 20
174.4184612068592
 30
0.0
 10
187.9776326401052
 20
173.3202192482264
 30
0.0
 10
186.2261435749929
 20
171.1237353309608
 30
0.0
 10
186.8519892305501
 20
163.9054629901115
 30
0.0
 10
186.4427730776983
 20
155.8039612333215
 30
0.0
 10
187.0773492443599
 20
153.5413390734298
 30
0.0
 10
188.7587043588342
 20
153.7826657912821
 30
0.0
 10
190.5232489634839
 20
156.9292973678139
 30
0.0
 10
190.4732965614921
 20
161.0663999693528
 30
0.0
 10
190.7082614179415
 20
166.5713184324772
 30
0.0
 10
190.4287594913958
 20
169.3248645266076
 30
0.0
 10
189.9395816495131
 20
174.0155707459243
 30
0.0
 10
189.503690512349
 20
174.4336240849024
 30
0.0
 10
189.2502385299947
 20
174.6644460081658
 30
0.0
 10
188.9842449337571
 20
174.5026838325805
 30
0.0
 10
188.8512481356383
 20
174.4218027447878
 30
0.0
  0
SPLINE
  5
283
330
1F
100
AcDbEntity
  8
基準ﾚｲﾔｸﾞﾙｰﾌﾟ_01
 62
     7
100
AcDbSpline
210
0.0
220
0.0
230
1.0
 70
     8
 71
     2
 72
    10
 73
     7
 74
     0
 42
0.000000001
 43
0.0000000001
 40
0.0
 40
0.0
 40
0.0
 40
1.0
 40
2.0
 40
3.0
 40
4.0
 40
4.033054702260933
 40
4.033054702260933
 40
4.033054702260933
 10
220.972943480671
 20
161.8260695325786
 30
0.0
 10
221.4764608955434
 20
158.9193540213994
 30
0.0
 10
222.4834957252881
 20
153.1059229990413
 30
0.0
 10
224.715607378598
 20
145.8195326717932
 30
0.0
 10
228.0488696229372
 20
141.5532132120075
 30
0.0
 10
231.5763400215712
 20
141.5398550146839
 30
0.0
 10
231.6882355621086
 20
141.5393464170221
 30
0.0
  0
SPLINE
  5
284
330
1F
100
AcDbEntity
  8
基準ﾚｲﾔｸﾞﾙｰﾌﾟ_01
 62
     7
100
AcDbSpline
210
0.0
220
0.0
230
1.0
 70
     8
 71
     2
 72
    10
 73
     7
 74
     0
 42
0.000000001
 43
0.0000000001
 40
5.822461868545366
 40
5.822461868545366
 40
5.822461868545366
 40
6.0
 40
7.0
 40
8.0
 40
9.0
 40
9.988890002561364
 40
9.988890002561364
 40
9.988890002561364
 10
241.1882355701719
 20
143.6152423164787
 30
0.0
 10
241.5574246697961
 20
144.1002525093787
 30
0.0
 10
243.8931228412214
 20
148.0336995086737
 30
0.0
 10
244.0822116310886
 20
163.6919573213908
 30
0.0
 10
243.7830964228697
 20
178.5112290375637
 30
0.0
 10
243.2239871502742
 20
184.2766921095657
 30
0.0
 10
241.188235568604
 20
187.406951188671
 30
0.0
  0
SPLINE
  5
285
330
1F
100
AcDbEntity
  8
基準ﾚｲﾔｸﾞﾙｰﾌﾟ_01
 62
     7
100
AcDbSpline
210
0.0
220
0.0
230
1.0
 70
     8
 71
     2
 72
    14
 73
    11
 74
     0
 42
0.000000001
 43
0.0000000001
 40
10.23414214526819
 40
10.23414214526819
 40
10.23414214526819
 40
11.0
 40
12.0
 40
13.0
 40
14.0
 40
15.0
 40
16.0
 40
17.0
 40
18.0
 40
19.0
 40
19.0
 40
19.0
 10
240.1675633237111
 20
188.8196495666689
 30
0.0
 10
238.5712886442902
 20
190.7837268917744
 30
0.0
 10
234.857774799465
 20
191.8243816854909
 30
0.0
 10
229.2422812039389
 20
187.9729453654899
 30
0.0
 10
228.3980157666296
 20
182.6640281862225
 30
0.0
 10
229.1049746013125
 20
176.1948878744564
 30
0.0
 10
228.1639333420608
 20
173.1010998675987
 30
0.0
 10
223.4720014484939
 20
170.0911568414255
 30
0.0
 10
220.8783000851107
 20
168.1498769986507
 30
0.0
 10
220.9410849053723
 20
163.9358642004871
 30
0.0
 10
220.9724773155032
 20
161.8288578014053
 30
0.0
  0
SPLINE
  5
286
330
1F
100
AcDbEntity
  8
基準ﾚｲﾔｸﾞﾙｰﾌﾟ_01
370
    40
100
AcDbSpline
210
0.0
220
0.0
230
1.0
 70
     8
 71
     2
 72
    14
 73
    11
 74
     0
 42
0.000000001
 43
0.0000000001
 40
0.0
 40
0.0
 40
0.0
 40
1.0
 40
2.0
 40
3.0
 40
4.0
 40
5.0
 40
6.0
 40
7.0
 40
8.0
 40
9.0
 40
9.0
 40
9.0
 10
235.1950156772201
 20
83.78536224580193
 30
0.0
 10
235.8964755291853
 20
83.84951733455352
 30
0.0
 10
237.2993952331154
 20
83.97782751205676
 30
0.0
 10
237.525492131322
 20
84.32898816721297
 30
0.0
 10
237.8802902334675
 20
84.3919128223244
 30
0.0
 10
238.4195842027798
 20
84.43368326976884
 30
0.0
 10
238.6038450307485
 20
84.23831676277541
 30
0.0
 10
238.764362121384
 20
83.97164251121103
 30
0.0
 10
238.8204788984472
 20
83.78921235418625
 30
0.0
 10
238.8323166802585
 20
83.5199789485967
 30
0.0
 10
238.8382355711641
 20
83.38536224580196
 30
0.0
  0
SPLINE
  5
287
330
1F
100
AcDbEntity
  8
基準ﾚｲﾔｸﾞﾙｰﾌﾟ_01
370
    40
100
AcDbSpline
210
0.0
220
0.0
230
1.0
 70
     8
 71
     2
 72
    14
 73
    11
 74
     0
 42
0.000000001
 43
0.0000000001
 40
0.0
 40
0.0
 40
0.0
 40
1.0
 40
2.0
 40
3.0
 40
4.0
 40
5.0
 40
6.0
 40
7.0
 40
8.0
 40
9.0
 40
9.0
 40
9.0
 10
235.1950156772201
 20
82.985362245802
 30
0.0
 10
235.8964755291853
 20
82.9212071570504
 30
0.0
 10
237.2993952331154
 20
82.79289697954717
 30
0.0
 10
237.525492131322
 20
82.44173632439102
 30
0.0
 10
237.8802902334675
 20
82.37881166927953
 30
0.0
 10
238.4195842027798
 20
82.3370412218351
 30
0.0
 10
238.6038450307485
 20
82.53240772882852
 30
0.0
 10
238.764362121384
 20
82.7990819803929
 30
0.0
 10
238.8204788984472
 20
82.98151213741768
 30
0.0
 10
238.8323166802585
 20
83.25074554300723
 30
0.0
 10
238.8382355711641
 20
83.38536224580196
 30
0.0
  0
SPLINE
  5
288
330
1F
100
AcDbEntity
  8
基準ﾚｲﾔｸﾞﾙｰﾌﾟ_01
370
    40
100
AcDbSpline
210
0.0
220
0.0
230
1.0
 70
     8
 71
     2
 72
    15
 73
    12
 74
     0
 42
0.000000001
 43
0.0000000001
 40
0.0
 40
0.0
 40
0.0
 40
1.0
 40
2.0
 40
3.0
 40
4.0
 40
5.0
 40
6.0
 40
7.0
 40
8.0
 40
9.0
 40
10.0
 40
10.0
 40
10.0
 10
230.8882355711642
 20
82.98536224580194
 30
0.0
 10
230.7655022124578
 20
82.98249532262095
 30
0.0
 10
230.5200354950452
 20
82.97676147625886
 30
0.0
 10
230.1493384041585
 20
82.80719673265897
 30
0.0
 10
229.6664388744089
 20
82.42679148824455
 30
0.0
 10
229.53071731639
 20
81.9332992707149
 30
0.0
 10
229.2017830774548
 20
81.29969088692191
 30
0.0
 10
228.9599788351348
 20
80.70318063029164
 30
0.0
 10
228.6125973862794
 20
80.39906399117889
 30
0.0
 10
228.1725420104806
 20
80.09398779943139
 30
0.0
 10
227.8496713842695
 20
80.02157076367838
 30
0.0
 10
227.6882360711639
 20
79.98536224580188
 30
0.0
  0
SPLINE
  5
289
330
1F
100
AcDbEntity
  8
基準ﾚｲﾔｸﾞﾙｰﾌﾟ_01
370
    40
100
AcDbSpline
210
0.0
220
0.0
230
1.0
 70
     8
 71
     2
 72
    16
 73
    13
 74
     0
 42
0.000000001
 43
0.0000000001
 40
0.0
 40
0.0
 40
0.0
 40
1.0
 40
2.0
 40
3.0
 40
4.0
 40
5.0
 40
6.0
 40
7.0
 40
8.0
 40
9.0
 40
10.0
 40
11.0
 40
11.0
 40
11.0
 10
230.8882355711642
 20
83.78536224580199
 30
0.0
 10
230.7740859253942
 20
83.77995143136621
 30
0.0
 10
230.5457866338542
 20
83.76912980249472
 30
0.0
 10
230.1368297077557
 20
83.62435096613564
 30
0.0
 10
229.7660357689941
 20
83.3594458641124
 30
0.0
 10
229.4219049660088
 20
82.98741685433488
 30
0.0
 10
229.1921908453201
 20
82.56942382908962
 30
0.0
 10
228.8287389616418
 20
81.89694449779974
 30
0.0
 10
228.5647175909336
 20
81.39810430887452
 30
0.0
 10
228.2910616702022
 20
81.04752173405309
 30
0.0
 10
228.0169355759747
 20
80.81528516931952
 30
0.0
 10
227.7978025727675
 20
80.79533655364112
 30
0.0
 10
227.6882360711639
 20
80.78536224580195
 30
0.0
  0
SPLINE
  5
28A
330
1F
100
AcDbEntity
  8
基準ﾚｲﾔｸﾞﾙｰﾌﾟ_01
 62
     7
100
AcDbSpline
210
0.0
220
0.0
230
1.0
 70
     8
 71
     2
 72
    12
 73
     9
 74
     0
 42
0.000000001
 43
0.0000000001
 40
0.0
 40
0.0
 40
0.0
 40
1.0
 40
2.0
 40
3.0
 40
4.0
 40
5.0
 40
6.0
 40
6.75456298551139
 40
6.75456298551139
 40
6.75456298551139
 10
219.3811892616752
 20
84.53536224580193
 30
0.0
 10
219.8165178932378
 20
84.73922666916474
 30
0.0
 10
220.687175156363
 20
85.14695551589023
 30
0.0
 10
222.9931497917273
 20
85.20284113484888
 30
0.0
 10
224.7040899575188
 20
85.36608165346865
 30
0.0
 10
226.3156926066371
 20
85.399550807546
 30
0.0
 10
230.382085761329
 20
85.52264122543102
 30
0.0
 10
231.2954405057045
 20
85.38892456952351
 30
0.0
 10
231.6882355711641
 20
85.33141871768044
 30
0.0
  0
SPLINE
  5
28B
330
1F
100
AcDbEntity
  8
基準ﾚｲﾔｸﾞﾙｰﾌﾟ_01
 62
     7
100
AcDbSpline
210
0.0
220
0.0
230
1.0
 70
     8
 71
     2
 72
    10
 73
     7
 74
     0
 42
0.000000001
 43
0.0000000001
 40
0.5530687038964809
 40
0.5530687038964809
 40
0.5530687038964809
 40
1.0
 40
2.0
 40
3.0
 40
4.0
 40
4.05577352736683
 40
4.05577352736683
 40
4.05577352736683
 10
241.1882355711641
 20
85.05354041399147
 30
0.0
 10
241.423877476366
 20
84.96575373683146
 30
0.0
 10
242.1867635178733
 20
84.68154609312609
 30
0.0
 10
243.3781934335071
 20
82.1849193584235
 30
0.0
 10
244.0993567178795
 20
79.04120573910485
 30
0.0
 10
243.9840838047949
 20
78.46576134452643
 30
0.0
 10
243.9779942630456
 20
78.43536224580193
 30
0.0
  0
INSERT
  5
28F
330
1F
100
AcDbEntity
  8
基準ﾚｲﾔｸﾞﾙｰﾌﾟ_01
370
    40
100
AcDbBlockReference
  2
BLKF039
 10
0.0
 20
0.0
 30
0.0
  0
LINE
  5
2A1
330
1F
100
AcDbEntity
  8
基準ﾚｲﾔｸﾞﾙｰﾌﾟ_01
  6
一点鎖線
 62
     7
100
AcDbLine
 10
187.563236571164
 20
146.7196515879592
 30
0.0
 11
193.813236571164
 21
146.7196515879592
 31
0.0
  0
LINE
  5
2A2
330
1F
100
AcDbEntity
  8
基準ﾚｲﾔｸﾞﾙｰﾌﾟ_01
  6
一点鎖線
 62
     7
100
AcDbLine
 10
190.688236571164
 20
149.5946515879592
 30
0.0
 11
190.688236571164
 21
143.8446515879592
 31
0.0
  0
INSERT
  5
2A6
330
1F
100
AcDbEntity
  8
基準ﾚｲﾔｸﾞﾙｰﾌﾟ_01
370
    40
100
AcDbBlockReference
  2
BLKF040
 10
0.0
 20
0.0
 30
0.0
  0
LINE
  5
2B8
330
1F
100
AcDbEntity
  8
基準ﾚｲﾔｸﾞﾙｰﾌﾟ_01
  6
一点鎖線
 62
     7
100
AcDbLine
 10
190.6895327562765
 20
86.86036224580192
 30
0.0
 11
190.6895327562765
 21
75.91036224580195
 31
0.0
  0
INSERT
  5
2BC
330
1F
100
AcDbEntity
  8
基準ﾚｲﾔｸﾞﾙｰﾌﾟ_01
370
    40
100
AcDbBlockReference
  2
BLKF041
 10
0.0
 20
0.0
 30
0.0
  0
INSERT
  5
2C6
330
1F
100
AcDbEntity
  8
基準ﾚｲﾔｸﾞﾙｰﾌﾟ_01
370
    40
100
AcDbBlockReference
  2
BLKF042
 10
0.0
 20
0.0
 30
0.0
  0
ENDSEC
  0
SECTION
  2
OBJECTS
  0
DICTIONARY
  5
C
330
0
100
AcDbDictionary
281
     1
  3
ACAD_GROUP
350
D
  3
ACAD_LAYOUT
350
1A
  3
ACAD_MATERIAL
350
43
  3
ACAD_MLEADERSTYLE
350
6B
  3
ACAD_MLINESTYLE
350
17
  3
ACAD_PLOTSETTINGS
350
19
  3
ACAD_PLOTSTYLENAME
350
E
  3
ACAD_SCALELIST
350
47
  3
ACAD_TABLESTYLE
350
69
  3
ACAD_VISUALSTYLE
350
2A
  3
AcDbVariableDictionary
350
2D3
  0
DICTIONARY
  5
2DC
330
8
100
AcDbDictionary
280
     1
281
     1
  3
ACAD_XREC_ROUNDTRIP
360
2DD
  0
DICTIONARY
  5
D
102
{ACAD_REACTORS
330
C
102
}
330
C
100
AcDbDictionary
281
     1
  0
DICTIONARY
  5
1A
102
{ACAD_REACTORS
330
C
102
}
330
C
100
AcDbDictionary
281
     1
  3
Layout1
350
1E
  3
Layout2
350
26
  3
Model
350
22
  0
DICTIONARY
  5
43
102
{ACAD_REACTORS
330
C
102
}
330
C
100
AcDbDictionary
281
     1
  3
ByBlock
350
45
  3
ByLayer
350
44
  3
Global
350
46
  0
DICTIONARY
  5
6B
102
{ACAD_REACTORS
330
C
102
}
330
C
100
AcDbDictionary
281
     1
  3
Standard
350
6C
  0
DICTIONARY
  5
17
102
{ACAD_REACTORS
330
C
102
}
330
C
100
AcDbDictionary
281
     1
  3
Standard
350
18
  0
DICTIONARY
  5
19
102
{ACAD_REACTORS
330
C
102
}
330
C
100
AcDbDictionary
281
     1
  0
ACDBDICTIONARYWDFLT
  5
E
102
{ACAD_REACTORS
330
C
102
}
330
C
100
AcDbDictionary
281
     1
  3
Normal
350
F
100
AcDbDictionaryWithDefault
340
F
  0
DICTIONARY
  5
47
102
{ACAD_REACTORS
330
C
102
}
330
C
100
AcDbDictionary
281
     1
  3
A0
350
48
  3
A1
350
49
  3
A2
350
4A
  3
A3
350
4B
  3
A4
350
4C
  3
A5
350
4D
  3
A6
350
4E
  3
A7
350
4F
  3
A8
350
50
  3
A9
350
51
  3
B0
350
52
  3
B1
350
53
  3
B2
350
54
  3
B3
350
55
  3
B4
350
56
  3
B5
350
57
  3
B6
350
58
  3
B7
350
59
  3
B8
350
5A
  3
B9
350
5B
  3
C0
350
5C
  3
C1
350
5D
  3
C2
350
5E
  3
C3
350
5F
  3
C4
350
60
  3
C5
350
61
  3
C6
350
62
  3
C7
350
63
  3
C8
350
64
  3
C9
350
65
  3
D0
350
66
  3
D1
350
67
  3
D2
350
68
  0
DICTIONARY
  5
69
102
{ACAD_REACTORS
330
C
102
}
330
C
100
AcDbDictionary
281
     1
  3
Standard
350
6A
  0
DICTIONARY
  5
2A
102
{ACAD_REACTORS
330
C
102
}
330
C
100
AcDbDictionary
281
     1
  3
2dWireframe
350
2F
  3
Basic
350
32
  3
Brighten
350
36
  3
ColorChange
350
3A
  3
Conceptual
350
34
  3
Dim
350
35
  3
EdgeColorOff
350
3D
  3
Facepattern
350
39
  3
Flat
350
2B
  3
FlatWithEdges
350
2C
  3
Gouraud
350
2D
  3
GouraudWithEdges
350
2E
  3
Hidden
350
31
  3
JitterOff
350
3B
  3
Linepattern
350
38
  3
OverhangOff
350
3C
  3
Realistic
350
33
  3
Shaded
350
42
  3
Shaded with edges
350
41
  3
Shades of Gray
350
3E
  3
Sketchy
350
3F
  3
Thicken
350
37
  3
Wireframe
350
30
  3
X-Ray
350
40
  0
DICTIONARY
  5
2D3
102
{ACAD_REACTORS
330
C
102
}
330
C
100
AcDbDictionary
281
     1
  3
CANNOSCALE
350
2DE
  3
CMLEADERSTYLE
350
2D5
  3
CTABLESTYLE
350
2D4
  3
DIMASSOC
350
2DA
  3
HIDETEXT
350
2DB
  3
MSLTSCALE
350
2DF
  3
PSOLHEIGHT
350
2D7
  3
PSOLWIDTH
350
2D6
  0
XRECORD
  5
2DD
102
{ACAD_REACTORS
330
2DC
102
}
330
2DC
100
AcDbXrecord
280
     1
102
VTR_0.000_0.000_1.000_1.000_GRIDDISPLAY
 70
     3
102
VTR_0.000_0.000_1.000_1.000_GRIDMAJOR
 70
     5
102
VTR_0.000_0.000_1.000_1.000_DEFAULTLIGHTING
280
     1
102
VTR_0.000_0.000_1.000_1.000_DEFAULTLIGHTINGTYPE
 70
     1
102
VTR_0.000_0.000_1.000_1.000_BRIGHTNESS
141
0.0
102
VTR_0.000_0.000_1.000_1.000_CONTRAST
142
0.0
  0
LAYOUT
  5
1E
102
{ACAD_REACTORS
330
1A
102
}
330
1A
100
AcDbPlotSettings
  1

  2
none_device
  4

  6

 40
0.0
 41
0.0
 42
0.0
 43
0.0
 44
0.0
 45
0.0
 46
0.0
 47
0.0
 48
0.0
 49
0.0
140
0.0
141
0.0
142
1.0
143
1.0
 70
   688
 72
     1
 73
     0
 74
     5
  7

 75
    16
147
1.0
148
0.0
149
0.0
100
AcDbLayout
  1
Layout1
 70
     1
 71
     1
 10
0.0
 20
0.0
 11
420.0
 21
297.0
 12
0.0
 22
0.0
 32
0.0
 14
1.000000000000000E+20
 24
1.000000000000000E+20
 34
1.000000000000000E+20
 15
-1.000000000000000E+20
 25
-1.000000000000000E+20
 35
-1.000000000000000E+20
146
0.0
 13
0.0
 23
0.0
 33
0.0
 16
1.0
 26
0.0
 36
0.0
 17
0.0
 27
1.0
 37
0.0
 76
     0
330
1B
  0
LAYOUT
  5
26
102
{ACAD_REACTORS
330
1A
102
}
330
1A
100
AcDbPlotSettings
  1

  2
none_device
  4

  6

 40
0.0
 41
0.0
 42
0.0
 43
0.0
 44
0.0
 45
0.0
 46
0.0
 47
0.0
 48
0.0
 49
0.0
140
0.0
141
0.0
142
1.0
143
1.0
 70
   688
 72
     1
 73
     0
 74
     5
  7

 75
    16
147
1.0
148
0.0
149
0.0
100
AcDbLayout
  1
Layout2
 70
     1
 71
     2
 10
0.0
 20
0.0
 11
0.0
 21
0.0
 12
0.0
 22
0.0
 32
0.0
 14
0.0
 24
0.0
 34
0.0
 15
0.0
 25
0.0
 35
0.0
146
0.0
 13
0.0
 23
0.0
 33
0.0
 16
1.0
 26
0.0
 36
0.0
 17
0.0
 27
1.0
 37
0.0
 76
     0
330
23
  0
LAYOUT
  5
22
102
{ACAD_REACTORS
330
1A
102
}
330
1A
100
AcDbPlotSettings
  1

  2
none_device
  4
Letter_(8.50_x_11.00_Inches)
  6

 40
6.35
 41
6.35
 42
6.35000508
 43
6.35000508
 44
215.9
 45
279.4
 46
0.0
 47
0.0
 48
0.0
 49
0.0
140
0.0
141
0.0
142
1.0
143
1.0
 70
  1712
 72
     1
 73
     0
 74
     0
  7

 75
     0
147
1.0
148
0.0
149
0.0
100
AcDbLayout
  1
Model
 70
     1
 71
     0
 10
0.0
 20
0.0
 11
420.0
 21
297.0
 12
0.0
 22
0.0
 32
0.0
 14
0.0
 24
0.0
 34
0.0
 15
420.0
 25
297.0
 35
0.0
146
0.0
 13
0.0
 23
0.0
 33
0.0
 16
1.0
 26
0.0
 36
0.0
 17
0.0
 27
1.0
 37
0.0
 76
     0
330
1F
331
29
  0
MATERIAL
  5
45
102
{ACAD_REACTORS
330
43
102
}
102
{ACAD_XDICTIONARY
360
312
102
}
330
43
100
AcDbMaterial
  1
ByBlock
  0
MATERIAL
  5
44
102
{ACAD_REACTORS
330
43
102
}
102
{ACAD_XDICTIONARY
360
310
102
}
330
43
100
AcDbMaterial
  1
ByLayer
  0
MATERIAL
  5
46
102
{ACAD_REACTORS
330
43
102
}
102
{ACAD_XDICTIONARY
360
314
102
}
330
43
100
AcDbMaterial
  1
Global
  0
MLEADERSTYLE
  5
6C
102
{ACAD_REACTORS
330
6B
102
}
102
{ACAD_XDICTIONARY
360
317
102
}
330
6B
100
AcDbMLeaderStyle
170
     2
171
     1
172
     0
 90
        2
 40
0.0
 41
0.0
173
     1
 91
-1056964608
340
14
 92
       -2
290
     1
 42
2.0
291
     1
 43
8.0
  3
Standard
341
0
 44
4.0
300

342
11
174
     1
178
     6
175
     1
176
     0
 93
-1056964608
 45
4.0
292
     0
297
     0
 46
4.0
343
0
 94
-1056964608
 47
1.0
 49
1.0
140
1.0
293
     1
141
0.0
294
     1
177
     0
142
1.0
295
     0
296
     0
143
3.75
1001
ACAD_MLEADERVER
1070
     2
  0
MLINESTYLE
  5
18
102
{ACAD_REACTORS
330
17
102
}
330
17
100
AcDbMlineStyle
  2
Standard
 70
     0
  3

 62
   256
 51
90.0
 52
90.0
 71
     2
 49
0.5
 62
   256
  6
BYLAYER
 49
-0.5
 62
   256
  6
BYLAYER
  0
ACDBPLACEHOLDER
  5
F
102
{ACAD_REACTORS
330
E
102
}
330
E
  0
SCALE
  5
48
102
{ACAD_REACTORS
330
47
102
}
330
47
100
AcDbScale
 70
     0
300
1:1
140
1.0
141
1.0
290
     1
  0
SCALE
  5
49
102
{ACAD_REACTORS
330
47
102
}
330
47
100
AcDbScale
 70
     0
300
1:2
140
1.0
141
2.0
290
     0
  0
SCALE
  5
4A
102
{ACAD_REACTORS
330
47
102
}
330
47
100
AcDbScale
 70
     0
300
1:4
140
1.0
141
4.0
290
     0
  0
SCALE
  5
4B
102
{ACAD_REACTORS
330
47
102
}
330
47
100
AcDbScale
 70
     0
300
1:5
140
1.0
141
5.0
290
     0
  0
SCALE
  5
4C
102
{ACAD_REACTORS
330
47
102
}
330
47
100
AcDbScale
 70
     0
300
1:8
140
1.0
141
8.0
290
     0
  0
SCALE
  5
4D
102
{ACAD_REACTORS
330
47
102
}
330
47
100
AcDbScale
 70
     0
300
1:10
140
1.0
141
10.0
290
     0
  0
SCALE
  5
4E
102
{ACAD_REACTORS
330
47
102
}
330
47
100
AcDbScale
 70
     0
300
1:16
140
1.0
141
16.0
290
     0
  0
SCALE
  5
4F
102
{ACAD_REACTORS
330
47
102
}
330
47
100
AcDbScale
 70
     0
300
1:20
140
1.0
141
20.0
290
     0
  0
SCALE
  5
50
102
{ACAD_REACTORS
330
47
102
}
330
47
100
AcDbScale
 70
     0
300
1:30
140
1.0
141
30.0
290
     0
  0
SCALE
  5
51
102
{ACAD_REACTORS
330
47
102
}
330
47
100
AcDbScale
 70
     0
300
1:40
140
1.0
141
40.0
290
     0
  0
SCALE
  5
52
102
{ACAD_REACTORS
330
47
102
}
330
47
100
AcDbScale
 70
     0
300
1:50
140
1.0
141
50.0
290
     0
  0
SCALE
  5
53
102
{ACAD_REACTORS
330
47
102
}
330
47
100
AcDbScale
 70
     0
300
1:100
140
1.0
141
100.0
290
     0
  0
SCALE
  5
54
102
{ACAD_REACTORS
330
47
102
}
330
47
100
AcDbScale
 70
     0
300
2:1
140
2.0
141
1.0
290
     0
  0
SCALE
  5
55
102
{ACAD_REACTORS
330
47
102
}
330
47
100
AcDbScale
 70
     0
300
4:1
140
4.0
141
1.0
290
     0
  0
SCALE
  5
56
102
{ACAD_REACTORS
330
47
102
}
330
47
100
AcDbScale
 70
     0
300
8:1
140
8.0
141
1.0
290
     0
  0
SCALE
  5
57
102
{ACAD_REACTORS
330
47
102
}
330
47
100
AcDbScale
 70
     0
300
10:1
140
10.0
141
1.0
290
     0
  0
SCALE
  5
58
102
{ACAD_REACTORS
330
47
102
}
330
47
100
AcDbScale
 70
     0
300
100:1
140
100.0
141
1.0
290
     0
  0
SCALE
  5
59
102
{ACAD_REACTORS
330
47
102
}
330
47
100
AcDbScale
 70
     0
300
1/128" = 1'-0"
140
0.0078125
141
12.0
290
     0
  0
SCALE
  5
5A
102
{ACAD_REACTORS
330
47
102
}
330
47
100
AcDbScale
 70
     0
300
1/64" = 1'-0"
140
0.015625
141
12.0
290
     0
  0
SCALE
  5
5B
102
{ACAD_REACTORS
330
47
102
}
330
47
100
AcDbScale
 70
     0
300
1/32" = 1'-0"
140
0.03125
141
12.0
290
     0
  0
SCALE
  5
5C
102
{ACAD_REACTORS
330
47
102
}
330
47
100
AcDbScale
 70
     0
300
1/16" = 1'-0"
140
0.0625
141
12.0
290
     0
  0
SCALE
  5
5D
102
{ACAD_REACTORS
330
47
102
}
330
47
100
AcDbScale
 70
     0
300
3/32" = 1'-0"
140
0.09375
141
12.0
290
     0
  0
SCALE
  5
5E
102
{ACAD_REACTORS
330
47
102
}
330
47
100
AcDbScale
 70
     0
300
1/8" = 1'-0"
140
0.125
141
12.0
290
     0
  0
SCALE
  5
5F
102
{ACAD_REACTORS
330
47
102
}
330
47
100
AcDbScale
 70
     0
300
3/16" = 1'-0"
140
0.1875
141
12.0
290
     0
  0
SCALE
  5
60
102
{ACAD_REACTORS
330
47
102
}
330
47
100
AcDbScale
 70
     0
300
1/4" = 1'-0"
140
0.25
141
12.0
290
     0
  0
SCALE
  5
61
102
{ACAD_REACTORS
330
47
102
}
330
47
100
AcDbScale
 70
     0
300
3/8" = 1'-0"
140
0.375
141
12.0
290
     0
  0
SCALE
  5
62
102
{ACAD_REACTORS
330
47
102
}
330
47
100
AcDbScale
 70
     0
300
1/2" = 1'-0"
140
0.5
141
12.0
290
     0
  0
SCALE
  5
63
102
{ACAD_REACTORS
330
47
102
}
330
47
100
AcDbScale
 70
     0
300
3/4" = 1'-0"
140
0.75
141
12.0
290
     0
  0
SCALE
  5
64
102
{ACAD_REACTORS
330
47
102
}
330
47
100
AcDbScale
 70
     0
300
1" = 1'-0"
140
1.0
141
12.0
290
     0
  0
SCALE
  5
65
102
{ACAD_REACTORS
330
47
102
}
330
47
100
AcDbScale
 70
     0
300
1-1/2" = 1'-0"
140
1.5
141
12.0
290
     0
  0
SCALE
  5
66
102
{ACAD_REACTORS
330
47
102
}
330
47
100
AcDbScale
 70
     0
300
3" = 1'-0"
140
3.0
141
12.0
290
     0
  0
SCALE
  5
67
102
{ACAD_REACTORS
330
47
102
}
330
47
100
AcDbScale
 70
     0
300
6" = 1'-0"
140
6.0
141
12.0
290
     0
  0
SCALE
  5
68
102
{ACAD_REACTORS
330
47
102
}
330
47
100
AcDbScale
 70
     0
300
1'-0" = 1'-0"
140
12.0
141
12.0
290
     0
  0
TABLESTYLE
  5
6A
102
{ACAD_REACTORS
330
69
102
}
330
69
100
AcDbTableStyle
  3
Standard
 70
     0
 71
     0
 40
1.5
 41
1.5
280
     0
281
     0
  7
Standard
140
4.5
170
     2
 62
     0
 63
   257
283
     0
274
    -2
284
     1
 64
     0
275
    -2
285
     1
 65
     0
276
    -2
286
     1
 66
     0
277
    -2
287
     1
 67
     0
278
    -2
288
     1
 68
     0
279
    -2
289
     1
 69
     0
  7
Standard
140
6.0
170
     5
 62
     0
 63
   257
283
     0
274
    -2
284
     1
 64
     0
275
    -2
285
     1
 65
     0
276
    -2
286
     1
 66
     0
277
    -2
287
     1
 67
     0
278
    -2
288
     1
 68
     0
279
    -2
289
     1
 69
     0
  7
Standard
140
4.5
170
     5
 62
     0
 63
   257
283
     0
274
    -2
284
     1
 64
     0
275
    -2
285
     1
 65
     0
276
    -2
286
     1
 66
     0
277
    -2
287
     1
 67
     0
278
    -2
288
     1
 68
     0
279
    -2
289
     1
 69
     0
  0
VISUALSTYLE
  5
2F
102
{ACAD_REACTORS
330
2A
102
}
102
{ACAD_XDICTIONARY
360
2E8
102
}
330
2A
100
AcDbVisualStyle
  2
2dWireframe
 70
     4
 71
     0
 72
     2
 73
     0
 90
        0
 40
0.6
 41
30.0
 62
     5
 63
     7
 74
     1
 91
        4
 64
     7
 65
   257
 75
     1
175
     1
 42
1.0
 92
        0
 66
   257
 43
1.0
 76
     1
 77
     6
 78
     2
 67
     7
 79
     5
170
     0
171
     0
290
     0
174
     0
 93
        1
 44
0.0
173
     0
291
     0
 45
0.0
1001
ACAD
1000
AcDbSavedByObjectVersion
1070
     0
  0
VISUALSTYLE
  5
32
102
{ACAD_REACTORS
330
2A
102
}
102
{ACAD_XDICTIONARY
360
2EE
102
}
330
2A
100
AcDbVisualStyle
  2
Basic
 70
     7
 71
     1
 72
     0
 73
     1
 90
        0
 40
0.6
 41
30.0
 62
     5
 63
     7
 74
     0
 91
        4
 64
     7
 65
   257
 75
     1
175
     1
 42
1.0
 92
        8
 66
     7
 43
1.0
 76
     1
 77
     6
 78
     2
 67
     7
 79
     5
170
     0
171
     0
290
     0
174
     0
 93
        1
 44
0.0
173
     0
291
     1
 45
0.0
1001
ACAD
1000
AcDbSavedByObjectVersion
1070
     0
  0
VISUALSTYLE
  5
36
102
{ACAD_REACTORS
330
2A
102
}
102
{ACAD_XDICTIONARY
360
2F6
102
}
330
2A
100
AcDbVisualStyle
  2
Brighten
 70
    12
 71
     2
 72
     2
 73
     0
 90
        0
 40
0.6
 41
30.0
 62
     5
 63
     7
 74
     1
 91
        4
 64
     7
 65
   257
 75
     1
175
     1
 42
1.0
 92
        8
 66
     7
 43
1.0
 76
     1
 77
     6
 78
     2
 67
     7
 79
     5
170
     0
171
     0
290
     0
174
     0
 93
        1
 44
50.0
173
     0
291
     1
 45
0.0
1001
ACAD
1000
AcDbSavedByObjectVersion
1070
     0
  0
VISUALSTYLE
  5
3A
102
{ACAD_REACTORS
330
2A
102
}
102
{ACAD_XDICTIONARY
360
2FE
102
}
330
2A
100
AcDbVisualStyle
  2
ColorChange
 70
    16
 71
     2
 72
     2
 73
     3
 90
        0
 40
0.6
 41
30.0
 62
     5
 63
     8
 74
     1
 91
        4
 64
     7
 65
   257
 75
     1
175
     1
 42
1.0
 92
        8
 66
     8
 43
1.0
 76
     1
 77
     6
 78
     2
 67
     7
 79
     5
170
     0
171
     0
290
     0
174
     0
 93
        1
 44
0.0
173
     0
291
     1
 45
0.0
1001
ACAD
1000
AcDbSavedByObjectVersion
1070
     0
  0
VISUALSTYLE
  5
34
102
{ACAD_REACTORS
330
2A
102
}
102
{ACAD_XDICTIONARY
360
2F2
102
}
330
2A
100
AcDbVisualStyle
  2
Conceptual
 70
     9
 71
     3
 72
     2
 73
     0
 90
        0
 40
0.6
 41
30.0
 62
     5
 63
     7
 74
     2
 91
        2
 64
     7
 65
   257
 75
     1
175
     1
 42
179.0
 92
        8
 66
     7
 43
1.0
 76
     1
 77
     6
 78
     2
 67
     7
 79
     3
170
     0
171
     0
290
     0
174
     0
 93
        1
 44
0.0
173
     0
291
     0
 45
0.0
1001
ACAD
1000
AcDbSavedByObjectVersion
1070
     0
  0
VISUALSTYLE
  5
35
102
{ACAD_REACTORS
330
2A
102
}
102
{ACAD_XDICTIONARY
360
2F4
102
}
330
2A
100
AcDbVisualStyle
  2
Dim
 70
    11
 71
     2
 72
     2
 73
     0
 90
        0
 40
0.6
 41
30.0
 62
     5
 63
     7
 74
     1
 91
        4
 64
     7
 65
   257
 75
     1
175
     1
 42
1.0
 92
        8
 66
     7
 43
1.0
 76
     1
 77
     6
 78
     2
 67
     7
 79
     5
170
     0
171
     0
290
     0
174
     0
 93
        1
 44
-50.0
173
     0
291
     1
 45
0.0
1001
ACAD
1000
AcDbSavedByObjectVersion
1070
     0
  0
VISUALSTYLE
  5
3D
102
{ACAD_REACTORS
330
2A
102
}
102
{ACAD_XDICTIONARY
360
304
102
}
330
2A
100
AcDbVisualStyle
  2
EdgeColorOff
 70
    22
 71
     2
 72
     2
 73
     0
 90
        0
 40
0.6
 41
30.0
 62
     5
 63
     7
 74
     1
 91
        4
 64
     7
 65
   257
 75
     1
175
     1
 42
1.0
 92
        8
 66
     7
 43
1.0
 76
     1
 77
     6
 78
     2
 67
     7
 79
     5
170
     0
171
     0
290
     0
174
     0
 93
        1
 44
0.0
173
     0
291
     1
 45
0.0
1001
ACAD
1000
AcDbSavedByObjectVersion
1070
     0
  0
VISUALSTYLE
  5
39
102
{ACAD_REACTORS
330
2A
102
}
102
{ACAD_XDICTIONARY
360
2FC
102
}
330
2A
100
AcDbVisualStyle
  2
Facepattern
 70
    15
 71
     2
 72
     2
 73
     0
 90
        0
 40
0.6
 41
30.0
 62
     5
 63
     7
 74
     1
 91
        4
 64
     7
 65
   257
 75
     1
175
     1
 42
1.0
 92
        8
 66
     7
 43
1.0
 76
     1
 77
     6
 78
     2
 67
     7
 79
     5
170
     0
171
     0
290
     0
174
     0
 93
        1
 44
0.0
173
     0
291
     1
 45
0.0
1001
ACAD
1000
AcDbSavedByObjectVersion
1070
     0
  0
VISUALSTYLE
  5
2B
102
{ACAD_REACTORS
330
2A
102
}
102
{ACAD_XDICTIONARY
360
2E0
102
}
330
2A
100
AcDbVisualStyle
  2
Flat
 70
     0
 71
     2
 72
     1
 73
     1
 90
        2
 40
0.6
 41
30.0
 62
     5
 63
     7
 74
     0
 91
        0
 64
     7
 65
   257
 75
     1
175
     1
 42
1.0
 92
        8
 66
     7
 43
1.0
 76
     1
 77
     6
 78
     2
 67
     7
 79
     5
170
     0
171
     0
290
     0
174
     0
 93
       13
 44
0.0
173
     0
291
     1
 45
0.0
1001
ACAD
1000
AcDbSavedByObjectVersion
1070
     0
  0
VISUALSTYLE
  5
2C
102
{ACAD_REACTORS
330
2A
102
}
102
{ACAD_XDICTIONARY
360
2E2
102
}
330
2A
100
AcDbVisualStyle
  2
FlatWithEdges
 70
     1
 71
     2
 72
     1
 73
     1
 90
        2
 40
0.6
 41
30.0
 62
     5
 63
     7
 74
     1
 91
        0
 64
     7
 65
   257
 75
     1
175
     1
 42
1.0
 92
        0
 66
   257
 43
1.0
 76
     1
 77
     6
 78
     2
 67
     7
 79
     5
170
     0
171
     0
290
     0
174
     0
 93
       13
 44
0.0
173
     0
291
     1
 45
0.0
1001
ACAD
1000
AcDbSavedByObjectVersion
1070
     0
  0
VISUALSTYLE
  5
2D
102
{ACAD_REACTORS
330
2A
102
}
102
{ACAD_XDICTIONARY
360
2E4
102
}
330
2A
100
AcDbVisualStyle
  2
Gouraud
 70
     2
 71
     2
 72
     2
 73
     1
 90
        2
 40
0.6
 41
30.0
 62
     5
 63
     7
 74
     0
 91
        0
 64
     7
 65
   257
 75
     1
175
     1
 42
1.0
 92
        0
 66
     7
 43
1.0
 76
     1
 77
     6
 78
     2
 67
     7
 79
     5
170
     0
171
     0
290
     0
174
     0
 93
       13
 44
0.0
173
     0
291
     1
 45
0.0
1001
ACAD
1000
AcDbSavedByObjectVersion
1070
     0
  0
VISUALSTYLE
  5
2E
102
{ACAD_REACTORS
330
2A
102
}
102
{ACAD_XDICTIONARY
360
2E6
102
}
330
2A
100
AcDbVisualStyle
  2
GouraudWithEdges
 70
     3
 71
     2
 72
     2
 73
     1
 90
        2
 40
0.6
 41
30.0
 62
     5
 63
     7
 74
     1
 91
        0
 64
     7
 65
   257
 75
     1
175
     1
 42
1.0
 92
        0
 66
   257
 43
1.0
 76
     1
 77
     6
 78
     2
 67
     7
 79
     5
170
     0
171
     0
290
     0
174
     0
 93
       13
 44
0.0
173
     0
291
     1
 45
0.0
1001
ACAD
1000
AcDbSavedByObjectVersion
1070
     0
  0
VISUALSTYLE
  5
31
102
{ACAD_REACTORS
330
2A
102
}
102
{ACAD_XDICTIONARY
360
2EC
102
}
330
2A
100
AcDbVisualStyle
  2
Hidden
 70
     6
 71
     1
 72
     2
 73
     2
 90
        0
 40
0.6
 41
30.0
 62
     5
 63
     7
 74
     2
 91
        2
 64
     7
 65
   257
 75
     2
175
     1
 42
40.0
 92
        0
 66
   257
 43
1.0
 76
     1
 77
     6
 78
     2
 67
     7
 79
     3
170
     0
171
     0
290
     0
174
     0
 93
        1
 44
0.0
173
     0
291
     0
 45
0.0
1001
ACAD
1000
AcDbSavedByObjectVersion
1070
     0
  0
VISUALSTYLE
  5
3B
102
{ACAD_REACTORS
330
2A
102
}
102
{ACAD_XDICTIONARY
360
300
102
}
330
2A
100
AcDbVisualStyle
  2
JitterOff
 70
    20
 71
     2
 72
     2
 73
     0
 90
        0
 40
0.6
 41
30.0
 62
     5
 63
     7
 74
     1
 91
        4
 64
     7
 65
   257
 75
     1
175
     1
 42
1.0
 92
       10
 66
     7
 43
1.0
 76
     1
 77
     6
 78
     2
 67
     7
 79
     5
170
     0
171
     0
290
     0
174
     0
 93
        1
 44
0.0
173
     0
291
     1
 45
0.0
1001
ACAD
1000
AcDbSavedByObjectVersion
1070
     0
  0
VISUALSTYLE
  5
38
102
{ACAD_REACTORS
330
2A
102
}
102
{ACAD_XDICTIONARY
360
2FA
102
}
330
2A
100
AcDbVisualStyle
  2
Linepattern
 70
    14
 71
     2
 72
     2
 73
     0
 90
        0
 40
0.6
 41
30.0
 62
     5
 63
     7
 74
     1
 91
        4
 64
     7
 65
   257
 75
     7
175
     7
 42
1.0
 92
        8
 66
     7
 43
1.0
 76
     1
 77
     6
 78
     2
 67
     7
 79
     5
170
     0
171
     0
290
     0
174
     0
 93
        1
 44
0.0
173
     0
291
     1
 45
0.0
1001
ACAD
1000
AcDbSavedByObjectVersion
1070
     0
  0
VISUALSTYLE
  5
3C
102
{ACAD_REACTORS
330
2A
102
}
102
{ACAD_XDICTIONARY
360
302
102
}
330
2A
100
AcDbVisualStyle
  2
OverhangOff
 70
    21
 71
     2
 72
     2
 73
     0
 90
        0
 40
0.6
 41
30.0
 62
     5
 63
     7
 74
     1
 91
        4
 64
     7
 65
   257
 75
     1
175
     1
 42
1.0
 92
        9
 66
     7
 43
1.0
 76
     1
 77
     6
 78
     2
 67
     7
 79
     5
170
     0
171
     0
290
     0
174
     0
 93
        1
 44
0.0
173
     0
291
     1
 45
0.0
1001
ACAD
1000
AcDbSavedByObjectVersion
1070
     0
  0
VISUALSTYLE
  5
33
102
{ACAD_REACTORS
330
2A
102
}
102
{ACAD_XDICTIONARY
360
2F0
102
}
330
2A
100
AcDbVisualStyle
  2
Realistic
 70
     8
 71
     2
 72
     3
 73
     0
 90
        2
 40
0.6
 41
30.0
 62
     5
 63
     7
 74
     0
 91
        0
 64
     7
 65
   257
 75
     1
175
     1
 42
1.0
 92
        8
 66
   257
 43
1.0
 76
     1
 77
     6
 78
     2
 67
     7
 79
     3
170
     0
171
     0
290
     0
174
     0
 93
       13
 44
0.0
173
     0
291
     0
 45
0.0
1001
ACAD
1000
AcDbSavedByObjectVersion
1070
     0
  0
VISUALSTYLE
  5
42
102
{ACAD_REACTORS
330
2A
102
}
102
{ACAD_XDICTIONARY
360
30E
102
}
330
2A
100
AcDbVisualStyle
  2
Shaded
 70
    27
 71
     2
 72
     2
 73
     1
 90
        2
 40
0.6
 41
30.0
 62
     5
 63
     7
 74
     0
 91
        4
 64
     7
 65
   257
 75
     1
175
     1
 42
1.0
 92
        8
 66
   257
 43
1.0
 76
     1
 77
     6
 78
     2
 67
     8
 79
     3
170
     0
171
     0
290
     0
174
     0
 93
        5
 44
0.0
173
     0
291
     0
 45
0.0
1001
ACAD
1000
AcDbSavedByObjectVersion
1070
     0
  0
VISUALSTYLE
  5
41
102
{ACAD_REACTORS
330
2A
102
}
102
{ACAD_XDICTIONARY
360
30C
102
}
330
2A
100
AcDbVisualStyle
  2
Shaded with edges
 70
    26
 71
     2
 72
     2
 73
     1
 90
        2
 40
0.6
 41
30.0
 62
     5
 63
     7
 74
     1
 91
       10
 64
     7
 65
   257
 75
     2
175
     1
 42
1.0
 92
        8
 66
   257
 43
1.0
 76
     1
 77
     6
 78
     2
 67
     7
 79
     3
170
     0
171
     0
290
     0
174
     0
 93
        5
 44
0.0
173
     0
291
     0
 45
0.0
1001
ACAD
1000
AcDbSavedByObjectVersion
1070
     0
  0
VISUALSTYLE
  5
3E
102
{ACAD_REACTORS
330
2A
102
}
102
{ACAD_XDICTIONARY
360
306
102
}
330
2A
100
AcDbVisualStyle
  2
Shades of Gray
 70
    23
 71
     2
 72
     2
 73
     3
 90
        0
 40
0.6
 41
30.0
 62
     5
 63
     7
 74
     2
 91
        2
 64
     7
 65
     7
 75
     1
175
     1
 42
40.0
 92
        8
 66
     7
 43
1.0
 76
     1
 77
     6
 78
     2
 67
     7
 79
     3
170
     0
171
     0
290
     0
174
     0
 93
        1
 44
0.0
173
     0
291
     0
 45
0.0
1001
ACAD
1000
AcDbSavedByObjectVersion
1070
     0
  0
VISUALSTYLE
  5
3F
102
{ACAD_REACTORS
330
2A
102
}
102
{ACAD_XDICTIONARY
360
308
102
}
330
2A
100
AcDbVisualStyle
  2
Sketchy
 70
    24
 71
     1
 72
     2
 73
     2
 90
        0
 40
0.6
 41
30.0
 62
     5
 63
     7
 74
     2
 91
        2
 64
     7
 65
     7
 75
     1
175
     1
 42
40.0
 92
       11
 66
     7
 43
1.0
 76
     1
 77
     6
 78
     2
 67
     7
 79
     6
170
     0
171
     0
290
     0
174
     0
 93
        1
 44
0.0
173
     0
291
     0
 45
0.0
1001
ACAD
1000
AcDbSavedByObjectVersion
1070
     0
  0
VISUALSTYLE
  5
37
102
{ACAD_REACTORS
330
2A
102
}
102
{ACAD_XDICTIONARY
360
2F8
102
}
330
2A
100
AcDbVisualStyle
  2
Thicken
 70
    13
 71
     2
 72
     2
 73
     0
 90
        0
 40
0.6
 41
30.0
 62
     5
 63
     7
 74
     1
 91
        4
 64
     7
 65
   257
 75
     1
175
     1
 42
1.0
 92
       12
 66
     7
 43
1.0
 76
     1
 77
     6
 78
     2
 67
     7
 79
     5
170
     0
171
     0
290
     0
174
     0
 93
        1
 44
0.0
173
     0
291
     1
 45
0.0
1001
ACAD
1000
AcDbSavedByObjectVersion
1070
     0
  0
VISUALSTYLE
  5
30
102
{ACAD_REACTORS
330
2A
102
}
102
{ACAD_XDICTIONARY
360
2EA
102
}
330
2A
100
AcDbVisualStyle
  2
Wireframe
 70
     5
 71
     0
 72
     2
 73
     0
 90
        0
 40
0.6
 41
30.0
 62
     5
 63
     7
 74
     1
 91
        4
 64
     7
 65
   257
 75
     1
175
     1
 42
1.0
 92
        0
 66
   257
 43
1.0
 76
     1
 77
     6
 78
     2
 67
     7
 79
     3
170
     0
171
     0
290
     0
174
     0
 93
        1
 44
0.0
173
     0
291
     0
 45
0.0
1001
ACAD
1000
AcDbSavedByObjectVersion
1070
     0
  0
VISUALSTYLE
  5
40
102
{ACAD_REACTORS
330
2A
102
}
102
{ACAD_XDICTIONARY
360
30A
102
}
330
2A
100
AcDbVisualStyle
  2
X-Ray
 70
    25
 71
     2
 72
     2
 73
     1
 90
        1
 40
0.5
 41
30.0
 62
     5
 63
     7
 74
     1
 91
        0
 64
     7
 65
   257
 75
     1
175
     1
 42
1.0
 92
        8
 66
     7
 43
1.0
 76
     1
 77
     6
 78
     2
 67
     7
 79
     3
170
     0
171
     0
290
     0
174
     0
 93
       13
 44
0.0
173
     0
291
     0
 45
0.0
1001
ACAD
1000
AcDbSavedByObjectVersion
1070
     0
  0
DICTIONARYVAR
  5
2DE
102
{ACAD_REACTORS
330
2D3
102
}
330
2D3
100
DictionaryVariables
280
     0
  1
1:1
  0
DICTIONARYVAR
  5
2D5
102
{ACAD_REACTORS
330
2D3
102
}
330
2D3
100
DictionaryVariables
280
     0
  1
Standard
  0
DICTIONARYVAR
  5
2D4
102
{ACAD_REACTORS
330
2D3
102
}
330
2D3
100
DictionaryVariables
280
     0
  1
Standard
  0
DICTIONARYVAR
  5
2DA
102
{ACAD_REACTORS
330
2D3
102
}
330
2D3
100
DictionaryVariables
280
     0
  1
2
  0
DICTIONARYVAR
  5
2DB
102
{ACAD_REACTORS
330
2D3
102
}
330
2D3
100
DictionaryVariables
280
     0
  1
1
  0
DICTIONARYVAR
  5
2DF
102
{ACAD_REACTORS
330
2D3
102
}
330
2D3
100
DictionaryVariables
280
     0
  1
1
  0
DICTIONARYVAR
  5
2D7
102
{ACAD_REACTORS
330
2D3
102
}
330
2D3
100
DictionaryVariables
280
     0
  1
80.000000
  0
DICTIONARYVAR
  5
2D6
102
{ACAD_REACTORS
330
2D3
102
}
330
2D3
100
DictionaryVariables
280
     0
  1
5.000000
  0
DICTIONARY
  5
312
330
45
100
AcDbDictionary
280
     1
281
     1
  3
ACAD_XREC_ROUNDTRIP
360
313
  0
DICTIONARY
  5
310
330
44
100
AcDbDictionary
280
     1
281
     1
  3
ACAD_XREC_ROUNDTRIP
360
311
  0
DICTIONARY
  5
314
330
46
100
AcDbDictionary
280
     1
281
     1
  3
ACAD_XREC_ROUNDTRIP
360
315
  0
DICTIONARY
  5
317
330
6C
100
AcDbDictionary
280
     1
281
     1
  3
ACAD_XREC_ROUNDTRIP
360
318
  0
DICTIONARY
  5
2E8
330
2F
100
AcDbDictionary
280
     1
281
     1
  3
ACAD_XREC_ROUNDTRIP
360
2E9
  0
DICTIONARY
  5
2EE
330
32
100
AcDbDictionary
280
     1
281
     1
  3
ACAD_XREC_ROUNDTRIP
360
2EF
  0
DICTIONARY
  5
2F6
330
36
100
AcDbDictionary
280
     1
281
     1
  3
ACAD_XREC_ROUNDTRIP
360
2F7
  0
DICTIONARY
  5
2FE
330
3A
100
AcDbDictionary
280
     1
281
     1
  3
ACAD_XREC_ROUNDTRIP
360
2FF
  0
DICTIONARY
  5
2F2
330
34
100
AcDbDictionary
280
     1
281
     1
  3
ACAD_XREC_ROUNDTRIP
360
2F3
  0
DICTIONARY
  5
2F4
330
35
100
AcDbDictionary
280
     1
281
     1
  3
ACAD_XREC_ROUNDTRIP
360
2F5
  0
DICTIONARY
  5
304
330
3D
100
AcDbDictionary
280
     1
281
     1
  3
ACAD_XREC_ROUNDTRIP
360
305
  0
DICTIONARY
  5
2FC
330
39
100
AcDbDictionary
280
     1
281
     1
  3
ACAD_XREC_ROUNDTRIP
360
2FD
  0
DICTIONARY
  5
2E0
330
2B
100
AcDbDictionary
280
     1
281
     1
  3
ACAD_XREC_ROUNDTRIP
360
2E1
  0
DICTIONARY
  5
2E2
330
2C
100
AcDbDictionary
280
     1
281
     1
  3
ACAD_XREC_ROUNDTRIP
360
2E3
  0
DICTIONARY
  5
2E4
330
2D
100
AcDbDictionary
280
     1
281
     1
  3
ACAD_XREC_ROUNDTRIP
360
2E5
  0
DICTIONARY
  5
2E6
330
2E
100
AcDbDictionary
280
     1
281
     1
  3
ACAD_XREC_ROUNDTRIP
360
2E7
  0
DICTIONARY
  5
2EC
330
31
100
AcDbDictionary
280
     1
281
     1
  3
ACAD_XREC_ROUNDTRIP
360
2ED
  0
DICTIONARY
  5
300
330
3B
100
AcDbDictionary
280
     1
281
     1
  3
ACAD_XREC_ROUNDTRIP
360
301
  0
DICTIONARY
  5
2FA
330
38
100
AcDbDictionary
280
     1
281
     1
  3
ACAD_XREC_ROUNDTRIP
360
2FB
  0
DICTIONARY
  5
302
330
3C
100
AcDbDictionary
280
     1
281
     1
  3
ACAD_XREC_ROUNDTRIP
360
303
  0
DICTIONARY
  5
2F0
330
33
100
AcDbDictionary
280
     1
281
     1
  3
ACAD_XREC_ROUNDTRIP
360
2F1
  0
DICTIONARY
  5
30E
330
42
100
AcDbDictionary
280
     1
281
     1
  3
ACAD_XREC_ROUNDTRIP
360
30F
  0
DICTIONARY
  5
30C
330
41
100
AcDbDictionary
280
     1
281
     1
  3
ACAD_XREC_ROUNDTRIP
360
30D
  0
DICTIONARY
  5
306
330
3E
100
AcDbDictionary
280
     1
281
     1
  3
ACAD_XREC_ROUNDTRIP
360
307
  0
DICTIONARY
  5
308
330
3F
100
AcDbDictionary
280
     1
281
     1
  3
ACAD_XREC_ROUNDTRIP
360
309
  0
DICTIONARY
  5
2F8
330
37
100
AcDbDictionary
280
     1
281
     1
  3
ACAD_XREC_ROUNDTRIP
360
2F9
  0
DICTIONARY
  5
2EA
330
30
100
AcDbDictionary
280
     1
281
     1
  3
ACAD_XREC_ROUNDTRIP
360
2EB
  0
DICTIONARY
  5
30A
330
40
100
AcDbDictionary
280
     1
281
     1
  3
ACAD_XREC_ROUNDTRIP
360
30B
  0
XRECORD
  5
313
102
{ACAD_REACTORS
330
312
102
}
330
312
100
AcDbXrecord
280
     1
102
MATERIAL
148
0.0
149
0.0
149
0.0
 93
        0
 94
      127
282
     0
 72
     1
 77
     1
171
     1
175
     1
179
     1
273
     0
  0
XRECORD
  5
311
102
{ACAD_REACTORS
330
310
102
}
330
310
100
AcDbXrecord
280
     1
102
MATERIAL
148
0.0
149
0.0
149
0.0
 93
        0
 94
      127
282
     0
 72
     1
 77
     1
171
     1
175
     1
179
     1
273
     0
  0
XRECORD
  5
315
102
{ACAD_REACTORS
330
314
102
}
330
314
100
AcDbXrecord
280
     1
102
MATERIAL
148
0.0
149
0.0
149
0.0
 93
        0
 94
      127
282
     0
 72
     1
 77
     1
171
     1
175
     1
179
     1
273
     0
  0
XRECORD
  5
318
102
{ACAD_REACTORS
330
317
102
}
330
317
100
AcDbXrecord
280
     1
102
ACAD_ROUNDTRIP_2010_MLEADER_STYLE
  0
XRECORD
  5
2E9
102
{ACAD_REACTORS
330
2E8
102
}
330
2E8
100
AcDbXrecord
280
     1
102
RTVSPropertyOp0
 70
     1
102
RTVSPropertyOp1
 70
     1
102
RTVSPropertyOp2
 70
     1
102
RTVSPropertyOp3
 70
     1
102
RTVSPropertyOp4
 70
     1
102
RTVSPropertyOp5
 70
     1
102
RTVSPropertyOp6
 70
     1
102
RTVSPropertyOp7
 70
     1
102
RTVSPropertyOp8
 70
     1
102
RTVSPropertyOp9
 70
     1
102
RTVSPropertyOp10
 70
     1
102
RTVSPropertyOp11
 70
     1
102
RTVSPropertyOp12
 70
     1
102
RTVSPropertyOp13
 70
     1
102
RTVSPropertyOp14
 70
     1
102
RTVSPropertyOp15
 70
     1
102
RTVSPropertyOp16
 70
     1
102
RTVSPropertyOp17
 70
     1
102
RTVSPropertyOp18
 70
     1
102
RTVSPropertyOp19
 70
     1
102
RTVSPropertyOp20
 70
     1
102
RTVSPropertyOp21
 70
     1
102
RTVSPropertyOp22
 70
     1
102
RTVSPropertyOp23
 70
     1
102
RTVSPropertyOp24
 70
     1
102
RTVSPropertyOp25
 70
     1
102
RTVSPropertyOp26
 70
     1
102
RTVSPropertyOp27
 70
     1
102
RTVSPropertyOp28
 70
     1
102
RTVSPropertyOp29
 70
     1
102
RTVSPropertyOp30
 70
     1
102
RTVSPropertyOp31
 70
     1
102
RTVSPropertyOp32
 70
     1
102
RTVSPropertyOp33
 70
     1
102
RTVSPropertyOp34
 70
     1
102
RTVSPropertyOp35
 70
     1
102
RTVSPropertyOp36
 70
     1
102
RTVSPropertyOp37
 70
     1
102
RTVSPropertyOp38
 70
     1
102
RTVSPropertyOp39
 70
     1
102
RTVSPropertyOp40
 70
     1
102
RTVSPropertyOp41
 70
     1
102
RTVSPropertyOp42
 70
     1
102
RTVSPropertyOp43
 70
     1
102
RTVSPropertyOp44
 70
     1
102
RTVSPropertyOp45
 70
     1
102
RTVSPropertyOp46
 70
     1
102
RTVSPropertyOp47
 70
     1
102
RTVSPropertyOp48
 70
     1
102
RTVSPropertyOp49
 70
     1
102
RTVSPropertyOp50
 70
     1
102
RTVSPropertyOp51
 70
     0
102
RTVSPropertyOp52
 70
     0
102
RTVSPropertyOp53
 70
     1
102
RTVSPropertyOp54
 70
     1
102
RTVSPropertyOp55
 70
     1
102
RTVSPropertyOp56
 70
     1
102
RTVSPropertyOp57
 70
     1
102
RTVSPost2010Prop28
280
     1
102
RTVSPost2010PropOp28
 70
     1
102
RTVSPost2010Prop29
280
     1
102
RTVSPost2010PropOp29
 70
     1
102
RTVSPost2010Prop30
280
     0
102
RTVSPost2010PropOp30
 70
     1
102
RTVSPost2010Prop31
280
     0
102
RTVSPost2010PropOp31
 70
     1
102
RTVSPost2010Prop32
280
     0
102
RTVSPost2010PropOp32
 70
     1
102
RTVSPost2010Prop33
280
     0
102
RTVSPost2010PropOp33
 70
     1
102
RTVSPost2010Prop34
280
     0
102
RTVSPost2010PropOp34
 70
     1
102
RTVSPost2010Prop35
280
     0
102
RTVSPost2010PropOp35
 70
     1
102
RTVSPost2010Prop36
280
     0
102
RTVSPost2010PropOp36
 70
     1
102
RTVSPost2010Prop37
 90
       50
102
RTVSPost2010PropOp37
 70
     1
102
RTVSPost2010Prop38
140
0.0
102
RTVSPost2010PropOp38
 70
     1
102
RTVSPost2010Prop39
140
1.0
102
RTVSPost2010PropOp39
 70
     1
102
RTVSPost2010Prop40
 90
        0
102
RTVSPost2010PropOp40
 70
     1
102
RTVSPost2010Prop41ColorIndex
 90
       18
102
RTVSPost2010Prop41ColorRGB
 90
        0
102
RTVSPost2010PropOp41
 70
     1
102
RTVSPost2010Prop42
 90
       50
102
RTVSPost2010PropOp42
 70
     1
102
RTVSPost2010Prop43
 90
        3
102
RTVSPost2010PropOp43
 70
     1
102
RTVSPost2010Prop44ColorIndex
 90
        5
102
RTVSPost2010Prop44ColorRGB
 90
      255
102
RTVSPost2010PropOp44
 70
     1
102
RTVSPost2010Prop45
280
     0
102
RTVSPost2010PropOp45
 70
     1
102
RTVSPost2010Prop46
 90
       50
102
RTVSPost2010PropOp46
 70
     1
102
RTVSPost2010Prop47
 90
       50
102
RTVSPost2010PropOp47
 70
     1
102
RTVSPost2010Prop48
 90
       50
102
RTVSPost2010PropOp48
 70
     1
102
RTVSPost2010Prop49
280
     0
102
RTVSPost2010PropOp49
 70
     1
102
RTVSPost2010Prop50
 90
       50
102
RTVSPost2010PropOp50
 70
     1
102
RTVSPost2010Prop51ColorIndex
 90
      256
102
RTVSPost2010Prop51ColorRGB
 90
-16777216
102
RTVSPost2010PropOp51
 70
     0
102
RTVSPost2010Prop52
140
1.0
102
RTVSPost2010PropOp52
 70
     0
102
RTVSPost2010Prop53
 90
        2
102
RTVSPost2010PropOp53
 70
     1
102
RTVSPost2010Prop54
  1
strokes_ogs.tif
102
RTVSPost2010PropOp54
 70
     1
102
RTVSPost2010Prop55
280
     0
102
RTVSPost2010PropOp55
 70
     1
102
RTVSPost2010Prop56
140
1.0
102
RTVSPost2010PropOp56
 70
     1
102
RTVSPost2010Prop57
140
1.0
102
RTVSPost2010PropOp57
 70
     1
  0
XRECORD
  5
2EF
102
{ACAD_REACTORS
330
2EE
102
}
330
2EE
100
AcDbXrecord
280
     1
102
RTVSPropertyOp0
 70
     1
102
RTVSPropertyOp1
 70
     1
102
RTVSPropertyOp2
 70
     1
102
RTVSPropertyOp3
 70
     1
102
RTVSPropertyOp4
 70
     1
102
RTVSPropertyOp5
 70
     1
102
RTVSPropertyOp6
 70
     1
102
RTVSPropertyOp7
 70
     1
102
RTVSPropertyOp8
 70
     1
102
RTVSPropertyOp9
 70
     1
102
RTVSPropertyOp10
 70
     1
102
RTVSPropertyOp11
 70
     1
102
RTVSPropertyOp12
 70
     1
102
RTVSPropertyOp13
 70
     1
102
RTVSPropertyOp14
 70
     1
102
RTVSPropertyOp15
 70
     1
102
RTVSPropertyOp16
 70
     1
102
RTVSPropertyOp17
 70
     1
102
RTVSPropertyOp18
 70
     1
102
RTVSPropertyOp19
 70
     1
102
RTVSPropertyOp20
 70
     1
102
RTVSPropertyOp21
 70
     1
102
RTVSPropertyOp22
 70
     1
102
RTVSPropertyOp23
 70
     1
102
RTVSPropertyOp24
 70
     1
102
RTVSPropertyOp25
 70
     1
102
RTVSPropertyOp26
 70
     1
102
RTVSPropertyOp27
 70
     1
102
RTVSPropertyOp28
 70
     1
102
RTVSPropertyOp29
 70
     1
102
RTVSPropertyOp30
 70
     1
102
RTVSPropertyOp31
 70
     1
102
RTVSPropertyOp32
 70
     1
102
RTVSPropertyOp33
 70
     1
102
RTVSPropertyOp34
 70
     1
102
RTVSPropertyOp35
 70
     1
102
RTVSPropertyOp36
 70
     1
102
RTVSPropertyOp37
 70
     1
102
RTVSPropertyOp38
 70
     1
102
RTVSPropertyOp39
 70
     1
102
RTVSPropertyOp40
 70
     1
102
RTVSPropertyOp41
 70
     1
102
RTVSPropertyOp42
 70
     1
102
RTVSPropertyOp43
 70
     1
102
RTVSPropertyOp44
 70
     1
102
RTVSPropertyOp45
 70
     1
102
RTVSPropertyOp46
 70
     1
102
RTVSPropertyOp47
 70
     1
102
RTVSPropertyOp48
 70
     1
102
RTVSPropertyOp49
 70
     1
102
RTVSPropertyOp50
 70
     1
102
RTVSPropertyOp51
 70
     0
102
RTVSPropertyOp52
 70
     0
102
RTVSPropertyOp53
 70
     1
102
RTVSPropertyOp54
 70
     1
102
RTVSPropertyOp55
 70
     1
102
RTVSPropertyOp56
 70
     1
102
RTVSPropertyOp57
 70
     1
102
RTVSPost2010Prop28
280
     0
102
RTVSPost2010PropOp28
 70
     1
102
RTVSPost2010Prop29
280
     1
102
RTVSPost2010PropOp29
 70
     1
102
RTVSPost2010Prop30
280
     1
102
RTVSPost2010PropOp30
 70
     1
102
RTVSPost2010Prop31
280
     0
102
RTVSPost2010PropOp31
 70
     1
102
RTVSPost2010Prop32
280
     0
102
RTVSPost2010PropOp32
 70
     1
102
RTVSPost2010Prop33
280
     0
102
RTVSPost2010PropOp33
 70
     1
102
RTVSPost2010Prop34
280
     0
102
RTVSPost2010PropOp34
 70
     1
102
RTVSPost2010Prop35
280
     0
102
RTVSPost2010PropOp35
 70
     1
102
RTVSPost2010Prop36
280
     0
102
RTVSPost2010PropOp36
 70
     1
102
RTVSPost2010Prop37
 90
       50
102
RTVSPost2010PropOp37
 70
     1
102
RTVSPost2010Prop38
140
0.0
102
RTVSPost2010PropOp38
 70
     1
102
RTVSPost2010Prop39
140
1.0
102
RTVSPost2010PropOp39
 70
     1
102
RTVSPost2010Prop40
 90
        0
102
RTVSPost2010PropOp40
 70
     1
102
RTVSPost2010Prop41ColorIndex
 90
       18
102
RTVSPost2010Prop41ColorRGB
 90
        0
102
RTVSPost2010PropOp41
 70
     1
102
RTVSPost2010Prop42
 90
       50
102
RTVSPost2010PropOp42
 70
     1
102
RTVSPost2010Prop43
 90
        3
102
RTVSPost2010PropOp43
 70
     1
102
RTVSPost2010Prop44ColorIndex
 90
        5
102
RTVSPost2010Prop44ColorRGB
 90
      255
102
RTVSPost2010PropOp44
 70
     1
102
RTVSPost2010Prop45
280
     0
102
RTVSPost2010PropOp45
 70
     1
102
RTVSPost2010Prop46
 90
       50
102
RTVSPost2010PropOp46
 70
     1
102
RTVSPost2010Prop47
 90
       50
102
RTVSPost2010PropOp47
 70
     1
102
RTVSPost2010Prop48
 90
       50
102
RTVSPost2010PropOp48
 70
     1
102
RTVSPost2010Prop49
280
     0
102
RTVSPost2010PropOp49
 70
     1
102
RTVSPost2010Prop50
 90
       50
102
RTVSPost2010PropOp50
 70
     1
102
RTVSPost2010Prop51ColorIndex
 90
      256
102
RTVSPost2010Prop51ColorRGB
 90
-16777216
102
RTVSPost2010PropOp51
 70
     0
102
RTVSPost2010Prop52
140
1.0
102
RTVSPost2010PropOp52
 70
     0
102
RTVSPost2010Prop53
 90
        2
102
RTVSPost2010PropOp53
 70
     1
102
RTVSPost2010Prop54
  1
strokes_ogs.tif
102
RTVSPost2010PropOp54
 70
     1
102
RTVSPost2010Prop55
280
     0
102
RTVSPost2010PropOp55
 70
     1
102
RTVSPost2010Prop56
140
1.0
102
RTVSPost2010PropOp56
 70
     1
102
RTVSPost2010Prop57
140
1.0
102
RTVSPost2010PropOp57
 70
     1
  0
XRECORD
  5
2F7
102
{ACAD_REACTORS
330
2F6
102
}
330
2F6
100
AcDbXrecord
280
     1
102
RTVSPropertyOp0
 70
     1
102
RTVSPropertyOp1
 70
     1
102
RTVSPropertyOp2
 70
     1
102
RTVSPropertyOp3
 70
     1
102
RTVSPropertyOp4
 70
     1
102
RTVSPropertyOp5
 70
     1
102
RTVSPropertyOp6
 70
     1
102
RTVSPropertyOp7
 70
     1
102
RTVSPropertyOp8
 70
     1
102
RTVSPropertyOp9
 70
     1
102
RTVSPropertyOp10
 70
     1
102
RTVSPropertyOp11
 70
     1
102
RTVSPropertyOp12
 70
     1
102
RTVSPropertyOp13
 70
     1
102
RTVSPropertyOp14
 70
     1
102
RTVSPropertyOp15
 70
     1
102
RTVSPropertyOp16
 70
     1
102
RTVSPropertyOp17
 70
     1
102
RTVSPropertyOp18
 70
     1
102
RTVSPropertyOp19
 70
     1
102
RTVSPropertyOp20
 70
     1
102
RTVSPropertyOp21
 70
     1
102
RTVSPropertyOp22
 70
     1
102
RTVSPropertyOp23
 70
     1
102
RTVSPropertyOp24
 70
     1
102
RTVSPropertyOp25
 70
     1
102
RTVSPropertyOp26
 70
     1
102
RTVSPropertyOp27
 70
     1
102
RTVSPropertyOp28
 70
     1
102
RTVSPropertyOp29
 70
     1
102
RTVSPropertyOp30
 70
     1
102
RTVSPropertyOp31
 70
     1
102
RTVSPropertyOp32
 70
     1
102
RTVSPropertyOp33
 70
     1
102
RTVSPropertyOp34
 70
     1
102
RTVSPropertyOp35
 70
     1
102
RTVSPropertyOp36
 70
     1
102
RTVSPropertyOp37
 70
     1
102
RTVSPropertyOp38
 70
     1
102
RTVSPropertyOp39
 70
     1
102
RTVSPropertyOp40
 70
     1
102
RTVSPropertyOp41
 70
     1
102
RTVSPropertyOp42
 70
     1
102
RTVSPropertyOp43
 70
     1
102
RTVSPropertyOp44
 70
     1
102
RTVSPropertyOp45
 70
     1
102
RTVSPropertyOp46
 70
     1
102
RTVSPropertyOp47
 70
     1
102
RTVSPropertyOp48
 70
     1
102
RTVSPropertyOp49
 70
     1
102
RTVSPropertyOp50
 70
     1
102
RTVSPropertyOp51
 70
     0
102
RTVSPropertyOp52
 70
     0
102
RTVSPropertyOp53
 70
     1
102
RTVSPropertyOp54
 70
     1
102
RTVSPropertyOp55
 70
     1
102
RTVSPropertyOp56
 70
     1
102
RTVSPropertyOp57
 70
     1
102
RTVSPost2010Prop28
280
     0
102
RTVSPost2010PropOp28
 70
     1
102
RTVSPost2010Prop29
280
     1
102
RTVSPost2010PropOp29
 70
     1
102
RTVSPost2010Prop30
280
     1
102
RTVSPost2010PropOp30
 70
     1
102
RTVSPost2010Prop31
280
     0
102
RTVSPost2010PropOp31
 70
     1
102
RTVSPost2010Prop32
280
     0
102
RTVSPost2010PropOp32
 70
     1
102
RTVSPost2010Prop33
280
     0
102
RTVSPost2010PropOp33
 70
     1
102
RTVSPost2010Prop34
280
     0
102
RTVSPost2010PropOp34
 70
     1
102
RTVSPost2010Prop35
280
     0
102
RTVSPost2010PropOp35
 70
     1
102
RTVSPost2010Prop36
280
     0
102
RTVSPost2010PropOp36
 70
     1
102
RTVSPost2010Prop37
 90
       50
102
RTVSPost2010PropOp37
 70
     1
102
RTVSPost2010Prop38
140
0.0
102
RTVSPost2010PropOp38
 70
     1
102
RTVSPost2010Prop39
140
1.0
102
RTVSPost2010PropOp39
 70
     1
102
RTVSPost2010Prop40
 90
        0
102
RTVSPost2010PropOp40
 70
     1
102
RTVSPost2010Prop41ColorIndex
 90
       18
102
RTVSPost2010Prop41ColorRGB
 90
        0
102
RTVSPost2010PropOp41
 70
     1
102
RTVSPost2010Prop42
 90
       50
102
RTVSPost2010PropOp42
 70
     1
102
RTVSPost2010Prop43
 90
        3
102
RTVSPost2010PropOp43
 70
     1
102
RTVSPost2010Prop44ColorIndex
 90
        5
102
RTVSPost2010Prop44ColorRGB
 90
      255
102
RTVSPost2010PropOp44
 70
     1
102
RTVSPost2010Prop45
280
     0
102
RTVSPost2010PropOp45
 70
     1
102
RTVSPost2010Prop46
 90
       50
102
RTVSPost2010PropOp46
 70
     1
102
RTVSPost2010Prop47
 90
       50
102
RTVSPost2010PropOp47
 70
     1
102
RTVSPost2010Prop48
 90
       50
102
RTVSPost2010PropOp48
 70
     1
102
RTVSPost2010Prop49
280
     0
102
RTVSPost2010PropOp49
 70
     1
102
RTVSPost2010Prop50
 90
       50
102
RTVSPost2010PropOp50
 70
     1
102
RTVSPost2010Prop51ColorIndex
 90
      256
102
RTVSPost2010Prop51ColorRGB
 90
-16777216
102
RTVSPost2010PropOp51
 70
     0
102
RTVSPost2010Prop52
140
1.0
102
RTVSPost2010PropOp52
 70
     0
102
RTVSPost2010Prop53
 90
        2
102
RTVSPost2010PropOp53
 70
     1
102
RTVSPost2010Prop54
  1
strokes_ogs.tif
102
RTVSPost2010PropOp54
 70
     1
102
RTVSPost2010Prop55
280
     0
102
RTVSPost2010PropOp55
 70
     1
102
RTVSPost2010Prop56
140
1.0
102
RTVSPost2010PropOp56
 70
     1
102
RTVSPost2010Prop57
140
1.0
102
RTVSPost2010PropOp57
 70
     1
  0
XRECORD
  5
2FF
102
{ACAD_REACTORS
330
2FE
102
}
330
2FE
100
AcDbXrecord
280
     1
102
RTVSPropertyOp0
 70
     1
102
RTVSPropertyOp1
 70
     1
102
RTVSPropertyOp2
 70
     1
102
RTVSPropertyOp3
 70
     1
102
RTVSPropertyOp4
 70
     1
102
RTVSPropertyOp5
 70
     1
102
RTVSPropertyOp6
 70
     1
102
RTVSPropertyOp7
 70
     1
102
RTVSPropertyOp8
 70
     1
102
RTVSPropertyOp9
 70
     1
102
RTVSPropertyOp10
 70
     1
102
RTVSPropertyOp11
 70
     1
102
RTVSPropertyOp12
 70
     1
102
RTVSPropertyOp13
 70
     1
102
RTVSPropertyOp14
 70
     1
102
RTVSPropertyOp15
 70
     1
102
RTVSPropertyOp16
 70
     1
102
RTVSPropertyOp17
 70
     1
102
RTVSPropertyOp18
 70
     1
102
RTVSPropertyOp19
 70
     1
102
RTVSPropertyOp20
 70
     1
102
RTVSPropertyOp21
 70
     1
102
RTVSPropertyOp22
 70
     1
102
RTVSPropertyOp23
 70
     1
102
RTVSPropertyOp24
 70
     1
102
RTVSPropertyOp25
 70
     1
102
RTVSPropertyOp26
 70
     1
102
RTVSPropertyOp27
 70
     1
102
RTVSPropertyOp28
 70
     1
102
RTVSPropertyOp29
 70
     1
102
RTVSPropertyOp30
 70
     1
102
RTVSPropertyOp31
 70
     1
102
RTVSPropertyOp32
 70
     1
102
RTVSPropertyOp33
 70
     1
102
RTVSPropertyOp34
 70
     1
102
RTVSPropertyOp35
 70
     1
102
RTVSPropertyOp36
 70
     1
102
RTVSPropertyOp37
 70
     1
102
RTVSPropertyOp38
 70
     1
102
RTVSPropertyOp39
 70
     1
102
RTVSPropertyOp40
 70
     1
102
RTVSPropertyOp41
 70
     1
102
RTVSPropertyOp42
 70
     1
102
RTVSPropertyOp43
 70
     1
102
RTVSPropertyOp44
 70
     1
102
RTVSPropertyOp45
 70
     1
102
RTVSPropertyOp46
 70
     1
102
RTVSPropertyOp47
 70
     1
102
RTVSPropertyOp48
 70
     1
102
RTVSPropertyOp49
 70
     1
102
RTVSPropertyOp50
 70
     1
102
RTVSPropertyOp51
 70
     0
102
RTVSPropertyOp52
 70
     0
102
RTVSPropertyOp53
 70
     1
102
RTVSPropertyOp54
 70
     1
102
RTVSPropertyOp55
 70
     1
102
RTVSPropertyOp56
 70
     1
102
RTVSPropertyOp57
 70
     1
102
RTVSPost2010Prop28
280
     0
102
RTVSPost2010PropOp28
 70
     1
102
RTVSPost2010Prop29
280
     1
102
RTVSPost2010PropOp29
 70
     1
102
RTVSPost2010Prop30
280
     1
102
RTVSPost2010PropOp30
 70
     1
102
RTVSPost2010Prop31
280
     0
102
RTVSPost2010PropOp31
 70
     1
102
RTVSPost2010Prop32
280
     0
102
RTVSPost2010PropOp32
 70
     1
102
RTVSPost2010Prop33
280
     0
102
RTVSPost2010PropOp33
 70
     1
102
RTVSPost2010Prop34
280
     0
102
RTVSPost2010PropOp34
 70
     1
102
RTVSPost2010Prop35
280
     0
102
RTVSPost2010PropOp35
 70
     1
102
RTVSPost2010Prop36
280
     0
102
RTVSPost2010PropOp36
 70
     1
102
RTVSPost2010Prop37
 90
       50
102
RTVSPost2010PropOp37
 70
     1
102
RTVSPost2010Prop38
140
0.0
102
RTVSPost2010PropOp38
 70
     1
102
RTVSPost2010Prop39
140
1.0
102
RTVSPost2010PropOp39
 70
     1
102
RTVSPost2010Prop40
 90
        0
102
RTVSPost2010PropOp40
 70
     1
102
RTVSPost2010Prop41ColorIndex
 90
       18
102
RTVSPost2010Prop41ColorRGB
 90
        0
102
RTVSPost2010PropOp41
 70
     1
102
RTVSPost2010Prop42
 90
       50
102
RTVSPost2010PropOp42
 70
     1
102
RTVSPost2010Prop43
 90
        3
102
RTVSPost2010PropOp43
 70
     1
102
RTVSPost2010Prop44ColorIndex
 90
        5
102
RTVSPost2010Prop44ColorRGB
 90
      255
102
RTVSPost2010PropOp44
 70
     1
102
RTVSPost2010Prop45
280
     0
102
RTVSPost2010PropOp45
 70
     1
102
RTVSPost2010Prop46
 90
       50
102
RTVSPost2010PropOp46
 70
     1
102
RTVSPost2010Prop47
 90
       50
102
RTVSPost2010PropOp47
 70
     1
102
RTVSPost2010Prop48
 90
       50
102
RTVSPost2010PropOp48
 70
     1
102
RTVSPost2010Prop49
280
     0
102
RTVSPost2010PropOp49
 70
     1
102
RTVSPost2010Prop50
 90
       50
102
RTVSPost2010PropOp50
 70
     1
102
RTVSPost2010Prop51ColorIndex
 90
      256
102
RTVSPost2010Prop51ColorRGB
 90
-16777216
102
RTVSPost2010PropOp51
 70
     0
102
RTVSPost2010Prop52
140
1.0
102
RTVSPost2010PropOp52
 70
     0
102
RTVSPost2010Prop53
 90
        2
102
RTVSPost2010PropOp53
 70
     1
102
RTVSPost2010Prop54
  1
strokes_ogs.tif
102
RTVSPost2010PropOp54
 70
     1
102
RTVSPost2010Prop55
280
     0
102
RTVSPost2010PropOp55
 70
     1
102
RTVSPost2010Prop56
140
1.0
102
RTVSPost2010PropOp56
 70
     1
102
RTVSPost2010Prop57
140
1.0
102
RTVSPost2010PropOp57
 70
     1
  0
XRECORD
  5
2F3
102
{ACAD_REACTORS
330
2F2
102
}
330
2F2
100
AcDbXrecord
280
     1
102
RTVSPropertyOp0
 70
     1
102
RTVSPropertyOp1
 70
     1
102
RTVSPropertyOp2
 70
     1
102
RTVSPropertyOp3
 70
     1
102
RTVSPropertyOp4
 70
     1
102
RTVSPropertyOp5
 70
     1
102
RTVSPropertyOp6
 70
     1
102
RTVSPropertyOp7
 70
     1
102
RTVSPropertyOp8
 70
     1
102
RTVSPropertyOp9
 70
     1
102
RTVSPropertyOp10
 70
     1
102
RTVSPropertyOp11
 70
     1
102
RTVSPropertyOp12
 70
     1
102
RTVSPropertyOp13
 70
     1
102
RTVSPropertyOp14
 70
     1
102
RTVSPropertyOp15
 70
     1
102
RTVSPropertyOp16
 70
     1
102
RTVSPropertyOp17
 70
     1
102
RTVSPropertyOp18
 70
     1
102
RTVSPropertyOp19
 70
     1
102
RTVSPropertyOp20
 70
     1
102
RTVSPropertyOp21
 70
     1
102
RTVSPropertyOp22
 70
     1
102
RTVSPropertyOp23
 70
     1
102
RTVSPropertyOp24
 70
     1
102
RTVSPropertyOp25
 70
     1
102
RTVSPropertyOp26
 70
     1
102
RTVSPropertyOp27
 70
     1
102
RTVSPropertyOp28
 70
     1
102
RTVSPropertyOp29
 70
     1
102
RTVSPropertyOp30
 70
     1
102
RTVSPropertyOp31
 70
     1
102
RTVSPropertyOp32
 70
     1
102
RTVSPropertyOp33
 70
     1
102
RTVSPropertyOp34
 70
     1
102
RTVSPropertyOp35
 70
     1
102
RTVSPropertyOp36
 70
     1
102
RTVSPropertyOp37
 70
     1
102
RTVSPropertyOp38
 70
     1
102
RTVSPropertyOp39
 70
     1
102
RTVSPropertyOp40
 70
     1
102
RTVSPropertyOp41
 70
     1
102
RTVSPropertyOp42
 70
     1
102
RTVSPropertyOp43
 70
     1
102
RTVSPropertyOp44
 70
     1
102
RTVSPropertyOp45
 70
     1
102
RTVSPropertyOp46
 70
     1
102
RTVSPropertyOp47
 70
     1
102
RTVSPropertyOp48
 70
     1
102
RTVSPropertyOp49
 70
     1
102
RTVSPropertyOp50
 70
     1
102
RTVSPropertyOp51
 70
     0
102
RTVSPropertyOp52
 70
     0
102
RTVSPropertyOp53
 70
     1
102
RTVSPropertyOp54
 70
     1
102
RTVSPropertyOp55
 70
     1
102
RTVSPropertyOp56
 70
     1
102
RTVSPropertyOp57
 70
     1
102
RTVSPost2010Prop28
280
     0
102
RTVSPost2010PropOp28
 70
     1
102
RTVSPost2010Prop29
280
     1
102
RTVSPost2010PropOp29
 70
     1
102
RTVSPost2010Prop30
280
     1
102
RTVSPost2010PropOp30
 70
     1
102
RTVSPost2010Prop31
280
     0
102
RTVSPost2010PropOp31
 70
     1
102
RTVSPost2010Prop32
280
     0
102
RTVSPost2010PropOp32
 70
     1
102
RTVSPost2010Prop33
280
     0
102
RTVSPost2010PropOp33
 70
     1
102
RTVSPost2010Prop34
280
     0
102
RTVSPost2010PropOp34
 70
     1
102
RTVSPost2010Prop35
280
     0
102
RTVSPost2010PropOp35
 70
     1
102
RTVSPost2010Prop36
280
     0
102
RTVSPost2010PropOp36
 70
     1
102
RTVSPost2010Prop37
 90
       50
102
RTVSPost2010PropOp37
 70
     1
102
RTVSPost2010Prop38
140
0.0
102
RTVSPost2010PropOp38
 70
     1
102
RTVSPost2010Prop39
140
1.0
102
RTVSPost2010PropOp39
 70
     1
102
RTVSPost2010Prop40
 90
        0
102
RTVSPost2010PropOp40
 70
     1
102
RTVSPost2010Prop41ColorIndex
 90
       18
102
RTVSPost2010Prop41ColorRGB
 90
        0
102
RTVSPost2010PropOp41
 70
     1
102
RTVSPost2010Prop42
 90
       50
102
RTVSPost2010PropOp42
 70
     1
102
RTVSPost2010Prop43
 90
        3
102
RTVSPost2010PropOp43
 70
     1
102
RTVSPost2010Prop44ColorIndex
 90
        5
102
RTVSPost2010Prop44ColorRGB
 90
      255
102
RTVSPost2010PropOp44
 70
     1
102
RTVSPost2010Prop45
280
     0
102
RTVSPost2010PropOp45
 70
     1
102
RTVSPost2010Prop46
 90
       50
102
RTVSPost2010PropOp46
 70
     1
102
RTVSPost2010Prop47
 90
       50
102
RTVSPost2010PropOp47
 70
     1
102
RTVSPost2010Prop48
 90
       50
102
RTVSPost2010PropOp48
 70
     1
102
RTVSPost2010Prop49
280
     0
102
RTVSPost2010PropOp49
 70
     1
102
RTVSPost2010Prop50
 90
       50
102
RTVSPost2010PropOp50
 70
     1
102
RTVSPost2010Prop51ColorIndex
 90
      256
102
RTVSPost2010Prop51ColorRGB
 90
-16777216
102
RTVSPost2010PropOp51
 70
     0
102
RTVSPost2010Prop52
140
1.0
102
RTVSPost2010PropOp52
 70
     0
102
RTVSPost2010Prop53
 90
        2
102
RTVSPost2010PropOp53
 70
     1
102
RTVSPost2010Prop54
  1
strokes_ogs.tif
102
RTVSPost2010PropOp54
 70
     1
102
RTVSPost2010Prop55
280
     0
102
RTVSPost2010PropOp55
 70
     1
102
RTVSPost2010Prop56
140
1.0
102
RTVSPost2010PropOp56
 70
     1
102
RTVSPost2010Prop57
140
1.0
102
RTVSPost2010PropOp57
 70
     1
  0
XRECORD
  5
2F5
102
{ACAD_REACTORS
330
2F4
102
}
330
2F4
100
AcDbXrecord
280
     1
102
RTVSPropertyOp0
 70
     1
102
RTVSPropertyOp1
 70
     1
102
RTVSPropertyOp2
 70
     1
102
RTVSPropertyOp3
 70
     1
102
RTVSPropertyOp4
 70
     1
102
RTVSPropertyOp5
 70
     1
102
RTVSPropertyOp6
 70
     1
102
RTVSPropertyOp7
 70
     1
102
RTVSPropertyOp8
 70
     1
102
RTVSPropertyOp9
 70
     1
102
RTVSPropertyOp10
 70
     1
102
RTVSPropertyOp11
 70
     1
102
RTVSPropertyOp12
 70
     1
102
RTVSPropertyOp13
 70
     1
102
RTVSPropertyOp14
 70
     1
102
RTVSPropertyOp15
 70
     1
102
RTVSPropertyOp16
 70
     1
102
RTVSPropertyOp17
 70
     1
102
RTVSPropertyOp18
 70
     1
102
RTVSPropertyOp19
 70
     1
102
RTVSPropertyOp20
 70
     1
102
RTVSPropertyOp21
 70
     1
102
RTVSPropertyOp22
 70
     1
102
RTVSPropertyOp23
 70
     1
102
RTVSPropertyOp24
 70
     1
102
RTVSPropertyOp25
 70
     1
102
RTVSPropertyOp26
 70
     1
102
RTVSPropertyOp27
 70
     1
102
RTVSPropertyOp28
 70
     1
102
RTVSPropertyOp29
 70
     1
102
RTVSPropertyOp30
 70
     1
102
RTVSPropertyOp31
 70
     1
102
RTVSPropertyOp32
 70
     1
102
RTVSPropertyOp33
 70
     1
102
RTVSPropertyOp34
 70
     1
102
RTVSPropertyOp35
 70
     1
102
RTVSPropertyOp36
 70
     1
102
RTVSPropertyOp37
 70
     1
102
RTVSPropertyOp38
 70
     1
102
RTVSPropertyOp39
 70
     1
102
RTVSPropertyOp40
 70
     1
102
RTVSPropertyOp41
 70
     1
102
RTVSPropertyOp42
 70
     1
102
RTVSPropertyOp43
 70
     1
102
RTVSPropertyOp44
 70
     1
102
RTVSPropertyOp45
 70
     1
102
RTVSPropertyOp46
 70
     1
102
RTVSPropertyOp47
 70
     1
102
RTVSPropertyOp48
 70
     1
102
RTVSPropertyOp49
 70
     1
102
RTVSPropertyOp50
 70
     1
102
RTVSPropertyOp51
 70
     0
102
RTVSPropertyOp52
 70
     0
102
RTVSPropertyOp53
 70
     1
102
RTVSPropertyOp54
 70
     1
102
RTVSPropertyOp55
 70
     1
102
RTVSPropertyOp56
 70
     1
102
RTVSPropertyOp57
 70
     1
102
RTVSPost2010Prop28
280
     0
102
RTVSPost2010PropOp28
 70
     1
102
RTVSPost2010Prop29
280
     1
102
RTVSPost2010PropOp29
 70
     1
102
RTVSPost2010Prop30
280
     1
102
RTVSPost2010PropOp30
 70
     1
102
RTVSPost2010Prop31
280
     0
102
RTVSPost2010PropOp31
 70
     1
102
RTVSPost2010Prop32
280
     0
102
RTVSPost2010PropOp32
 70
     1
102
RTVSPost2010Prop33
280
     0
102
RTVSPost2010PropOp33
 70
     1
102
RTVSPost2010Prop34
280
     0
102
RTVSPost2010PropOp34
 70
     1
102
RTVSPost2010Prop35
280
     0
102
RTVSPost2010PropOp35
 70
     1
102
RTVSPost2010Prop36
280
     0
102
RTVSPost2010PropOp36
 70
     1
102
RTVSPost2010Prop37
 90
       50
102
RTVSPost2010PropOp37
 70
     1
102
RTVSPost2010Prop38
140
0.0
102
RTVSPost2010PropOp38
 70
     1
102
RTVSPost2010Prop39
140
1.0
102
RTVSPost2010PropOp39
 70
     1
102
RTVSPost2010Prop40
 90
        0
102
RTVSPost2010PropOp40
 70
     1
102
RTVSPost2010Prop41ColorIndex
 90
       18
102
RTVSPost2010Prop41ColorRGB
 90
        0
102
RTVSPost2010PropOp41
 70
     1
102
RTVSPost2010Prop42
 90
       50
102
RTVSPost2010PropOp42
 70
     1
102
RTVSPost2010Prop43
 90
        3
102
RTVSPost2010PropOp43
 70
     1
102
RTVSPost2010Prop44ColorIndex
 90
        5
102
RTVSPost2010Prop44ColorRGB
 90
      255
102
RTVSPost2010PropOp44
 70
     1
102
RTVSPost2010Prop45
280
     0
102
RTVSPost2010PropOp45
 70
     1
102
RTVSPost2010Prop46
 90
       50
102
RTVSPost2010PropOp46
 70
     1
102
RTVSPost2010Prop47
 90
       50
102
RTVSPost2010PropOp47
 70
     1
102
RTVSPost2010Prop48
 90
       50
102
RTVSPost2010PropOp48
 70
     1
102
RTVSPost2010Prop49
280
     0
102
RTVSPost2010PropOp49
 70
     1
102
RTVSPost2010Prop50
 90
       50
102
RTVSPost2010PropOp50
 70
     1
102
RTVSPost2010Prop51ColorIndex
 90
      256
102
RTVSPost2010Prop51ColorRGB
 90
-16777216
102
RTVSPost2010PropOp51
 70
     0
102
RTVSPost2010Prop52
140
1.0
102
RTVSPost2010PropOp52
 70
     0
102
RTVSPost2010Prop53
 90
        2
102
RTVSPost2010PropOp53
 70
     1
102
RTVSPost2010Prop54
  1
strokes_ogs.tif
102
RTVSPost2010PropOp54
 70
     1
102
RTVSPost2010Prop55
280
     0
102
RTVSPost2010PropOp55
 70
     1
102
RTVSPost2010Prop56
140
1.0
102
RTVSPost2010PropOp56
 70
     1
102
RTVSPost2010Prop57
140
1.0
102
RTVSPost2010PropOp57
 70
     1
  0
XRECORD
  5
305
102
{ACAD_REACTORS
330
304
102
}
330
304
100
AcDbXrecord
280
     1
102
RTVSPropertyOp0
 70
     0
102
RTVSPropertyOp1
 70
     0
102
RTVSPropertyOp2
 70
     0
102
RTVSPropertyOp3
 70
     0
102
RTVSPropertyOp4
 70
     0
102
RTVSPropertyOp5
 70
     0
102
RTVSPropertyOp6
 70
     0
102
RTVSPropertyOp7
 70
     0
102
RTVSPropertyOp8
 70
     0
102
RTVSPropertyOp9
 70
     0
102
RTVSPropertyOp10
 70
     0
102
RTVSPropertyOp11
 70
     0
102
RTVSPropertyOp12
 70
     0
102
RTVSPropertyOp13
 70
     0
102
RTVSPropertyOp14
 70
     2
102
RTVSPropertyOp15
 70
     0
102
RTVSPropertyOp16
 70
     0
102
RTVSPropertyOp17
 70
     0
102
RTVSPropertyOp18
 70
     0
102
RTVSPropertyOp19
 70
     0
102
RTVSPropertyOp20
 70
     0
102
RTVSPropertyOp21
 70
     0
102
RTVSPropertyOp22
 70
     0
102
RTVSPropertyOp23
 70
     0
102
RTVSPropertyOp24
 70
     0
102
RTVSPropertyOp25
 70
     0
102
RTVSPropertyOp26
 70
     0
102
RTVSPropertyOp27
 70
     0
102
RTVSPropertyOp28
 70
     0
102
RTVSPropertyOp29
 70
     0
102
RTVSPropertyOp30
 70
     0
102
RTVSPropertyOp31
 70
     0
102
RTVSPropertyOp32
 70
     0
102
RTVSPropertyOp33
 70
     0
102
RTVSPropertyOp34
 70
     0
102
RTVSPropertyOp35
 70
     0
102
RTVSPropertyOp36
 70
     0
102
RTVSPropertyOp37
 70
     0
102
RTVSPropertyOp38
 70
     0
102
RTVSPropertyOp39
 70
     0
102
RTVSPropertyOp40
 70
     0
102
RTVSPropertyOp41
 70
     0
102
RTVSPropertyOp42
 70
     0
102
RTVSPropertyOp43
 70
     0
102
RTVSPropertyOp44
 70
     0
102
RTVSPropertyOp45
 70
     0
102
RTVSPropertyOp46
 70
     0
102
RTVSPropertyOp47
 70
     0
102
RTVSPropertyOp48
 70
     0
102
RTVSPropertyOp49
 70
     0
102
RTVSPropertyOp50
 70
     0
102
RTVSPropertyOp51
 70
     0
102
RTVSPropertyOp52
 70
     0
102
RTVSPropertyOp53
 70
     0
102
RTVSPropertyOp54
 70
     0
102
RTVSPropertyOp55
 70
     0
102
RTVSPropertyOp56
 70
     0
102
RTVSPropertyOp57
 70
     0
102
RTVSPost2010Prop28
280
     0
102
RTVSPost2010PropOp28
 70
     0
102
RTVSPost2010Prop29
280
     1
102
RTVSPost2010PropOp29
 70
     0
102
RTVSPost2010Prop30
280
     1
102
RTVSPost2010PropOp30
 70
     0
102
RTVSPost2010Prop31
280
     0
102
RTVSPost2010PropOp31
 70
     0
102
RTVSPost2010Prop32
280
     0
102
RTVSPost2010PropOp32
 70
     0
102
RTVSPost2010Prop33
280
     0
102
RTVSPost2010PropOp33
 70
     0
102
RTVSPost2010Prop34
280
     0
102
RTVSPost2010PropOp34
 70
     0
102
RTVSPost2010Prop35
280
     0
102
RTVSPost2010PropOp35
 70
     0
102
RTVSPost2010Prop36
280
     0
102
RTVSPost2010PropOp36
 70
     0
102
RTVSPost2010Prop37
 90
       50
102
RTVSPost2010PropOp37
 70
     0
102
RTVSPost2010Prop38
140
0.0
102
RTVSPost2010PropOp38
 70
     0
102
RTVSPost2010Prop39
140
1.0
102
RTVSPost2010PropOp39
 70
     0
102
RTVSPost2010Prop40
 90
        0
102
RTVSPost2010PropOp40
 70
     0
102
RTVSPost2010Prop41ColorIndex
 90
       18
102
RTVSPost2010Prop41ColorRGB
 90
        0
102
RTVSPost2010PropOp41
 70
     0
102
RTVSPost2010Prop42
 90
       50
102
RTVSPost2010PropOp42
 70
     0
102
RTVSPost2010Prop43
 90
        3
102
RTVSPost2010PropOp43
 70
     0
102
RTVSPost2010Prop44ColorIndex
 90
        5
102
RTVSPost2010Prop44ColorRGB
 90
      255
102
RTVSPost2010PropOp44
 70
     0
102
RTVSPost2010Prop45
280
     0
102
RTVSPost2010PropOp45
 70
     0
102
RTVSPost2010Prop46
 90
       50
102
RTVSPost2010PropOp46
 70
     0
102
RTVSPost2010Prop47
 90
       50
102
RTVSPost2010PropOp47
 70
     0
102
RTVSPost2010Prop48
 90
       50
102
RTVSPost2010PropOp48
 70
     0
102
RTVSPost2010Prop49
280
     0
102
RTVSPost2010PropOp49
 70
     0
102
RTVSPost2010Prop50
 90
       50
102
RTVSPost2010PropOp50
 70
     0
102
RTVSPost2010Prop51ColorIndex
 90
      256
102
RTVSPost2010Prop51ColorRGB
 90
-16777216
102
RTVSPost2010PropOp51
 70
     0
102
RTVSPost2010Prop52
140
1.0
102
RTVSPost2010PropOp52
 70
     0
102
RTVSPost2010Prop53
 90
        2
102
RTVSPost2010PropOp53
 70
     0
102
RTVSPost2010Prop54
  1
strokes_ogs.tif
102
RTVSPost2010PropOp54
 70
     0
102
RTVSPost2010Prop55
280
     0
102
RTVSPost2010PropOp55
 70
     0
102
RTVSPost2010Prop56
140
1.0
102
RTVSPost2010PropOp56
 70
     0
102
RTVSPost2010Prop57
140
1.0
102
RTVSPost2010PropOp57
 70
     0
  0
XRECORD
  5
2FD
102
{ACAD_REACTORS
330
2FC
102
}
330
2FC
100
AcDbXrecord
280
     1
102
RTVSPropertyOp0
 70
     1
102
RTVSPropertyOp1
 70
     1
102
RTVSPropertyOp2
 70
     1
102
RTVSPropertyOp3
 70
     1
102
RTVSPropertyOp4
 70
     1
102
RTVSPropertyOp5
 70
     1
102
RTVSPropertyOp6
 70
     1
102
RTVSPropertyOp7
 70
     1
102
RTVSPropertyOp8
 70
     1
102
RTVSPropertyOp9
 70
     1
102
RTVSPropertyOp10
 70
     1
102
RTVSPropertyOp11
 70
     1
102
RTVSPropertyOp12
 70
     1
102
RTVSPropertyOp13
 70
     1
102
RTVSPropertyOp14
 70
     1
102
RTVSPropertyOp15
 70
     1
102
RTVSPropertyOp16
 70
     1
102
RTVSPropertyOp17
 70
     1
102
RTVSPropertyOp18
 70
     1
102
RTVSPropertyOp19
 70
     1
102
RTVSPropertyOp20
 70
     1
102
RTVSPropertyOp21
 70
     1
102
RTVSPropertyOp22
 70
     1
102
RTVSPropertyOp23
 70
     1
102
RTVSPropertyOp24
 70
     1
102
RTVSPropertyOp25
 70
     1
102
RTVSPropertyOp26
 70
     1
102
RTVSPropertyOp27
 70
     1
102
RTVSPropertyOp28
 70
     1
102
RTVSPropertyOp29
 70
     1
102
RTVSPropertyOp30
 70
     1
102
RTVSPropertyOp31
 70
     1
102
RTVSPropertyOp32
 70
     1
102
RTVSPropertyOp33
 70
     1
102
RTVSPropertyOp34
 70
     1
102
RTVSPropertyOp35
 70
     1
102
RTVSPropertyOp36
 70
     1
102
RTVSPropertyOp37
 70
     1
102
RTVSPropertyOp38
 70
     1
102
RTVSPropertyOp39
 70
     1
102
RTVSPropertyOp40
 70
     1
102
RTVSPropertyOp41
 70
     1
102
RTVSPropertyOp42
 70
     1
102
RTVSPropertyOp43
 70
     1
102
RTVSPropertyOp44
 70
     1
102
RTVSPropertyOp45
 70
     1
102
RTVSPropertyOp46
 70
     1
102
RTVSPropertyOp47
 70
     1
102
RTVSPropertyOp48
 70
     1
102
RTVSPropertyOp49
 70
     1
102
RTVSPropertyOp50
 70
     1
102
RTVSPropertyOp51
 70
     0
102
RTVSPropertyOp52
 70
     0
102
RTVSPropertyOp53
 70
     1
102
RTVSPropertyOp54
 70
     1
102
RTVSPropertyOp55
 70
     1
102
RTVSPropertyOp56
 70
     1
102
RTVSPropertyOp57
 70
     1
102
RTVSPost2010Prop28
280
     0
102
RTVSPost2010PropOp28
 70
     1
102
RTVSPost2010Prop29
280
     1
102
RTVSPost2010PropOp29
 70
     1
102
RTVSPost2010Prop30
280
     1
102
RTVSPost2010PropOp30
 70
     1
102
RTVSPost2010Prop31
280
     0
102
RTVSPost2010PropOp31
 70
     1
102
RTVSPost2010Prop32
280
     0
102
RTVSPost2010PropOp32
 70
     1
102
RTVSPost2010Prop33
280
     0
102
RTVSPost2010PropOp33
 70
     1
102
RTVSPost2010Prop34
280
     0
102
RTVSPost2010PropOp34
 70
     1
102
RTVSPost2010Prop35
280
     0
102
RTVSPost2010PropOp35
 70
     1
102
RTVSPost2010Prop36
280
     0
102
RTVSPost2010PropOp36
 70
     1
102
RTVSPost2010Prop37
 90
       50
102
RTVSPost2010PropOp37
 70
     1
102
RTVSPost2010Prop38
140
0.0
102
RTVSPost2010PropOp38
 70
     1
102
RTVSPost2010Prop39
140
1.0
102
RTVSPost2010PropOp39
 70
     1
102
RTVSPost2010Prop40
 90
        0
102
RTVSPost2010PropOp40
 70
     1
102
RTVSPost2010Prop41ColorIndex
 90
       18
102
RTVSPost2010Prop41ColorRGB
 90
        0
102
RTVSPost2010PropOp41
 70
     1
102
RTVSPost2010Prop42
 90
       50
102
RTVSPost2010PropOp42
 70
     1
102
RTVSPost2010Prop43
 90
        3
102
RTVSPost2010PropOp43
 70
     1
102
RTVSPost2010Prop44ColorIndex
 90
        5
102
RTVSPost2010Prop44ColorRGB
 90
      255
102
RTVSPost2010PropOp44
 70
     1
102
RTVSPost2010Prop45
280
     0
102
RTVSPost2010PropOp45
 70
     1
102
RTVSPost2010Prop46
 90
       50
102
RTVSPost2010PropOp46
 70
     1
102
RTVSPost2010Prop47
 90
       50
102
RTVSPost2010PropOp47
 70
     1
102
RTVSPost2010Prop48
 90
       50
102
RTVSPost2010PropOp48
 70
     1
102
RTVSPost2010Prop49
280
     0
102
RTVSPost2010PropOp49
 70
     1
102
RTVSPost2010Prop50
 90
       50
102
RTVSPost2010PropOp50
 70
     1
102
RTVSPost2010Prop51ColorIndex
 90
      256
102
RTVSPost2010Prop51ColorRGB
 90
-16777216
102
RTVSPost2010PropOp51
 70
     0
102
RTVSPost2010Prop52
140
1.0
102
RTVSPost2010PropOp52
 70
     0
102
RTVSPost2010Prop53
 90
        2
102
RTVSPost2010PropOp53
 70
     1
102
RTVSPost2010Prop54
  1
strokes_ogs.tif
102
RTVSPost2010PropOp54
 70
     1
102
RTVSPost2010Prop55
280
     0
102
RTVSPost2010PropOp55
 70
     1
102
RTVSPost2010Prop56
140
1.0
102
RTVSPost2010PropOp56
 70
     1
102
RTVSPost2010Prop57
140
1.0
102
RTVSPost2010PropOp57
 70
     1
  0
XRECORD
  5
2E1
102
{ACAD_REACTORS
330
2E0
102
}
330
2E0
100
AcDbXrecord
280
     1
102
RTVSPropertyOp0
 70
     1
102
RTVSPropertyOp1
 70
     1
102
RTVSPropertyOp2
 70
     1
102
RTVSPropertyOp3
 70
     1
102
RTVSPropertyOp4
 70
     1
102
RTVSPropertyOp5
 70
     1
102
RTVSPropertyOp6
 70
     1
102
RTVSPropertyOp7
 70
     1
102
RTVSPropertyOp8
 70
     1
102
RTVSPropertyOp9
 70
     1
102
RTVSPropertyOp10
 70
     1
102
RTVSPropertyOp11
 70
     1
102
RTVSPropertyOp12
 70
     1
102
RTVSPropertyOp13
 70
     1
102
RTVSPropertyOp14
 70
     1
102
RTVSPropertyOp15
 70
     1
102
RTVSPropertyOp16
 70
     1
102
RTVSPropertyOp17
 70
     1
102
RTVSPropertyOp18
 70
     1
102
RTVSPropertyOp19
 70
     1
102
RTVSPropertyOp20
 70
     1
102
RTVSPropertyOp21
 70
     1
102
RTVSPropertyOp22
 70
     1
102
RTVSPropertyOp23
 70
     1
102
RTVSPropertyOp24
 70
     1
102
RTVSPropertyOp25
 70
     1
102
RTVSPropertyOp26
 70
     1
102
RTVSPropertyOp27
 70
     1
102
RTVSPropertyOp28
 70
     1
102
RTVSPropertyOp29
 70
     1
102
RTVSPropertyOp30
 70
     1
102
RTVSPropertyOp31
 70
     1
102
RTVSPropertyOp32
 70
     1
102
RTVSPropertyOp33
 70
     1
102
RTVSPropertyOp34
 70
     1
102
RTVSPropertyOp35
 70
     1
102
RTVSPropertyOp36
 70
     1
102
RTVSPropertyOp37
 70
     1
102
RTVSPropertyOp38
 70
     1
102
RTVSPropertyOp39
 70
     1
102
RTVSPropertyOp40
 70
     1
102
RTVSPropertyOp41
 70
     1
102
RTVSPropertyOp42
 70
     1
102
RTVSPropertyOp43
 70
     1
102
RTVSPropertyOp44
 70
     1
102
RTVSPropertyOp45
 70
     1
102
RTVSPropertyOp46
 70
     1
102
RTVSPropertyOp47
 70
     1
102
RTVSPropertyOp48
 70
     1
102
RTVSPropertyOp49
 70
     1
102
RTVSPropertyOp50
 70
     1
102
RTVSPropertyOp51
 70
     0
102
RTVSPropertyOp52
 70
     0
102
RTVSPropertyOp53
 70
     1
102
RTVSPropertyOp54
 70
     1
102
RTVSPropertyOp55
 70
     1
102
RTVSPropertyOp56
 70
     1
102
RTVSPropertyOp57
 70
     1
102
RTVSPost2010Prop28
280
     0
102
RTVSPost2010PropOp28
 70
     1
102
RTVSPost2010Prop29
280
     1
102
RTVSPost2010PropOp29
 70
     1
102
RTVSPost2010Prop30
280
     1
102
RTVSPost2010PropOp30
 70
     1
102
RTVSPost2010Prop31
280
     0
102
RTVSPost2010PropOp31
 70
     1
102
RTVSPost2010Prop32
280
     0
102
RTVSPost2010PropOp32
 70
     1
102
RTVSPost2010Prop33
280
     0
102
RTVSPost2010PropOp33
 70
     1
102
RTVSPost2010Prop34
280
     0
102
RTVSPost2010PropOp34
 70
     1
102
RTVSPost2010Prop35
280
     0
102
RTVSPost2010PropOp35
 70
     1
102
RTVSPost2010Prop36
280
     0
102
RTVSPost2010PropOp36
 70
     1
102
RTVSPost2010Prop37
 90
       50
102
RTVSPost2010PropOp37
 70
     1
102
RTVSPost2010Prop38
140
0.0
102
RTVSPost2010PropOp38
 70
     1
102
RTVSPost2010Prop39
140
1.0
102
RTVSPost2010PropOp39
 70
     1
102
RTVSPost2010Prop40
 90
        0
102
RTVSPost2010PropOp40
 70
     1
102
RTVSPost2010Prop41ColorIndex
 90
       18
102
RTVSPost2010Prop41ColorRGB
 90
        0
102
RTVSPost2010PropOp41
 70
     1
102
RTVSPost2010Prop42
 90
       50
102
RTVSPost2010PropOp42
 70
     1
102
RTVSPost2010Prop43
 90
        3
102
RTVSPost2010PropOp43
 70
     1
102
RTVSPost2010Prop44ColorIndex
 90
        5
102
RTVSPost2010Prop44ColorRGB
 90
      255
102
RTVSPost2010PropOp44
 70
     1
102
RTVSPost2010Prop45
280
     0
102
RTVSPost2010PropOp45
 70
     1
102
RTVSPost2010Prop46
 90
       50
102
RTVSPost2010PropOp46
 70
     1
102
RTVSPost2010Prop47
 90
       50
102
RTVSPost2010PropOp47
 70
     1
102
RTVSPost2010Prop48
 90
       50
102
RTVSPost2010PropOp48
 70
     1
102
RTVSPost2010Prop49
280
     0
102
RTVSPost2010PropOp49
 70
     1
102
RTVSPost2010Prop50
 90
       50
102
RTVSPost2010PropOp50
 70
     1
102
RTVSPost2010Prop51ColorIndex
 90
      256
102
RTVSPost2010Prop51ColorRGB
 90
-16777216
102
RTVSPost2010PropOp51
 70
     0
102
RTVSPost2010Prop52
140
1.0
102
RTVSPost2010PropOp52
 70
     0
102
RTVSPost2010Prop53
 90
        2
102
RTVSPost2010PropOp53
 70
     1
102
RTVSPost2010Prop54
  1
strokes_ogs.tif
102
RTVSPost2010PropOp54
 70
     1
102
RTVSPost2010Prop55
280
     0
102
RTVSPost2010PropOp55
 70
     1
102
RTVSPost2010Prop56
140
1.0
102
RTVSPost2010PropOp56
 70
     1
102
RTVSPost2010Prop57
140
1.0
102
RTVSPost2010PropOp57
 70
     1
  0
XRECORD
  5
2E3
102
{ACAD_REACTORS
330
2E2
102
}
330
2E2
100
AcDbXrecord
280
     1
102
RTVSPropertyOp0
 70
     1
102
RTVSPropertyOp1
 70
     1
102
RTVSPropertyOp2
 70
     1
102
RTVSPropertyOp3
 70
     1
102
RTVSPropertyOp4
 70
     1
102
RTVSPropertyOp5
 70
     1
102
RTVSPropertyOp6
 70
     1
102
RTVSPropertyOp7
 70
     1
102
RTVSPropertyOp8
 70
     1
102
RTVSPropertyOp9
 70
     1
102
RTVSPropertyOp10
 70
     1
102
RTVSPropertyOp11
 70
     1
102
RTVSPropertyOp12
 70
     1
102
RTVSPropertyOp13
 70
     1
102
RTVSPropertyOp14
 70
     1
102
RTVSPropertyOp15
 70
     1
102
RTVSPropertyOp16
 70
     1
102
RTVSPropertyOp17
 70
     1
102
RTVSPropertyOp18
 70
     1
102
RTVSPropertyOp19
 70
     1
102
RTVSPropertyOp20
 70
     1
102
RTVSPropertyOp21
 70
     1
102
RTVSPropertyOp22
 70
     1
102
RTVSPropertyOp23
 70
     1
102
RTVSPropertyOp24
 70
     1
102
RTVSPropertyOp25
 70
     1
102
RTVSPropertyOp26
 70
     1
102
RTVSPropertyOp27
 70
     1
102
RTVSPropertyOp28
 70
     1
102
RTVSPropertyOp29
 70
     1
102
RTVSPropertyOp30
 70
     1
102
RTVSPropertyOp31
 70
     1
102
RTVSPropertyOp32
 70
     1
102
RTVSPropertyOp33
 70
     1
102
RTVSPropertyOp34
 70
     1
102
RTVSPropertyOp35
 70
     1
102
RTVSPropertyOp36
 70
     1
102
RTVSPropertyOp37
 70
     1
102
RTVSPropertyOp38
 70
     1
102
RTVSPropertyOp39
 70
     1
102
RTVSPropertyOp40
 70
     1
102
RTVSPropertyOp41
 70
     1
102
RTVSPropertyOp42
 70
     1
102
RTVSPropertyOp43
 70
     1
102
RTVSPropertyOp44
 70
     1
102
RTVSPropertyOp45
 70
     1
102
RTVSPropertyOp46
 70
     1
102
RTVSPropertyOp47
 70
     1
102
RTVSPropertyOp48
 70
     1
102
RTVSPropertyOp49
 70
     1
102
RTVSPropertyOp50
 70
     1
102
RTVSPropertyOp51
 70
     0
102
RTVSPropertyOp52
 70
     0
102
RTVSPropertyOp53
 70
     1
102
RTVSPropertyOp54
 70
     1
102
RTVSPropertyOp55
 70
     1
102
RTVSPropertyOp56
 70
     1
102
RTVSPropertyOp57
 70
     1
102
RTVSPost2010Prop28
280
     0
102
RTVSPost2010PropOp28
 70
     1
102
RTVSPost2010Prop29
280
     1
102
RTVSPost2010PropOp29
 70
     1
102
RTVSPost2010Prop30
280
     1
102
RTVSPost2010PropOp30
 70
     1
102
RTVSPost2010Prop31
280
     0
102
RTVSPost2010PropOp31
 70
     1
102
RTVSPost2010Prop32
280
     0
102
RTVSPost2010PropOp32
 70
     1
102
RTVSPost2010Prop33
280
     0
102
RTVSPost2010PropOp33
 70
     1
102
RTVSPost2010Prop34
280
     0
102
RTVSPost2010PropOp34
 70
     1
102
RTVSPost2010Prop35
280
     0
102
RTVSPost2010PropOp35
 70
     1
102
RTVSPost2010Prop36
280
     0
102
RTVSPost2010PropOp36
 70
     1
102
RTVSPost2010Prop37
 90
       50
102
RTVSPost2010PropOp37
 70
     1
102
RTVSPost2010Prop38
140
0.0
102
RTVSPost2010PropOp38
 70
     1
102
RTVSPost2010Prop39
140
1.0
102
RTVSPost2010PropOp39
 70
     1
102
RTVSPost2010Prop40
 90
        0
102
RTVSPost2010PropOp40
 70
     1
102
RTVSPost2010Prop41ColorIndex
 90
       18
102
RTVSPost2010Prop41ColorRGB
 90
        0
102
RTVSPost2010PropOp41
 70
     1
102
RTVSPost2010Prop42
 90
       50
102
RTVSPost2010PropOp42
 70
     1
102
RTVSPost2010Prop43
 90
        3
102
RTVSPost2010PropOp43
 70
     1
102
RTVSPost2010Prop44ColorIndex
 90
        5
102
RTVSPost2010Prop44ColorRGB
 90
      255
102
RTVSPost2010PropOp44
 70
     1
102
RTVSPost2010Prop45
280
     0
102
RTVSPost2010PropOp45
 70
     1
102
RTVSPost2010Prop46
 90
       50
102
RTVSPost2010PropOp46
 70
     1
102
RTVSPost2010Prop47
 90
       50
102
RTVSPost2010PropOp47
 70
     1
102
RTVSPost2010Prop48
 90
       50
102
RTVSPost2010PropOp48
 70
     1
102
RTVSPost2010Prop49
280
     0
102
RTVSPost2010PropOp49
 70
     1
102
RTVSPost2010Prop50
 90
       50
102
RTVSPost2010PropOp50
 70
     1
102
RTVSPost2010Prop51ColorIndex
 90
      256
102
RTVSPost2010Prop51ColorRGB
 90
-16777216
102
RTVSPost2010PropOp51
 70
     0
102
RTVSPost2010Prop52
140
1.0
102
RTVSPost2010PropOp52
 70
     0
102
RTVSPost2010Prop53
 90
        2
102
RTVSPost2010PropOp53
 70
     1
102
RTVSPost2010Prop54
  1
strokes_ogs.tif
102
RTVSPost2010PropOp54
 70
     1
102
RTVSPost2010Prop55
280
     0
102
RTVSPost2010PropOp55
 70
     1
102
RTVSPost2010Prop56
140
1.0
102
RTVSPost2010PropOp56
 70
     1
102
RTVSPost2010Prop57
140
1.0
102
RTVSPost2010PropOp57
 70
     1
  0
XRECORD
  5
2E5
102
{ACAD_REACTORS
330
2E4
102
}
330
2E4
100
AcDbXrecord
280
     1
102
RTVSPropertyOp0
 70
     1
102
RTVSPropertyOp1
 70
     1
102
RTVSPropertyOp2
 70
     1
102
RTVSPropertyOp3
 70
     1
102
RTVSPropertyOp4
 70
     1
102
RTVSPropertyOp5
 70
     1
102
RTVSPropertyOp6
 70
     1
102
RTVSPropertyOp7
 70
     1
102
RTVSPropertyOp8
 70
     1
102
RTVSPropertyOp9
 70
     1
102
RTVSPropertyOp10
 70
     1
102
RTVSPropertyOp11
 70
     1
102
RTVSPropertyOp12
 70
     1
102
RTVSPropertyOp13
 70
     1
102
RTVSPropertyOp14
 70
     1
102
RTVSPropertyOp15
 70
     1
102
RTVSPropertyOp16
 70
     1
102
RTVSPropertyOp17
 70
     1
102
RTVSPropertyOp18
 70
     1
102
RTVSPropertyOp19
 70
     1
102
RTVSPropertyOp20
 70
     1
102
RTVSPropertyOp21
 70
     1
102
RTVSPropertyOp22
 70
     1
102
RTVSPropertyOp23
 70
     1
102
RTVSPropertyOp24
 70
     1
102
RTVSPropertyOp25
 70
     1
102
RTVSPropertyOp26
 70
     1
102
RTVSPropertyOp27
 70
     1
102
RTVSPropertyOp28
 70
     1
102
RTVSPropertyOp29
 70
     1
102
RTVSPropertyOp30
 70
     1
102
RTVSPropertyOp31
 70
     1
102
RTVSPropertyOp32
 70
     1
102
RTVSPropertyOp33
 70
     1
102
RTVSPropertyOp34
 70
     1
102
RTVSPropertyOp35
 70
     1
102
RTVSPropertyOp36
 70
     1
102
RTVSPropertyOp37
 70
     1
102
RTVSPropertyOp38
 70
     1
102
RTVSPropertyOp39
 70
     1
102
RTVSPropertyOp40
 70
     1
102
RTVSPropertyOp41
 70
     1
102
RTVSPropertyOp42
 70
     1
102
RTVSPropertyOp43
 70
     1
102
RTVSPropertyOp44
 70
     1
102
RTVSPropertyOp45
 70
     1
102
RTVSPropertyOp46
 70
     1
102
RTVSPropertyOp47
 70
     1
102
RTVSPropertyOp48
 70
     1
102
RTVSPropertyOp49
 70
     1
102
RTVSPropertyOp50
 70
     1
102
RTVSPropertyOp51
 70
     0
102
RTVSPropertyOp52
 70
     0
102
RTVSPropertyOp53
 70
     1
102
RTVSPropertyOp54
 70
     1
102
RTVSPropertyOp55
 70
     1
102
RTVSPropertyOp56
 70
     1
102
RTVSPropertyOp57
 70
     1
102
RTVSPost2010Prop28
280
     0
102
RTVSPost2010PropOp28
 70
     1
102
RTVSPost2010Prop29
280
     1
102
RTVSPost2010PropOp29
 70
     1
102
RTVSPost2010Prop30
280
     1
102
RTVSPost2010PropOp30
 70
     1
102
RTVSPost2010Prop31
280
     0
102
RTVSPost2010PropOp31
 70
     1
102
RTVSPost2010Prop32
280
     0
102
RTVSPost2010PropOp32
 70
     1
102
RTVSPost2010Prop33
280
     0
102
RTVSPost2010PropOp33
 70
     1
102
RTVSPost2010Prop34
280
     0
102
RTVSPost2010PropOp34
 70
     1
102
RTVSPost2010Prop35
280
     0
102
RTVSPost2010PropOp35
 70
     1
102
RTVSPost2010Prop36
280
     0
102
RTVSPost2010PropOp36
 70
     1
102
RTVSPost2010Prop37
 90
       50
102
RTVSPost2010PropOp37
 70
     1
102
RTVSPost2010Prop38
140
0.0
102
RTVSPost2010PropOp38
 70
     1
102
RTVSPost2010Prop39
140
1.0
102
RTVSPost2010PropOp39
 70
     1
102
RTVSPost2010Prop40
 90
        0
102
RTVSPost2010PropOp40
 70
     1
102
RTVSPost2010Prop41ColorIndex
 90
       18
102
RTVSPost2010Prop41ColorRGB
 90
        0
102
RTVSPost2010PropOp41
 70
     1
102
RTVSPost2010Prop42
 90
       50
102
RTVSPost2010PropOp42
 70
     1
102
RTVSPost2010Prop43
 90
        3
102
RTVSPost2010PropOp43
 70
     1
102
RTVSPost2010Prop44ColorIndex
 90
        5
102
RTVSPost2010Prop44ColorRGB
 90
      255
102
RTVSPost2010PropOp44
 70
     1
102
RTVSPost2010Prop45
280
     0
102
RTVSPost2010PropOp45
 70
     1
102
RTVSPost2010Prop46
 90
       50
102
RTVSPost2010PropOp46
 70
     1
102
RTVSPost2010Prop47
 90
       50
102
RTVSPost2010PropOp47
 70
     1
102
RTVSPost2010Prop48
 90
       50
102
RTVSPost2010PropOp48
 70
     1
102
RTVSPost2010Prop49
280
     0
102
RTVSPost2010PropOp49
 70
     1
102
RTVSPost2010Prop50
 90
       50
102
RTVSPost2010PropOp50
 70
     1
102
RTVSPost2010Prop51ColorIndex
 90
      256
102
RTVSPost2010Prop51ColorRGB
 90
-16777216
102
RTVSPost2010PropOp51
 70
     0
102
RTVSPost2010Prop52
140
1.0
102
RTVSPost2010PropOp52
 70
     0
102
RTVSPost2010Prop53
 90
        2
102
RTVSPost2010PropOp53
 70
     1
102
RTVSPost2010Prop54
  1
strokes_ogs.tif
102
RTVSPost2010PropOp54
 70
     1
102
RTVSPost2010Prop55
280
     0
102
RTVSPost2010PropOp55
 70
     1
102
RTVSPost2010Prop56
140
1.0
102
RTVSPost2010PropOp56
 70
     1
102
RTVSPost2010Prop57
140
1.0
102
RTVSPost2010PropOp57
 70
     1
  0
XRECORD
  5
2E7
102
{ACAD_REACTORS
330
2E6
102
}
330
2E6
100
AcDbXrecord
280
     1
102
RTVSPropertyOp0
 70
     1
102
RTVSPropertyOp1
 70
     1
102
RTVSPropertyOp2
 70
     1
102
RTVSPropertyOp3
 70
     1
102
RTVSPropertyOp4
 70
     1
102
RTVSPropertyOp5
 70
     1
102
RTVSPropertyOp6
 70
     1
102
RTVSPropertyOp7
 70
     1
102
RTVSPropertyOp8
 70
     1
102
RTVSPropertyOp9
 70
     1
102
RTVSPropertyOp10
 70
     1
102
RTVSPropertyOp11
 70
     1
102
RTVSPropertyOp12
 70
     1
102
RTVSPropertyOp13
 70
     1
102
RTVSPropertyOp14
 70
     1
102
RTVSPropertyOp15
 70
     1
102
RTVSPropertyOp16
 70
     1
102
RTVSPropertyOp17
 70
     1
102
RTVSPropertyOp18
 70
     1
102
RTVSPropertyOp19
 70
     1
102
RTVSPropertyOp20
 70
     1
102
RTVSPropertyOp21
 70
     1
102
RTVSPropertyOp22
 70
     1
102
RTVSPropertyOp23
 70
     1
102
RTVSPropertyOp24
 70
     1
102
RTVSPropertyOp25
 70
     1
102
RTVSPropertyOp26
 70
     1
102
RTVSPropertyOp27
 70
     1
102
RTVSPropertyOp28
 70
     1
102
RTVSPropertyOp29
 70
     1
102
RTVSPropertyOp30
 70
     1
102
RTVSPropertyOp31
 70
     1
102
RTVSPropertyOp32
 70
     1
102
RTVSPropertyOp33
 70
     1
102
RTVSPropertyOp34
 70
     1
102
RTVSPropertyOp35
 70
     1
102
RTVSPropertyOp36
 70
     1
102
RTVSPropertyOp37
 70
     1
102
RTVSPropertyOp38
 70
     1
102
RTVSPropertyOp39
 70
     1
102
RTVSPropertyOp40
 70
     1
102
RTVSPropertyOp41
 70
     1
102
RTVSPropertyOp42
 70
     1
102
RTVSPropertyOp43
 70
     1
102
RTVSPropertyOp44
 70
     1
102
RTVSPropertyOp45
 70
     1
102
RTVSPropertyOp46
 70
     1
102
RTVSPropertyOp47
 70
     1
102
RTVSPropertyOp48
 70
     1
102
RTVSPropertyOp49
 70
     1
102
RTVSPropertyOp50
 70
     1
102
RTVSPropertyOp51
 70
     0
102
RTVSPropertyOp52
 70
     0
102
RTVSPropertyOp53
 70
     1
102
RTVSPropertyOp54
 70
     1
102
RTVSPropertyOp55
 70
     1
102
RTVSPropertyOp56
 70
     1
102
RTVSPropertyOp57
 70
     1
102
RTVSPost2010Prop28
280
     0
102
RTVSPost2010PropOp28
 70
     1
102
RTVSPost2010Prop29
280
     1
102
RTVSPost2010PropOp29
 70
     1
102
RTVSPost2010Prop30
280
     1
102
RTVSPost2010PropOp30
 70
     1
102
RTVSPost2010Prop31
280
     0
102
RTVSPost2010PropOp31
 70
     1
102
RTVSPost2010Prop32
280
     0
102
RTVSPost2010PropOp32
 70
     1
102
RTVSPost2010Prop33
280
     0
102
RTVSPost2010PropOp33
 70
     1
102
RTVSPost2010Prop34
280
     0
102
RTVSPost2010PropOp34
 70
     1
102
RTVSPost2010Prop35
280
     0
102
RTVSPost2010PropOp35
 70
     1
102
RTVSPost2010Prop36
280
     0
102
RTVSPost2010PropOp36
 70
     1
102
RTVSPost2010Prop37
 90
       50
102
RTVSPost2010PropOp37
 70
     1
102
RTVSPost2010Prop38
140
0.0
102
RTVSPost2010PropOp38
 70
     1
102
RTVSPost2010Prop39
140
1.0
102
RTVSPost2010PropOp39
 70
     1
102
RTVSPost2010Prop40
 90
        0
102
RTVSPost2010PropOp40
 70
     1
102
RTVSPost2010Prop41ColorIndex
 90
       18
102
RTVSPost2010Prop41ColorRGB
 90
        0
102
RTVSPost2010PropOp41
 70
     1
102
RTVSPost2010Prop42
 90
       50
102
RTVSPost2010PropOp42
 70
     1
102
RTVSPost2010Prop43
 90
        3
102
RTVSPost2010PropOp43
 70
     1
102
RTVSPost2010Prop44ColorIndex
 90
        5
102
RTVSPost2010Prop44ColorRGB
 90
      255
102
RTVSPost2010PropOp44
 70
     1
102
RTVSPost2010Prop45
280
     0
102
RTVSPost2010PropOp45
 70
     1
102
RTVSPost2010Prop46
 90
       50
102
RTVSPost2010PropOp46
 70
     1
102
RTVSPost2010Prop47
 90
       50
102
RTVSPost2010PropOp47
 70
     1
102
RTVSPost2010Prop48
 90
       50
102
RTVSPost2010PropOp48
 70
     1
102
RTVSPost2010Prop49
280
     0
102
RTVSPost2010PropOp49
 70
     1
102
RTVSPost2010Prop50
 90
       50
102
RTVSPost2010PropOp50
 70
     1
102
RTVSPost2010Prop51ColorIndex
 90
      256
102
RTVSPost2010Prop51ColorRGB
 90
-16777216
102
RTVSPost2010PropOp51
 70
     0
102
RTVSPost2010Prop52
140
1.0
102
RTVSPost2010PropOp52
 70
     0
102
RTVSPost2010Prop53
 90
        2
102
RTVSPost2010PropOp53
 70
     1
102
RTVSPost2010Prop54
  1
strokes_ogs.tif
102
RTVSPost2010PropOp54
 70
     1
102
RTVSPost2010Prop55
280
     0
102
RTVSPost2010PropOp55
 70
     1
102
RTVSPost2010Prop56
140
1.0
102
RTVSPost2010PropOp56
 70
     1
102
RTVSPost2010Prop57
140
1.0
102
RTVSPost2010PropOp57
 70
     1
  0
XRECORD
  5
2ED
102
{ACAD_REACTORS
330
2EC
102
}
330
2EC
100
AcDbXrecord
280
     1
102
RTVSPropertyOp0
 70
     1
102
RTVSPropertyOp1
 70
     1
102
RTVSPropertyOp2
 70
     1
102
RTVSPropertyOp3
 70
     1
102
RTVSPropertyOp4
 70
     1
102
RTVSPropertyOp5
 70
     1
102
RTVSPropertyOp6
 70
     1
102
RTVSPropertyOp7
 70
     1
102
RTVSPropertyOp8
 70
     1
102
RTVSPropertyOp9
 70
     1
102
RTVSPropertyOp10
 70
     1
102
RTVSPropertyOp11
 70
     1
102
RTVSPropertyOp12
 70
     1
102
RTVSPropertyOp13
 70
     1
102
RTVSPropertyOp14
 70
     1
102
RTVSPropertyOp15
 70
     1
102
RTVSPropertyOp16
 70
     1
102
RTVSPropertyOp17
 70
     1
102
RTVSPropertyOp18
 70
     1
102
RTVSPropertyOp19
 70
     1
102
RTVSPropertyOp20
 70
     1
102
RTVSPropertyOp21
 70
     1
102
RTVSPropertyOp22
 70
     1
102
RTVSPropertyOp23
 70
     1
102
RTVSPropertyOp24
 70
     1
102
RTVSPropertyOp25
 70
     1
102
RTVSPropertyOp26
 70
     1
102
RTVSPropertyOp27
 70
     1
102
RTVSPropertyOp28
 70
     1
102
RTVSPropertyOp29
 70
     1
102
RTVSPropertyOp30
 70
     1
102
RTVSPropertyOp31
 70
     1
102
RTVSPropertyOp32
 70
     1
102
RTVSPropertyOp33
 70
     1
102
RTVSPropertyOp34
 70
     1
102
RTVSPropertyOp35
 70
     1
102
RTVSPropertyOp36
 70
     1
102
RTVSPropertyOp37
 70
     1
102
RTVSPropertyOp38
 70
     1
102
RTVSPropertyOp39
 70
     1
102
RTVSPropertyOp40
 70
     1
102
RTVSPropertyOp41
 70
     1
102
RTVSPropertyOp42
 70
     1
102
RTVSPropertyOp43
 70
     1
102
RTVSPropertyOp44
 70
     1
102
RTVSPropertyOp45
 70
     1
102
RTVSPropertyOp46
 70
     1
102
RTVSPropertyOp47
 70
     1
102
RTVSPropertyOp48
 70
     1
102
RTVSPropertyOp49
 70
     1
102
RTVSPropertyOp50
 70
     1
102
RTVSPropertyOp51
 70
     0
102
RTVSPropertyOp52
 70
     0
102
RTVSPropertyOp53
 70
     1
102
RTVSPropertyOp54
 70
     1
102
RTVSPropertyOp55
 70
     1
102
RTVSPropertyOp56
 70
     1
102
RTVSPropertyOp57
 70
     1
102
RTVSPost2010Prop28
280
     0
102
RTVSPost2010PropOp28
 70
     1
102
RTVSPost2010Prop29
280
     1
102
RTVSPost2010PropOp29
 70
     1
102
RTVSPost2010Prop30
280
     1
102
RTVSPost2010PropOp30
 70
     1
102
RTVSPost2010Prop31
280
     0
102
RTVSPost2010PropOp31
 70
     1
102
RTVSPost2010Prop32
280
     0
102
RTVSPost2010PropOp32
 70
     1
102
RTVSPost2010Prop33
280
     0
102
RTVSPost2010PropOp33
 70
     1
102
RTVSPost2010Prop34
280
     0
102
RTVSPost2010PropOp34
 70
     1
102
RTVSPost2010Prop35
280
     0
102
RTVSPost2010PropOp35
 70
     1
102
RTVSPost2010Prop36
280
     0
102
RTVSPost2010PropOp36
 70
     1
102
RTVSPost2010Prop37
 90
       50
102
RTVSPost2010PropOp37
 70
     1
102
RTVSPost2010Prop38
140
0.0
102
RTVSPost2010PropOp38
 70
     1
102
RTVSPost2010Prop39
140
1.0
102
RTVSPost2010PropOp39
 70
     1
102
RTVSPost2010Prop40
 90
        0
102
RTVSPost2010PropOp40
 70
     1
102
RTVSPost2010Prop41ColorIndex
 90
       18
102
RTVSPost2010Prop41ColorRGB
 90
        0
102
RTVSPost2010PropOp41
 70
     1
102
RTVSPost2010Prop42
 90
       50
102
RTVSPost2010PropOp42
 70
     1
102
RTVSPost2010Prop43
 90
        3
102
RTVSPost2010PropOp43
 70
     1
102
RTVSPost2010Prop44ColorIndex
 90
        5
102
RTVSPost2010Prop44ColorRGB
 90
      255
102
RTVSPost2010PropOp44
 70
     1
102
RTVSPost2010Prop45
280
     0
102
RTVSPost2010PropOp45
 70
     1
102
RTVSPost2010Prop46
 90
       50
102
RTVSPost2010PropOp46
 70
     1
102
RTVSPost2010Prop47
 90
       50
102
RTVSPost2010PropOp47
 70
     1
102
RTVSPost2010Prop48
 90
       50
102
RTVSPost2010PropOp48
 70
     1
102
RTVSPost2010Prop49
280
     0
102
RTVSPost2010PropOp49
 70
     1
102
RTVSPost2010Prop50
 90
       50
102
RTVSPost2010PropOp50
 70
     1
102
RTVSPost2010Prop51ColorIndex
 90
      256
102
RTVSPost2010Prop51ColorRGB
 90
-16777216
102
RTVSPost2010PropOp51
 70
     0
102
RTVSPost2010Prop52
140
1.0
102
RTVSPost2010PropOp52
 70
     0
102
RTVSPost2010Prop53
 90
        2
102
RTVSPost2010PropOp53
 70
     1
102
RTVSPost2010Prop54
  1
strokes_ogs.tif
102
RTVSPost2010PropOp54
 70
     1
102
RTVSPost2010Prop55
280
     0
102
RTVSPost2010PropOp55
 70
     1
102
RTVSPost2010Prop56
140
1.0
102
RTVSPost2010PropOp56
 70
     1
102
RTVSPost2010Prop57
140
1.0
102
RTVSPost2010PropOp57
 70
     1
  0
XRECORD
  5
301
102
{ACAD_REACTORS
330
300
102
}
330
300
100
AcDbXrecord
280
     1
102
RTVSPropertyOp0
 70
     0
102
RTVSPropertyOp1
 70
     0
102
RTVSPropertyOp2
 70
     0
102
RTVSPropertyOp3
 70
     0
102
RTVSPropertyOp4
 70
     0
102
RTVSPropertyOp5
 70
     0
102
RTVSPropertyOp6
 70
     0
102
RTVSPropertyOp7
 70
     0
102
RTVSPropertyOp8
 70
     0
102
RTVSPropertyOp9
 70
     0
102
RTVSPropertyOp10
 70
     0
102
RTVSPropertyOp11
 70
     0
102
RTVSPropertyOp12
 70
     0
102
RTVSPropertyOp13
 70
     0
102
RTVSPropertyOp14
 70
     2
102
RTVSPropertyOp15
 70
     0
102
RTVSPropertyOp16
 70
     0
102
RTVSPropertyOp17
 70
     0
102
RTVSPropertyOp18
 70
     0
102
RTVSPropertyOp19
 70
     0
102
RTVSPropertyOp20
 70
     0
102
RTVSPropertyOp21
 70
     0
102
RTVSPropertyOp22
 70
     0
102
RTVSPropertyOp23
 70
     0
102
RTVSPropertyOp24
 70
     0
102
RTVSPropertyOp25
 70
     0
102
RTVSPropertyOp26
 70
     0
102
RTVSPropertyOp27
 70
     0
102
RTVSPropertyOp28
 70
     0
102
RTVSPropertyOp29
 70
     0
102
RTVSPropertyOp30
 70
     0
102
RTVSPropertyOp31
 70
     0
102
RTVSPropertyOp32
 70
     0
102
RTVSPropertyOp33
 70
     0
102
RTVSPropertyOp34
 70
     0
102
RTVSPropertyOp35
 70
     0
102
RTVSPropertyOp36
 70
     0
102
RTVSPropertyOp37
 70
     0
102
RTVSPropertyOp38
 70
     0
102
RTVSPropertyOp39
 70
     0
102
RTVSPropertyOp40
 70
     0
102
RTVSPropertyOp41
 70
     0
102
RTVSPropertyOp42
 70
     0
102
RTVSPropertyOp43
 70
     0
102
RTVSPropertyOp44
 70
     0
102
RTVSPropertyOp45
 70
     0
102
RTVSPropertyOp46
 70
     0
102
RTVSPropertyOp47
 70
     0
102
RTVSPropertyOp48
 70
     0
102
RTVSPropertyOp49
 70
     0
102
RTVSPropertyOp50
 70
     0
102
RTVSPropertyOp51
 70
     0
102
RTVSPropertyOp52
 70
     0
102
RTVSPropertyOp53
 70
     0
102
RTVSPropertyOp54
 70
     0
102
RTVSPropertyOp55
 70
     0
102
RTVSPropertyOp56
 70
     0
102
RTVSPropertyOp57
 70
     0
102
RTVSPost2010Prop28
280
     0
102
RTVSPost2010PropOp28
 70
     0
102
RTVSPost2010Prop29
280
     1
102
RTVSPost2010PropOp29
 70
     0
102
RTVSPost2010Prop30
280
     1
102
RTVSPost2010PropOp30
 70
     0
102
RTVSPost2010Prop31
280
     0
102
RTVSPost2010PropOp31
 70
     0
102
RTVSPost2010Prop32
280
     0
102
RTVSPost2010PropOp32
 70
     0
102
RTVSPost2010Prop33
280
     0
102
RTVSPost2010PropOp33
 70
     0
102
RTVSPost2010Prop34
280
     0
102
RTVSPost2010PropOp34
 70
     0
102
RTVSPost2010Prop35
280
     0
102
RTVSPost2010PropOp35
 70
     0
102
RTVSPost2010Prop36
280
     0
102
RTVSPost2010PropOp36
 70
     0
102
RTVSPost2010Prop37
 90
       50
102
RTVSPost2010PropOp37
 70
     0
102
RTVSPost2010Prop38
140
0.0
102
RTVSPost2010PropOp38
 70
     0
102
RTVSPost2010Prop39
140
1.0
102
RTVSPost2010PropOp39
 70
     0
102
RTVSPost2010Prop40
 90
        0
102
RTVSPost2010PropOp40
 70
     0
102
RTVSPost2010Prop41ColorIndex
 90
       18
102
RTVSPost2010Prop41ColorRGB
 90
        0
102
RTVSPost2010PropOp41
 70
     0
102
RTVSPost2010Prop42
 90
       50
102
RTVSPost2010PropOp42
 70
     0
102
RTVSPost2010Prop43
 90
        3
102
RTVSPost2010PropOp43
 70
     0
102
RTVSPost2010Prop44ColorIndex
 90
        5
102
RTVSPost2010Prop44ColorRGB
 90
      255
102
RTVSPost2010PropOp44
 70
     0
102
RTVSPost2010Prop45
280
     0
102
RTVSPost2010PropOp45
 70
     0
102
RTVSPost2010Prop46
 90
       50
102
RTVSPost2010PropOp46
 70
     0
102
RTVSPost2010Prop47
 90
       50
102
RTVSPost2010PropOp47
 70
     0
102
RTVSPost2010Prop48
 90
       50
102
RTVSPost2010PropOp48
 70
     0
102
RTVSPost2010Prop49
280
     0
102
RTVSPost2010PropOp49
 70
     0
102
RTVSPost2010Prop50
 90
       50
102
RTVSPost2010PropOp50
 70
     0
102
RTVSPost2010Prop51ColorIndex
 90
      256
102
RTVSPost2010Prop51ColorRGB
 90
-16777216
102
RTVSPost2010PropOp51
 70
     0
102
RTVSPost2010Prop52
140
1.0
102
RTVSPost2010PropOp52
 70
     0
102
RTVSPost2010Prop53
 90
        2
102
RTVSPost2010PropOp53
 70
     0
102
RTVSPost2010Prop54
  1
strokes_ogs.tif
102
RTVSPost2010PropOp54
 70
     0
102
RTVSPost2010Prop55
280
     0
102
RTVSPost2010PropOp55
 70
     0
102
RTVSPost2010Prop56
140
1.0
102
RTVSPost2010PropOp56
 70
     0
102
RTVSPost2010Prop57
140
1.0
102
RTVSPost2010PropOp57
 70
     0
  0
XRECORD
  5
2FB
102
{ACAD_REACTORS
330
2FA
102
}
330
2FA
100
AcDbXrecord
280
     1
102
RTVSPropertyOp0
 70
     1
102
RTVSPropertyOp1
 70
     1
102
RTVSPropertyOp2
 70
     1
102
RTVSPropertyOp3
 70
     1
102
RTVSPropertyOp4
 70
     1
102
RTVSPropertyOp5
 70
     1
102
RTVSPropertyOp6
 70
     1
102
RTVSPropertyOp7
 70
     1
102
RTVSPropertyOp8
 70
     1
102
RTVSPropertyOp9
 70
     1
102
RTVSPropertyOp10
 70
     1
102
RTVSPropertyOp11
 70
     1
102
RTVSPropertyOp12
 70
     1
102
RTVSPropertyOp13
 70
     1
102
RTVSPropertyOp14
 70
     1
102
RTVSPropertyOp15
 70
     1
102
RTVSPropertyOp16
 70
     1
102
RTVSPropertyOp17
 70
     1
102
RTVSPropertyOp18
 70
     1
102
RTVSPropertyOp19
 70
     1
102
RTVSPropertyOp20
 70
     1
102
RTVSPropertyOp21
 70
     1
102
RTVSPropertyOp22
 70
     1
102
RTVSPropertyOp23
 70
     1
102
RTVSPropertyOp24
 70
     1
102
RTVSPropertyOp25
 70
     1
102
RTVSPropertyOp26
 70
     1
102
RTVSPropertyOp27
 70
     1
102
RTVSPropertyOp28
 70
     1
102
RTVSPropertyOp29
 70
     1
102
RTVSPropertyOp30
 70
     1
102
RTVSPropertyOp31
 70
     1
102
RTVSPropertyOp32
 70
     1
102
RTVSPropertyOp33
 70
     1
102
RTVSPropertyOp34
 70
     1
102
RTVSPropertyOp35
 70
     1
102
RTVSPropertyOp36
 70
     1
102
RTVSPropertyOp37
 70
     1
102
RTVSPropertyOp38
 70
     1
102
RTVSPropertyOp39
 70
     1
102
RTVSPropertyOp40
 70
     1
102
RTVSPropertyOp41
 70
     1
102
RTVSPropertyOp42
 70
     1
102
RTVSPropertyOp43
 70
     1
102
RTVSPropertyOp44
 70
     1
102
RTVSPropertyOp45
 70
     1
102
RTVSPropertyOp46
 70
     1
102
RTVSPropertyOp47
 70
     1
102
RTVSPropertyOp48
 70
     1
102
RTVSPropertyOp49
 70
     1
102
RTVSPropertyOp50
 70
     1
102
RTVSPropertyOp51
 70
     0
102
RTVSPropertyOp52
 70
     0
102
RTVSPropertyOp53
 70
     1
102
RTVSPropertyOp54
 70
     1
102
RTVSPropertyOp55
 70
     1
102
RTVSPropertyOp56
 70
     1
102
RTVSPropertyOp57
 70
     1
102
RTVSPost2010Prop28
280
     0
102
RTVSPost2010PropOp28
 70
     1
102
RTVSPost2010Prop29
280
     1
102
RTVSPost2010PropOp29
 70
     1
102
RTVSPost2010Prop30
280
     1
102
RTVSPost2010PropOp30
 70
     1
102
RTVSPost2010Prop31
280
     0
102
RTVSPost2010PropOp31
 70
     1
102
RTVSPost2010Prop32
280
     0
102
RTVSPost2010PropOp32
 70
     1
102
RTVSPost2010Prop33
280
     0
102
RTVSPost2010PropOp33
 70
     1
102
RTVSPost2010Prop34
280
     0
102
RTVSPost2010PropOp34
 70
     1
102
RTVSPost2010Prop35
280
     0
102
RTVSPost2010PropOp35
 70
     1
102
RTVSPost2010Prop36
280
     0
102
RTVSPost2010PropOp36
 70
     1
102
RTVSPost2010Prop37
 90
       50
102
RTVSPost2010PropOp37
 70
     1
102
RTVSPost2010Prop38
140
0.0
102
RTVSPost2010PropOp38
 70
     1
102
RTVSPost2010Prop39
140
1.0
102
RTVSPost2010PropOp39
 70
     1
102
RTVSPost2010Prop40
 90
        0
102
RTVSPost2010PropOp40
 70
     1
102
RTVSPost2010Prop41ColorIndex
 90
       18
102
RTVSPost2010Prop41ColorRGB
 90
        0
102
RTVSPost2010PropOp41
 70
     1
102
RTVSPost2010Prop42
 90
       50
102
RTVSPost2010PropOp42
 70
     1
102
RTVSPost2010Prop43
 90
        3
102
RTVSPost2010PropOp43
 70
     1
102
RTVSPost2010Prop44ColorIndex
 90
        5
102
RTVSPost2010Prop44ColorRGB
 90
      255
102
RTVSPost2010PropOp44
 70
     1
102
RTVSPost2010Prop45
280
     0
102
RTVSPost2010PropOp45
 70
     1
102
RTVSPost2010Prop46
 90
       50
102
RTVSPost2010PropOp46
 70
     1
102
RTVSPost2010Prop47
 90
       50
102
RTVSPost2010PropOp47
 70
     1
102
RTVSPost2010Prop48
 90
       50
102
RTVSPost2010PropOp48
 70
     1
102
RTVSPost2010Prop49
280
     0
102
RTVSPost2010PropOp49
 70
     1
102
RTVSPost2010Prop50
 90
       50
102
RTVSPost2010PropOp50
 70
     1
102
RTVSPost2010Prop51ColorIndex
 90
      256
102
RTVSPost2010Prop51ColorRGB
 90
-16777216
102
RTVSPost2010PropOp51
 70
     0
102
RTVSPost2010Prop52
140
1.0
102
RTVSPost2010PropOp52
 70
     0
102
RTVSPost2010Prop53
 90
        2
102
RTVSPost2010PropOp53
 70
     1
102
RTVSPost2010Prop54
  1
strokes_ogs.tif
102
RTVSPost2010PropOp54
 70
     1
102
RTVSPost2010Prop55
280
     0
102
RTVSPost2010PropOp55
 70
     1
102
RTVSPost2010Prop56
140
1.0
102
RTVSPost2010PropOp56
 70
     1
102
RTVSPost2010Prop57
140
1.0
102
RTVSPost2010PropOp57
 70
     1
  0
XRECORD
  5
303
102
{ACAD_REACTORS
330
302
102
}
330
302
100
AcDbXrecord
280
     1
102
RTVSPropertyOp0
 70
     0
102
RTVSPropertyOp1
 70
     0
102
RTVSPropertyOp2
 70
     0
102
RTVSPropertyOp3
 70
     0
102
RTVSPropertyOp4
 70
     0
102
RTVSPropertyOp5
 70
     0
102
RTVSPropertyOp6
 70
     0
102
RTVSPropertyOp7
 70
     0
102
RTVSPropertyOp8
 70
     0
102
RTVSPropertyOp9
 70
     0
102
RTVSPropertyOp10
 70
     0
102
RTVSPropertyOp11
 70
     0
102
RTVSPropertyOp12
 70
     0
102
RTVSPropertyOp13
 70
     0
102
RTVSPropertyOp14
 70
     2
102
RTVSPropertyOp15
 70
     0
102
RTVSPropertyOp16
 70
     0
102
RTVSPropertyOp17
 70
     0
102
RTVSPropertyOp18
 70
     0
102
RTVSPropertyOp19
 70
     0
102
RTVSPropertyOp20
 70
     0
102
RTVSPropertyOp21
 70
     0
102
RTVSPropertyOp22
 70
     0
102
RTVSPropertyOp23
 70
     0
102
RTVSPropertyOp24
 70
     0
102
RTVSPropertyOp25
 70
     0
102
RTVSPropertyOp26
 70
     0
102
RTVSPropertyOp27
 70
     0
102
RTVSPropertyOp28
 70
     0
102
RTVSPropertyOp29
 70
     0
102
RTVSPropertyOp30
 70
     0
102
RTVSPropertyOp31
 70
     0
102
RTVSPropertyOp32
 70
     0
102
RTVSPropertyOp33
 70
     0
102
RTVSPropertyOp34
 70
     0
102
RTVSPropertyOp35
 70
     0
102
RTVSPropertyOp36
 70
     0
102
RTVSPropertyOp37
 70
     0
102
RTVSPropertyOp38
 70
     0
102
RTVSPropertyOp39
 70
     0
102
RTVSPropertyOp40
 70
     0
102
RTVSPropertyOp41
 70
     0
102
RTVSPropertyOp42
 70
     0
102
RTVSPropertyOp43
 70
     0
102
RTVSPropertyOp44
 70
     0
102
RTVSPropertyOp45
 70
     0
102
RTVSPropertyOp46
 70
     0
102
RTVSPropertyOp47
 70
     0
102
RTVSPropertyOp48
 70
     0
102
RTVSPropertyOp49
 70
     0
102
RTVSPropertyOp50
 70
     0
102
RTVSPropertyOp51
 70
     0
102
RTVSPropertyOp52
 70
     0
102
RTVSPropertyOp53
 70
     0
102
RTVSPropertyOp54
 70
     0
102
RTVSPropertyOp55
 70
     0
102
RTVSPropertyOp56
 70
     0
102
RTVSPropertyOp57
 70
     0
102
RTVSPost2010Prop28
280
     0
102
RTVSPost2010PropOp28
 70
     0
102
RTVSPost2010Prop29
280
     1
102
RTVSPost2010PropOp29
 70
     0
102
RTVSPost2010Prop30
280
     1
102
RTVSPost2010PropOp30
 70
     0
102
RTVSPost2010Prop31
280
     0
102
RTVSPost2010PropOp31
 70
     0
102
RTVSPost2010Prop32
280
     0
102
RTVSPost2010PropOp32
 70
     0
102
RTVSPost2010Prop33
280
     0
102
RTVSPost2010PropOp33
 70
     0
102
RTVSPost2010Prop34
280
     0
102
RTVSPost2010PropOp34
 70
     0
102
RTVSPost2010Prop35
280
     0
102
RTVSPost2010PropOp35
 70
     0
102
RTVSPost2010Prop36
280
     0
102
RTVSPost2010PropOp36
 70
     0
102
RTVSPost2010Prop37
 90
       50
102
RTVSPost2010PropOp37
 70
     0
102
RTVSPost2010Prop38
140
0.0
102
RTVSPost2010PropOp38
 70
     0
102
RTVSPost2010Prop39
140
1.0
102
RTVSPost2010PropOp39
 70
     0
102
RTVSPost2010Prop40
 90
        0
102
RTVSPost2010PropOp40
 70
     0
102
RTVSPost2010Prop41ColorIndex
 90
       18
102
RTVSPost2010Prop41ColorRGB
 90
        0
102
RTVSPost2010PropOp41
 70
     0
102
RTVSPost2010Prop42
 90
       50
102
RTVSPost2010PropOp42
 70
     0
102
RTVSPost2010Prop43
 90
        3
102
RTVSPost2010PropOp43
 70
     0
102
RTVSPost2010Prop44ColorIndex
 90
        5
102
RTVSPost2010Prop44ColorRGB
 90
      255
102
RTVSPost2010PropOp44
 70
     0
102
RTVSPost2010Prop45
280
     0
102
RTVSPost2010PropOp45
 70
     0
102
RTVSPost2010Prop46
 90
       50
102
RTVSPost2010PropOp46
 70
     0
102
RTVSPost2010Prop47
 90
       50
102
RTVSPost2010PropOp47
 70
     0
102
RTVSPost2010Prop48
 90
       50
102
RTVSPost2010PropOp48
 70
     0
102
RTVSPost2010Prop49
280
     0
102
RTVSPost2010PropOp49
 70
     0
102
RTVSPost2010Prop50
 90
       50
102
RTVSPost2010PropOp50
 70
     0
102
RTVSPost2010Prop51ColorIndex
 90
      256
102
RTVSPost2010Prop51ColorRGB
 90
-16777216
102
RTVSPost2010PropOp51
 70
     0
102
RTVSPost2010Prop52
140
1.0
102
RTVSPost2010PropOp52
 70
     0
102
RTVSPost2010Prop53
 90
        2
102
RTVSPost2010PropOp53
 70
     0
102
RTVSPost2010Prop54
  1
strokes_ogs.tif
102
RTVSPost2010PropOp54
 70
     0
102
RTVSPost2010Prop55
280
     0
102
RTVSPost2010PropOp55
 70
     0
102
RTVSPost2010Prop56
140
1.0
102
RTVSPost2010PropOp56
 70
     0
102
RTVSPost2010Prop57
140
1.0
102
RTVSPost2010PropOp57
 70
     0
  0
XRECORD
  5
2F1
102
{ACAD_REACTORS
330
2F0
102
}
330
2F0
100
AcDbXrecord
280
     1
102
RTVSPropertyOp0
 70
     1
102
RTVSPropertyOp1
 70
     1
102
RTVSPropertyOp2
 70
     1
102
RTVSPropertyOp3
 70
     1
102
RTVSPropertyOp4
 70
     1
102
RTVSPropertyOp5
 70
     1
102
RTVSPropertyOp6
 70
     1
102
RTVSPropertyOp7
 70
     1
102
RTVSPropertyOp8
 70
     1
102
RTVSPropertyOp9
 70
     1
102
RTVSPropertyOp10
 70
     1
102
RTVSPropertyOp11
 70
     1
102
RTVSPropertyOp12
 70
     1
102
RTVSPropertyOp13
 70
     1
102
RTVSPropertyOp14
 70
     1
102
RTVSPropertyOp15
 70
     1
102
RTVSPropertyOp16
 70
     1
102
RTVSPropertyOp17
 70
     1
102
RTVSPropertyOp18
 70
     1
102
RTVSPropertyOp19
 70
     1
102
RTVSPropertyOp20
 70
     1
102
RTVSPropertyOp21
 70
     1
102
RTVSPropertyOp22
 70
     1
102
RTVSPropertyOp23
 70
     1
102
RTVSPropertyOp24
 70
     1
102
RTVSPropertyOp25
 70
     1
102
RTVSPropertyOp26
 70
     1
102
RTVSPropertyOp27
 70
     1
102
RTVSPropertyOp28
 70
     1
102
RTVSPropertyOp29
 70
     1
102
RTVSPropertyOp30
 70
     1
102
RTVSPropertyOp31
 70
     1
102
RTVSPropertyOp32
 70
     1
102
RTVSPropertyOp33
 70
     1
102
RTVSPropertyOp34
 70
     1
102
RTVSPropertyOp35
 70
     1
102
RTVSPropertyOp36
 70
     1
102
RTVSPropertyOp37
 70
     1
102
RTVSPropertyOp38
 70
     1
102
RTVSPropertyOp39
 70
     1
102
RTVSPropertyOp40
 70
     1
102
RTVSPropertyOp41
 70
     1
102
RTVSPropertyOp42
 70
     1
102
RTVSPropertyOp43
 70
     1
102
RTVSPropertyOp44
 70
     1
102
RTVSPropertyOp45
 70
     1
102
RTVSPropertyOp46
 70
     1
102
RTVSPropertyOp47
 70
     1
102
RTVSPropertyOp48
 70
     1
102
RTVSPropertyOp49
 70
     1
102
RTVSPropertyOp50
 70
     1
102
RTVSPropertyOp51
 70
     0
102
RTVSPropertyOp52
 70
     0
102
RTVSPropertyOp53
 70
     1
102
RTVSPropertyOp54
 70
     1
102
RTVSPropertyOp55
 70
     1
102
RTVSPropertyOp56
 70
     1
102
RTVSPropertyOp57
 70
     1
102
RTVSPost2010Prop28
280
     0
102
RTVSPost2010PropOp28
 70
     1
102
RTVSPost2010Prop29
280
     1
102
RTVSPost2010PropOp29
 70
     1
102
RTVSPost2010Prop30
280
     1
102
RTVSPost2010PropOp30
 70
     1
102
RTVSPost2010Prop31
280
     0
102
RTVSPost2010PropOp31
 70
     1
102
RTVSPost2010Prop32
280
     0
102
RTVSPost2010PropOp32
 70
     1
102
RTVSPost2010Prop33
280
     0
102
RTVSPost2010PropOp33
 70
     1
102
RTVSPost2010Prop34
280
     0
102
RTVSPost2010PropOp34
 70
     1
102
RTVSPost2010Prop35
280
     0
102
RTVSPost2010PropOp35
 70
     1
102
RTVSPost2010Prop36
280
     0
102
RTVSPost2010PropOp36
 70
     1
102
RTVSPost2010Prop37
 90
       50
102
RTVSPost2010PropOp37
 70
     1
102
RTVSPost2010Prop38
140
0.0
102
RTVSPost2010PropOp38
 70
     1
102
RTVSPost2010Prop39
140
1.0
102
RTVSPost2010PropOp39
 70
     1
102
RTVSPost2010Prop40
 90
        0
102
RTVSPost2010PropOp40
 70
     1
102
RTVSPost2010Prop41ColorIndex
 90
       18
102
RTVSPost2010Prop41ColorRGB
 90
        0
102
RTVSPost2010PropOp41
 70
     1
102
RTVSPost2010Prop42
 90
       50
102
RTVSPost2010PropOp42
 70
     1
102
RTVSPost2010Prop43
 90
        3
102
RTVSPost2010PropOp43
 70
     1
102
RTVSPost2010Prop44ColorIndex
 90
        5
102
RTVSPost2010Prop44ColorRGB
 90
      255
102
RTVSPost2010PropOp44
 70
     1
102
RTVSPost2010Prop45
280
     0
102
RTVSPost2010PropOp45
 70
     1
102
RTVSPost2010Prop46
 90
       50
102
RTVSPost2010PropOp46
 70
     1
102
RTVSPost2010Prop47
 90
       50
102
RTVSPost2010PropOp47
 70
     1
102
RTVSPost2010Prop48
 90
       50
102
RTVSPost2010PropOp48
 70
     1
102
RTVSPost2010Prop49
280
     0
102
RTVSPost2010PropOp49
 70
     1
102
RTVSPost2010Prop50
 90
       50
102
RTVSPost2010PropOp50
 70
     1
102
RTVSPost2010Prop51ColorIndex
 90
      256
102
RTVSPost2010Prop51ColorRGB
 90
-16777216
102
RTVSPost2010PropOp51
 70
     0
102
RTVSPost2010Prop52
140
1.0
102
RTVSPost2010PropOp52
 70
     0
102
RTVSPost2010Prop53
 90
        2
102
RTVSPost2010PropOp53
 70
     1
102
RTVSPost2010Prop54
  1
strokes_ogs.tif
102
RTVSPost2010PropOp54
 70
     1
102
RTVSPost2010Prop55
280
     0
102
RTVSPost2010PropOp55
 70
     1
102
RTVSPost2010Prop56
140
1.0
102
RTVSPost2010PropOp56
 70
     1
102
RTVSPost2010Prop57
140
1.0
102
RTVSPost2010PropOp57
 70
     1
  0
XRECORD
  5
30F
102
{ACAD_REACTORS
330
30E
102
}
330
30E
100
AcDbXrecord
280
     1
102
RTVSPropertyOp0
 70
     1
102
RTVSPropertyOp1
 70
     1
102
RTVSPropertyOp2
 70
     1
102
RTVSPropertyOp3
 70
     1
102
RTVSPropertyOp4
 70
     1
102
RTVSPropertyOp5
 70
     1
102
RTVSPropertyOp6
 70
     1
102
RTVSPropertyOp7
 70
     1
102
RTVSPropertyOp8
 70
     1
102
RTVSPropertyOp9
 70
     1
102
RTVSPropertyOp10
 70
     1
102
RTVSPropertyOp11
 70
     1
102
RTVSPropertyOp12
 70
     1
102
RTVSPropertyOp13
 70
     1
102
RTVSPropertyOp14
 70
     1
102
RTVSPropertyOp15
 70
     1
102
RTVSPropertyOp16
 70
     1
102
RTVSPropertyOp17
 70
     1
102
RTVSPropertyOp18
 70
     1
102
RTVSPropertyOp19
 70
     1
102
RTVSPropertyOp20
 70
     1
102
RTVSPropertyOp21
 70
     1
102
RTVSPropertyOp22
 70
     1
102
RTVSPropertyOp23
 70
     1
102
RTVSPropertyOp24
 70
     1
102
RTVSPropertyOp25
 70
     1
102
RTVSPropertyOp26
 70
     1
102
RTVSPropertyOp27
 70
     1
102
RTVSPropertyOp28
 70
     1
102
RTVSPropertyOp29
 70
     1
102
RTVSPropertyOp30
 70
     1
102
RTVSPropertyOp31
 70
     1
102
RTVSPropertyOp32
 70
     1
102
RTVSPropertyOp33
 70
     1
102
RTVSPropertyOp34
 70
     1
102
RTVSPropertyOp35
 70
     1
102
RTVSPropertyOp36
 70
     1
102
RTVSPropertyOp37
 70
     1
102
RTVSPropertyOp38
 70
     1
102
RTVSPropertyOp39
 70
     1
102
RTVSPropertyOp40
 70
     1
102
RTVSPropertyOp41
 70
     1
102
RTVSPropertyOp42
 70
     1
102
RTVSPropertyOp43
 70
     1
102
RTVSPropertyOp44
 70
     1
102
RTVSPropertyOp45
 70
     1
102
RTVSPropertyOp46
 70
     1
102
RTVSPropertyOp47
 70
     1
102
RTVSPropertyOp48
 70
     1
102
RTVSPropertyOp49
 70
     1
102
RTVSPropertyOp50
 70
     1
102
RTVSPropertyOp51
 70
     0
102
RTVSPropertyOp52
 70
     0
102
RTVSPropertyOp53
 70
     1
102
RTVSPropertyOp54
 70
     1
102
RTVSPropertyOp55
 70
     1
102
RTVSPropertyOp56
 70
     1
102
RTVSPropertyOp57
 70
     1
102
RTVSPost2010Prop28
280
     0
102
RTVSPost2010PropOp28
 70
     1
102
RTVSPost2010Prop29
280
     1
102
RTVSPost2010PropOp29
 70
     1
102
RTVSPost2010Prop30
280
     1
102
RTVSPost2010PropOp30
 70
     1
102
RTVSPost2010Prop31
280
     0
102
RTVSPost2010PropOp31
 70
     1
102
RTVSPost2010Prop32
280
     0
102
RTVSPost2010PropOp32
 70
     1
102
RTVSPost2010Prop33
280
     0
102
RTVSPost2010PropOp33
 70
     1
102
RTVSPost2010Prop34
280
     0
102
RTVSPost2010PropOp34
 70
     1
102
RTVSPost2010Prop35
280
     0
102
RTVSPost2010PropOp35
 70
     1
102
RTVSPost2010Prop36
280
     0
102
RTVSPost2010PropOp36
 70
     1
102
RTVSPost2010Prop37
 90
       50
102
RTVSPost2010PropOp37
 70
     1
102
RTVSPost2010Prop38
140
0.0
102
RTVSPost2010PropOp38
 70
     1
102
RTVSPost2010Prop39
140
1.0
102
RTVSPost2010PropOp39
 70
     1
102
RTVSPost2010Prop40
 90
        0
102
RTVSPost2010PropOp40
 70
     1
102
RTVSPost2010Prop41ColorIndex
 90
       18
102
RTVSPost2010Prop41ColorRGB
 90
        0
102
RTVSPost2010PropOp41
 70
     1
102
RTVSPost2010Prop42
 90
       50
102
RTVSPost2010PropOp42
 70
     1
102
RTVSPost2010Prop43
 90
        3
102
RTVSPost2010PropOp43
 70
     1
102
RTVSPost2010Prop44ColorIndex
 90
        5
102
RTVSPost2010Prop44ColorRGB
 90
      255
102
RTVSPost2010PropOp44
 70
     1
102
RTVSPost2010Prop45
280
     0
102
RTVSPost2010PropOp45
 70
     1
102
RTVSPost2010Prop46
 90
       50
102
RTVSPost2010PropOp46
 70
     1
102
RTVSPost2010Prop47
 90
       50
102
RTVSPost2010PropOp47
 70
     1
102
RTVSPost2010Prop48
 90
       50
102
RTVSPost2010PropOp48
 70
     1
102
RTVSPost2010Prop49
280
     0
102
RTVSPost2010PropOp49
 70
     1
102
RTVSPost2010Prop50
 90
       50
102
RTVSPost2010PropOp50
 70
     1
102
RTVSPost2010Prop51ColorIndex
 90
      256
102
RTVSPost2010Prop51ColorRGB
 90
-16777216
102
RTVSPost2010PropOp51
 70
     0
102
RTVSPost2010Prop52
140
1.0
102
RTVSPost2010PropOp52
 70
     0
102
RTVSPost2010Prop53
 90
        2
102
RTVSPost2010PropOp53
 70
     1
102
RTVSPost2010Prop54
  1
strokes_ogs.tif
102
RTVSPost2010PropOp54
 70
     1
102
RTVSPost2010Prop55
280
     0
102
RTVSPost2010PropOp55
 70
     1
102
RTVSPost2010Prop56
140
1.0
102
RTVSPost2010PropOp56
 70
     1
102
RTVSPost2010Prop57
140
1.0
102
RTVSPost2010PropOp57
 70
     1
  0
XRECORD
  5
30D
102
{ACAD_REACTORS
330
30C
102
}
330
30C
100
AcDbXrecord
280
     1
102
RTVSPropertyOp0
 70
     1
102
RTVSPropertyOp1
 70
     1
102
RTVSPropertyOp2
 70
     1
102
RTVSPropertyOp3
 70
     1
102
RTVSPropertyOp4
 70
     1
102
RTVSPropertyOp5
 70
     1
102
RTVSPropertyOp6
 70
     1
102
RTVSPropertyOp7
 70
     1
102
RTVSPropertyOp8
 70
     1
102
RTVSPropertyOp9
 70
     1
102
RTVSPropertyOp10
 70
     1
102
RTVSPropertyOp11
 70
     1
102
RTVSPropertyOp12
 70
     1
102
RTVSPropertyOp13
 70
     1
102
RTVSPropertyOp14
 70
     1
102
RTVSPropertyOp15
 70
     1
102
RTVSPropertyOp16
 70
     1
102
RTVSPropertyOp17
 70
     1
102
RTVSPropertyOp18
 70
     1
102
RTVSPropertyOp19
 70
     1
102
RTVSPropertyOp20
 70
     1
102
RTVSPropertyOp21
 70
     1
102
RTVSPropertyOp22
 70
     1
102
RTVSPropertyOp23
 70
     1
102
RTVSPropertyOp24
 70
     1
102
RTVSPropertyOp25
 70
     1
102
RTVSPropertyOp26
 70
     1
102
RTVSPropertyOp27
 70
     1
102
RTVSPropertyOp28
 70
     1
102
RTVSPropertyOp29
 70
     1
102
RTVSPropertyOp30
 70
     1
102
RTVSPropertyOp31
 70
     1
102
RTVSPropertyOp32
 70
     1
102
RTVSPropertyOp33
 70
     1
102
RTVSPropertyOp34
 70
     1
102
RTVSPropertyOp35
 70
     1
102
RTVSPropertyOp36
 70
     1
102
RTVSPropertyOp37
 70
     1
102
RTVSPropertyOp38
 70
     1
102
RTVSPropertyOp39
 70
     1
102
RTVSPropertyOp40
 70
     1
102
RTVSPropertyOp41
 70
     1
102
RTVSPropertyOp42
 70
     1
102
RTVSPropertyOp43
 70
     1
102
RTVSPropertyOp44
 70
     1
102
RTVSPropertyOp45
 70
     1
102
RTVSPropertyOp46
 70
     1
102
RTVSPropertyOp47
 70
     1
102
RTVSPropertyOp48
 70
     1
102
RTVSPropertyOp49
 70
     1
102
RTVSPropertyOp50
 70
     1
102
RTVSPropertyOp51
 70
     0
102
RTVSPropertyOp52
 70
     0
102
RTVSPropertyOp53
 70
     1
102
RTVSPropertyOp54
 70
     1
102
RTVSPropertyOp55
 70
     1
102
RTVSPropertyOp56
 70
     1
102
RTVSPropertyOp57
 70
     1
102
RTVSPost2010Prop28
280
     0
102
RTVSPost2010PropOp28
 70
     1
102
RTVSPost2010Prop29
280
     1
102
RTVSPost2010PropOp29
 70
     1
102
RTVSPost2010Prop30
280
     1
102
RTVSPost2010PropOp30
 70
     1
102
RTVSPost2010Prop31
280
     0
102
RTVSPost2010PropOp31
 70
     1
102
RTVSPost2010Prop32
280
     0
102
RTVSPost2010PropOp32
 70
     1
102
RTVSPost2010Prop33
280
     0
102
RTVSPost2010PropOp33
 70
     1
102
RTVSPost2010Prop34
280
     0
102
RTVSPost2010PropOp34
 70
     1
102
RTVSPost2010Prop35
280
     0
102
RTVSPost2010PropOp35
 70
     1
102
RTVSPost2010Prop36
280
     0
102
RTVSPost2010PropOp36
 70
     1
102
RTVSPost2010Prop37
 90
       50
102
RTVSPost2010PropOp37
 70
     1
102
RTVSPost2010Prop38
140
0.0
102
RTVSPost2010PropOp38
 70
     1
102
RTVSPost2010Prop39
140
1.0
102
RTVSPost2010PropOp39
 70
     1
102
RTVSPost2010Prop40
 90
        0
102
RTVSPost2010PropOp40
 70
     1
102
RTVSPost2010Prop41ColorIndex
 90
       18
102
RTVSPost2010Prop41ColorRGB
 90
        0
102
RTVSPost2010PropOp41
 70
     1
102
RTVSPost2010Prop42
 90
       50
102
RTVSPost2010PropOp42
 70
     1
102
RTVSPost2010Prop43
 90
        3
102
RTVSPost2010PropOp43
 70
     1
102
RTVSPost2010Prop44ColorIndex
 90
        5
102
RTVSPost2010Prop44ColorRGB
 90
      255
102
RTVSPost2010PropOp44
 70
     1
102
RTVSPost2010Prop45
280
     0
102
RTVSPost2010PropOp45
 70
     1
102
RTVSPost2010Prop46
 90
       50
102
RTVSPost2010PropOp46
 70
     1
102
RTVSPost2010Prop47
 90
       50
102
RTVSPost2010PropOp47
 70
     1
102
RTVSPost2010Prop48
 90
       50
102
RTVSPost2010PropOp48
 70
     1
102
RTVSPost2010Prop49
280
     0
102
RTVSPost2010PropOp49
 70
     1
102
RTVSPost2010Prop50
 90
       50
102
RTVSPost2010PropOp50
 70
     1
102
RTVSPost2010Prop51ColorIndex
 90
      256
102
RTVSPost2010Prop51ColorRGB
 90
-16777216
102
RTVSPost2010PropOp51
 70
     0
102
RTVSPost2010Prop52
140
1.0
102
RTVSPost2010PropOp52
 70
     0
102
RTVSPost2010Prop53
 90
        2
102
RTVSPost2010PropOp53
 70
     1
102
RTVSPost2010Prop54
  1
strokes_ogs.tif
102
RTVSPost2010PropOp54
 70
     1
102
RTVSPost2010Prop55
280
     0
102
RTVSPost2010PropOp55
 70
     1
102
RTVSPost2010Prop56
140
1.0
102
RTVSPost2010PropOp56
 70
     1
102
RTVSPost2010Prop57
140
1.0
102
RTVSPost2010PropOp57
 70
     1
  0
XRECORD
  5
307
102
{ACAD_REACTORS
330
306
102
}
330
306
100
AcDbXrecord
280
     1
102
RTVSPropertyOp0
 70
     1
102
RTVSPropertyOp1
 70
     1
102
RTVSPropertyOp2
 70
     1
102
RTVSPropertyOp3
 70
     1
102
RTVSPropertyOp4
 70
     1
102
RTVSPropertyOp5
 70
     1
102
RTVSPropertyOp6
 70
     1
102
RTVSPropertyOp7
 70
     1
102
RTVSPropertyOp8
 70
     1
102
RTVSPropertyOp9
 70
     1
102
RTVSPropertyOp10
 70
     1
102
RTVSPropertyOp11
 70
     1
102
RTVSPropertyOp12
 70
     1
102
RTVSPropertyOp13
 70
     1
102
RTVSPropertyOp14
 70
     1
102
RTVSPropertyOp15
 70
     1
102
RTVSPropertyOp16
 70
     1
102
RTVSPropertyOp17
 70
     1
102
RTVSPropertyOp18
 70
     1
102
RTVSPropertyOp19
 70
     1
102
RTVSPropertyOp20
 70
     1
102
RTVSPropertyOp21
 70
     1
102
RTVSPropertyOp22
 70
     1
102
RTVSPropertyOp23
 70
     1
102
RTVSPropertyOp24
 70
     1
102
RTVSPropertyOp25
 70
     1
102
RTVSPropertyOp26
 70
     1
102
RTVSPropertyOp27
 70
     1
102
RTVSPropertyOp28
 70
     1
102
RTVSPropertyOp29
 70
     1
102
RTVSPropertyOp30
 70
     1
102
RTVSPropertyOp31
 70
     1
102
RTVSPropertyOp32
 70
     1
102
RTVSPropertyOp33
 70
     1
102
RTVSPropertyOp34
 70
     1
102
RTVSPropertyOp35
 70
     1
102
RTVSPropertyOp36
 70
     1
102
RTVSPropertyOp37
 70
     1
102
RTVSPropertyOp38
 70
     1
102
RTVSPropertyOp39
 70
     1
102
RTVSPropertyOp40
 70
     1
102
RTVSPropertyOp41
 70
     1
102
RTVSPropertyOp42
 70
     1
102
RTVSPropertyOp43
 70
     1
102
RTVSPropertyOp44
 70
     1
102
RTVSPropertyOp45
 70
     1
102
RTVSPropertyOp46
 70
     1
102
RTVSPropertyOp47
 70
     1
102
RTVSPropertyOp48
 70
     1
102
RTVSPropertyOp49
 70
     1
102
RTVSPropertyOp50
 70
     1
102
RTVSPropertyOp51
 70
     0
102
RTVSPropertyOp52
 70
     0
102
RTVSPropertyOp53
 70
     1
102
RTVSPropertyOp54
 70
     1
102
RTVSPropertyOp55
 70
     1
102
RTVSPropertyOp56
 70
     1
102
RTVSPropertyOp57
 70
     1
102
RTVSPost2010Prop28
280
     0
102
RTVSPost2010PropOp28
 70
     1
102
RTVSPost2010Prop29
280
     1
102
RTVSPost2010PropOp29
 70
     1
102
RTVSPost2010Prop30
280
     1
102
RTVSPost2010PropOp30
 70
     1
102
RTVSPost2010Prop31
280
     0
102
RTVSPost2010PropOp31
 70
     1
102
RTVSPost2010Prop32
280
     0
102
RTVSPost2010PropOp32
 70
     1
102
RTVSPost2010Prop33
280
     0
102
RTVSPost2010PropOp33
 70
     1
102
RTVSPost2010Prop34
280
     0
102
RTVSPost2010PropOp34
 70
     1
102
RTVSPost2010Prop35
280
     0
102
RTVSPost2010PropOp35
 70
     1
102
RTVSPost2010Prop36
280
     0
102
RTVSPost2010PropOp36
 70
     1
102
RTVSPost2010Prop37
 90
       50
102
RTVSPost2010PropOp37
 70
     1
102
RTVSPost2010Prop38
140
0.0
102
RTVSPost2010PropOp38
 70
     1
102
RTVSPost2010Prop39
140
1.0
102
RTVSPost2010PropOp39
 70
     1
102
RTVSPost2010Prop40
 90
        0
102
RTVSPost2010PropOp40
 70
     1
102
RTVSPost2010Prop41ColorIndex
 90
       18
102
RTVSPost2010Prop41ColorRGB
 90
        0
102
RTVSPost2010PropOp41
 70
     1
102
RTVSPost2010Prop42
 90
       50
102
RTVSPost2010PropOp42
 70
     1
102
RTVSPost2010Prop43
 90
        3
102
RTVSPost2010PropOp43
 70
     1
102
RTVSPost2010Prop44ColorIndex
 90
        5
102
RTVSPost2010Prop44ColorRGB
 90
      255
102
RTVSPost2010PropOp44
 70
     1
102
RTVSPost2010Prop45
280
     0
102
RTVSPost2010PropOp45
 70
     1
102
RTVSPost2010Prop46
 90
       50
102
RTVSPost2010PropOp46
 70
     1
102
RTVSPost2010Prop47
 90
       50
102
RTVSPost2010PropOp47
 70
     1
102
RTVSPost2010Prop48
 90
       50
102
RTVSPost2010PropOp48
 70
     1
102
RTVSPost2010Prop49
280
     0
102
RTVSPost2010PropOp49
 70
     1
102
RTVSPost2010Prop50
 90
       50
102
RTVSPost2010PropOp50
 70
     1
102
RTVSPost2010Prop51ColorIndex
 90
      256
102
RTVSPost2010Prop51ColorRGB
 90
-16777216
102
RTVSPost2010PropOp51
 70
     0
102
RTVSPost2010Prop52
140
1.0
102
RTVSPost2010PropOp52
 70
     0
102
RTVSPost2010Prop53
 90
        2
102
RTVSPost2010PropOp53
 70
     1
102
RTVSPost2010Prop54
  1
strokes_ogs.tif
102
RTVSPost2010PropOp54
 70
     1
102
RTVSPost2010Prop55
280
     0
102
RTVSPost2010PropOp55
 70
     1
102
RTVSPost2010Prop56
140
1.0
102
RTVSPost2010PropOp56
 70
     1
102
RTVSPost2010Prop57
140
1.0
102
RTVSPost2010PropOp57
 70
     1
  0
XRECORD
  5
309
102
{ACAD_REACTORS
330
308
102
}
330
308
100
AcDbXrecord
280
     1
102
RTVSPropertyOp0
 70
     1
102
RTVSPropertyOp1
 70
     1
102
RTVSPropertyOp2
 70
     1
102
RTVSPropertyOp3
 70
     1
102
RTVSPropertyOp4
 70
     1
102
RTVSPropertyOp5
 70
     1
102
RTVSPropertyOp6
 70
     1
102
RTVSPropertyOp7
 70
     1
102
RTVSPropertyOp8
 70
     1
102
RTVSPropertyOp9
 70
     1
102
RTVSPropertyOp10
 70
     1
102
RTVSPropertyOp11
 70
     1
102
RTVSPropertyOp12
 70
     1
102
RTVSPropertyOp13
 70
     1
102
RTVSPropertyOp14
 70
     1
102
RTVSPropertyOp15
 70
     1
102
RTVSPropertyOp16
 70
     1
102
RTVSPropertyOp17
 70
     1
102
RTVSPropertyOp18
 70
     1
102
RTVSPropertyOp19
 70
     1
102
RTVSPropertyOp20
 70
     1
102
RTVSPropertyOp21
 70
     1
102
RTVSPropertyOp22
 70
     1
102
RTVSPropertyOp23
 70
     1
102
RTVSPropertyOp24
 70
     1
102
RTVSPropertyOp25
 70
     1
102
RTVSPropertyOp26
 70
     1
102
RTVSPropertyOp27
 70
     1
102
RTVSPropertyOp28
 70
     1
102
RTVSPropertyOp29
 70
     1
102
RTVSPropertyOp30
 70
     1
102
RTVSPropertyOp31
 70
     1
102
RTVSPropertyOp32
 70
     1
102
RTVSPropertyOp33
 70
     1
102
RTVSPropertyOp34
 70
     1
102
RTVSPropertyOp35
 70
     1
102
RTVSPropertyOp36
 70
     1
102
RTVSPropertyOp37
 70
     1
102
RTVSPropertyOp38
 70
     1
102
RTVSPropertyOp39
 70
     1
102
RTVSPropertyOp40
 70
     1
102
RTVSPropertyOp41
 70
     1
102
RTVSPropertyOp42
 70
     1
102
RTVSPropertyOp43
 70
     1
102
RTVSPropertyOp44
 70
     1
102
RTVSPropertyOp45
 70
     1
102
RTVSPropertyOp46
 70
     1
102
RTVSPropertyOp47
 70
     1
102
RTVSPropertyOp48
 70
     1
102
RTVSPropertyOp49
 70
     1
102
RTVSPropertyOp50
 70
     1
102
RTVSPropertyOp51
 70
     0
102
RTVSPropertyOp52
 70
     0
102
RTVSPropertyOp53
 70
     1
102
RTVSPropertyOp54
 70
     1
102
RTVSPropertyOp55
 70
     1
102
RTVSPropertyOp56
 70
     1
102
RTVSPropertyOp57
 70
     1
102
RTVSPost2010Prop28
280
     0
102
RTVSPost2010PropOp28
 70
     1
102
RTVSPost2010Prop29
280
     1
102
RTVSPost2010PropOp29
 70
     1
102
RTVSPost2010Prop30
280
     1
102
RTVSPost2010PropOp30
 70
     1
102
RTVSPost2010Prop31
280
     0
102
RTVSPost2010PropOp31
 70
     1
102
RTVSPost2010Prop32
280
     0
102
RTVSPost2010PropOp32
 70
     1
102
RTVSPost2010Prop33
280
     0
102
RTVSPost2010PropOp33
 70
     1
102
RTVSPost2010Prop34
280
     0
102
RTVSPost2010PropOp34
 70
     1
102
RTVSPost2010Prop35
280
     0
102
RTVSPost2010PropOp35
 70
     1
102
RTVSPost2010Prop36
280
     0
102
RTVSPost2010PropOp36
 70
     1
102
RTVSPost2010Prop37
 90
       50
102
RTVSPost2010PropOp37
 70
     1
102
RTVSPost2010Prop38
140
0.0
102
RTVSPost2010PropOp38
 70
     1
102
RTVSPost2010Prop39
140
1.0
102
RTVSPost2010PropOp39
 70
     1
102
RTVSPost2010Prop40
 90
        0
102
RTVSPost2010PropOp40
 70
     1
102
RTVSPost2010Prop41ColorIndex
 90
       18
102
RTVSPost2010Prop41ColorRGB
 90
        0
102
RTVSPost2010PropOp41
 70
     1
102
RTVSPost2010Prop42
 90
       50
102
RTVSPost2010PropOp42
 70
     1
102
RTVSPost2010Prop43
 90
        3
102
RTVSPost2010PropOp43
 70
     1
102
RTVSPost2010Prop44ColorIndex
 90
        5
102
RTVSPost2010Prop44ColorRGB
 90
      255
102
RTVSPost2010PropOp44
 70
     1
102
RTVSPost2010Prop45
280
     0
102
RTVSPost2010PropOp45
 70
     1
102
RTVSPost2010Prop46
 90
       50
102
RTVSPost2010PropOp46
 70
     1
102
RTVSPost2010Prop47
 90
       50
102
RTVSPost2010PropOp47
 70
     1
102
RTVSPost2010Prop48
 90
       50
102
RTVSPost2010PropOp48
 70
     1
102
RTVSPost2010Prop49
280
     0
102
RTVSPost2010PropOp49
 70
     1
102
RTVSPost2010Prop50
 90
       50
102
RTVSPost2010PropOp50
 70
     1
102
RTVSPost2010Prop51ColorIndex
 90
      256
102
RTVSPost2010Prop51ColorRGB
 90
-16777216
102
RTVSPost2010PropOp51
 70
     0
102
RTVSPost2010Prop52
140
1.0
102
RTVSPost2010PropOp52
 70
     0
102
RTVSPost2010Prop53
 90
        2
102
RTVSPost2010PropOp53
 70
     1
102
RTVSPost2010Prop54
  1
strokes_ogs.tif
102
RTVSPost2010PropOp54
 70
     1
102
RTVSPost2010Prop55
280
     0
102
RTVSPost2010PropOp55
 70
     1
102
RTVSPost2010Prop56
140
1.0
102
RTVSPost2010PropOp56
 70
     1
102
RTVSPost2010Prop57
140
1.0
102
RTVSPost2010PropOp57
 70
     1
  0
XRECORD
  5
2F9
102
{ACAD_REACTORS
330
2F8
102
}
330
2F8
100
AcDbXrecord
280
     1
102
RTVSPropertyOp0
 70
     1
102
RTVSPropertyOp1
 70
     1
102
RTVSPropertyOp2
 70
     1
102
RTVSPropertyOp3
 70
     1
102
RTVSPropertyOp4
 70
     1
102
RTVSPropertyOp5
 70
     1
102
RTVSPropertyOp6
 70
     1
102
RTVSPropertyOp7
 70
     1
102
RTVSPropertyOp8
 70
     1
102
RTVSPropertyOp9
 70
     1
102
RTVSPropertyOp10
 70
     1
102
RTVSPropertyOp11
 70
     1
102
RTVSPropertyOp12
 70
     1
102
RTVSPropertyOp13
 70
     1
102
RTVSPropertyOp14
 70
     1
102
RTVSPropertyOp15
 70
     1
102
RTVSPropertyOp16
 70
     1
102
RTVSPropertyOp17
 70
     1
102
RTVSPropertyOp18
 70
     1
102
RTVSPropertyOp19
 70
     1
102
RTVSPropertyOp20
 70
     1
102
RTVSPropertyOp21
 70
     1
102
RTVSPropertyOp22
 70
     1
102
RTVSPropertyOp23
 70
     1
102
RTVSPropertyOp24
 70
     1
102
RTVSPropertyOp25
 70
     1
102
RTVSPropertyOp26
 70
     1
102
RTVSPropertyOp27
 70
     1
102
RTVSPropertyOp28
 70
     1
102
RTVSPropertyOp29
 70
     1
102
RTVSPropertyOp30
 70
     1
102
RTVSPropertyOp31
 70
     1
102
RTVSPropertyOp32
 70
     1
102
RTVSPropertyOp33
 70
     1
102
RTVSPropertyOp34
 70
     1
102
RTVSPropertyOp35
 70
     1
102
RTVSPropertyOp36
 70
     1
102
RTVSPropertyOp37
 70
     1
102
RTVSPropertyOp38
 70
     1
102
RTVSPropertyOp39
 70
     1
102
RTVSPropertyOp40
 70
     1
102
RTVSPropertyOp41
 70
     1
102
RTVSPropertyOp42
 70
     1
102
RTVSPropertyOp43
 70
     1
102
RTVSPropertyOp44
 70
     1
102
RTVSPropertyOp45
 70
     1
102
RTVSPropertyOp46
 70
     1
102
RTVSPropertyOp47
 70
     1
102
RTVSPropertyOp48
 70
     1
102
RTVSPropertyOp49
 70
     1
102
RTVSPropertyOp50
 70
     1
102
RTVSPropertyOp51
 70
     0
102
RTVSPropertyOp52
 70
     0
102
RTVSPropertyOp53
 70
     1
102
RTVSPropertyOp54
 70
     1
102
RTVSPropertyOp55
 70
     1
102
RTVSPropertyOp56
 70
     1
102
RTVSPropertyOp57
 70
     1
102
RTVSPost2010Prop28
280
     0
102
RTVSPost2010PropOp28
 70
     1
102
RTVSPost2010Prop29
280
     1
102
RTVSPost2010PropOp29
 70
     1
102
RTVSPost2010Prop30
280
     1
102
RTVSPost2010PropOp30
 70
     1
102
RTVSPost2010Prop31
280
     0
102
RTVSPost2010PropOp31
 70
     1
102
RTVSPost2010Prop32
280
     0
102
RTVSPost2010PropOp32
 70
     1
102
RTVSPost2010Prop33
280
     0
102
RTVSPost2010PropOp33
 70
     1
102
RTVSPost2010Prop34
280
     0
102
RTVSPost2010PropOp34
 70
     1
102
RTVSPost2010Prop35
280
     0
102
RTVSPost2010PropOp35
 70
     1
102
RTVSPost2010Prop36
280
     0
102
RTVSPost2010PropOp36
 70
     1
102
RTVSPost2010Prop37
 90
       50
102
RTVSPost2010PropOp37
 70
     1
102
RTVSPost2010Prop38
140
0.0
102
RTVSPost2010PropOp38
 70
     1
102
RTVSPost2010Prop39
140
1.0
102
RTVSPost2010PropOp39
 70
     1
102
RTVSPost2010Prop40
 90
        0
102
RTVSPost2010PropOp40
 70
     1
102
RTVSPost2010Prop41ColorIndex
 90
       18
102
RTVSPost2010Prop41ColorRGB
 90
        0
102
RTVSPost2010PropOp41
 70
     1
102
RTVSPost2010Prop42
 90
       50
102
RTVSPost2010PropOp42
 70
     1
102
RTVSPost2010Prop43
 90
        3
102
RTVSPost2010PropOp43
 70
     1
102
RTVSPost2010Prop44ColorIndex
 90
        5
102
RTVSPost2010Prop44ColorRGB
 90
      255
102
RTVSPost2010PropOp44
 70
     1
102
RTVSPost2010Prop45
280
     0
102
RTVSPost2010PropOp45
 70
     1
102
RTVSPost2010Prop46
 90
       50
102
RTVSPost2010PropOp46
 70
     1
102
RTVSPost2010Prop47
 90
       50
102
RTVSPost2010PropOp47
 70
     1
102
RTVSPost2010Prop48
 90
       50
102
RTVSPost2010PropOp48
 70
     1
102
RTVSPost2010Prop49
280
     0
102
RTVSPost2010PropOp49
 70
     1
102
RTVSPost2010Prop50
 90
       50
102
RTVSPost2010PropOp50
 70
     1
102
RTVSPost2010Prop51ColorIndex
 90
      256
102
RTVSPost2010Prop51ColorRGB
 90
-16777216
102
RTVSPost2010PropOp51
 70
     0
102
RTVSPost2010Prop52
140
1.0
102
RTVSPost2010PropOp52
 70
     0
102
RTVSPost2010Prop53
 90
        2
102
RTVSPost2010PropOp53
 70
     1
102
RTVSPost2010Prop54
  1
strokes_ogs.tif
102
RTVSPost2010PropOp54
 70
     1
102
RTVSPost2010Prop55
280
     0
102
RTVSPost2010PropOp55
 70
     1
102
RTVSPost2010Prop56
140
1.0
102
RTVSPost2010PropOp56
 70
     1
102
RTVSPost2010Prop57
140
1.0
102
RTVSPost2010PropOp57
 70
     1
  0
XRECORD
  5
2EB
102
{ACAD_REACTORS
330
2EA
102
}
330
2EA
100
AcDbXrecord
280
     1
102
RTVSPropertyOp0
 70
     1
102
RTVSPropertyOp1
 70
     1
102
RTVSPropertyOp2
 70
     1
102
RTVSPropertyOp3
 70
     1
102
RTVSPropertyOp4
 70
     1
102
RTVSPropertyOp5
 70
     1
102
RTVSPropertyOp6
 70
     1
102
RTVSPropertyOp7
 70
     1
102
RTVSPropertyOp8
 70
     1
102
RTVSPropertyOp9
 70
     1
102
RTVSPropertyOp10
 70
     1
102
RTVSPropertyOp11
 70
     1
102
RTVSPropertyOp12
 70
     1
102
RTVSPropertyOp13
 70
     1
102
RTVSPropertyOp14
 70
     1
102
RTVSPropertyOp15
 70
     1
102
RTVSPropertyOp16
 70
     1
102
RTVSPropertyOp17
 70
     1
102
RTVSPropertyOp18
 70
     1
102
RTVSPropertyOp19
 70
     1
102
RTVSPropertyOp20
 70
     1
102
RTVSPropertyOp21
 70
     1
102
RTVSPropertyOp22
 70
     1
102
RTVSPropertyOp23
 70
     1
102
RTVSPropertyOp24
 70
     1
102
RTVSPropertyOp25
 70
     1
102
RTVSPropertyOp26
 70
     1
102
RTVSPropertyOp27
 70
     1
102
RTVSPropertyOp28
 70
     1
102
RTVSPropertyOp29
 70
     1
102
RTVSPropertyOp30
 70
     1
102
RTVSPropertyOp31
 70
     1
102
RTVSPropertyOp32
 70
     1
102
RTVSPropertyOp33
 70
     1
102
RTVSPropertyOp34
 70
     1
102
RTVSPropertyOp35
 70
     1
102
RTVSPropertyOp36
 70
     1
102
RTVSPropertyOp37
 70
     1
102
RTVSPropertyOp38
 70
     1
102
RTVSPropertyOp39
 70
     1
102
RTVSPropertyOp40
 70
     1
102
RTVSPropertyOp41
 70
     1
102
RTVSPropertyOp42
 70
     1
102
RTVSPropertyOp43
 70
     1
102
RTVSPropertyOp44
 70
     1
102
RTVSPropertyOp45
 70
     1
102
RTVSPropertyOp46
 70
     1
102
RTVSPropertyOp47
 70
     1
102
RTVSPropertyOp48
 70
     1
102
RTVSPropertyOp49
 70
     1
102
RTVSPropertyOp50
 70
     1
102
RTVSPropertyOp51
 70
     0
102
RTVSPropertyOp52
 70
     0
102
RTVSPropertyOp53
 70
     1
102
RTVSPropertyOp54
 70
     1
102
RTVSPropertyOp55
 70
     1
102
RTVSPropertyOp56
 70
     1
102
RTVSPropertyOp57
 70
     1
102
RTVSPost2010Prop28
280
     0
102
RTVSPost2010PropOp28
 70
     1
102
RTVSPost2010Prop29
280
     1
102
RTVSPost2010PropOp29
 70
     1
102
RTVSPost2010Prop30
280
     1
102
RTVSPost2010PropOp30
 70
     1
102
RTVSPost2010Prop31
280
     0
102
RTVSPost2010PropOp31
 70
     1
102
RTVSPost2010Prop32
280
     0
102
RTVSPost2010PropOp32
 70
     1
102
RTVSPost2010Prop33
280
     0
102
RTVSPost2010PropOp33
 70
     1
102
RTVSPost2010Prop34
280
     0
102
RTVSPost2010PropOp34
 70
     1
102
RTVSPost2010Prop35
280
     0
102
RTVSPost2010PropOp35
 70
     1
102
RTVSPost2010Prop36
280
     0
102
RTVSPost2010PropOp36
 70
     1
102
RTVSPost2010Prop37
 90
       50
102
RTVSPost2010PropOp37
 70
     1
102
RTVSPost2010Prop38
140
0.0
102
RTVSPost2010PropOp38
 70
     1
102
RTVSPost2010Prop39
140
1.0
102
RTVSPost2010PropOp39
 70
     1
102
RTVSPost2010Prop40
 90
        0
102
RTVSPost2010PropOp40
 70
     1
102
RTVSPost2010Prop41ColorIndex
 90
       18
102
RTVSPost2010Prop41ColorRGB
 90
        0
102
RTVSPost2010PropOp41
 70
     1
102
RTVSPost2010Prop42
 90
       50
102
RTVSPost2010PropOp42
 70
     1
102
RTVSPost2010Prop43
 90
        3
102
RTVSPost2010PropOp43
 70
     1
102
RTVSPost2010Prop44ColorIndex
 90
        5
102
RTVSPost2010Prop44ColorRGB
 90
      255
102
RTVSPost2010PropOp44
 70
     1
102
RTVSPost2010Prop45
280
     0
102
RTVSPost2010PropOp45
 70
     1
102
RTVSPost2010Prop46
 90
       50
102
RTVSPost2010PropOp46
 70
     1
102
RTVSPost2010Prop47
 90
       50
102
RTVSPost2010PropOp47
 70
     1
102
RTVSPost2010Prop48
 90
       50
102
RTVSPost2010PropOp48
 70
     1
102
RTVSPost2010Prop49
280
     0
102
RTVSPost2010PropOp49
 70
     1
102
RTVSPost2010Prop50
 90
       50
102
RTVSPost2010PropOp50
 70
     1
102
RTVSPost2010Prop51ColorIndex
 90
      256
102
RTVSPost2010Prop51ColorRGB
 90
-16777216
102
RTVSPost2010PropOp51
 70
     0
102
RTVSPost2010Prop52
140
1.0
102
RTVSPost2010PropOp52
 70
     0
102
RTVSPost2010Prop53
 90
        2
102
RTVSPost2010PropOp53
 70
     1
102
RTVSPost2010Prop54
  1
strokes_ogs.tif
102
RTVSPost2010PropOp54
 70
     1
102
RTVSPost2010Prop55
280
     0
102
RTVSPost2010PropOp55
 70
     1
102
RTVSPost2010Prop56
140
1.0
102
RTVSPost2010PropOp56
 70
     1
102
RTVSPost2010Prop57
140
1.0
102
RTVSPost2010PropOp57
 70
     1
  0
XRECORD
  5
30B
102
{ACAD_REACTORS
330
30A
102
}
330
30A
100
AcDbXrecord
280
     1
102
RTVSPropertyOp0
 70
     1
102
RTVSPropertyOp1
 70
     1
102
RTVSPropertyOp2
 70
     1
102
RTVSPropertyOp3
 70
     1
102
RTVSPropertyOp4
 70
     1
102
RTVSPropertyOp5
 70
     1
102
RTVSPropertyOp6
 70
     1
102
RTVSPropertyOp7
 70
     1
102
RTVSPropertyOp8
 70
     1
102
RTVSPropertyOp9
 70
     1
102
RTVSPropertyOp10
 70
     1
102
RTVSPropertyOp11
 70
     1
102
RTVSPropertyOp12
 70
     1
102
RTVSPropertyOp13
 70
     1
102
RTVSPropertyOp14
 70
     1
102
RTVSPropertyOp15
 70
     1
102
RTVSPropertyOp16
 70
     1
102
RTVSPropertyOp17
 70
     1
102
RTVSPropertyOp18
 70
     1
102
RTVSPropertyOp19
 70
     1
102
RTVSPropertyOp20
 70
     1
102
RTVSPropertyOp21
 70
     1
102
RTVSPropertyOp22
 70
     1
102
RTVSPropertyOp23
 70
     1
102
RTVSPropertyOp24
 70
     1
102
RTVSPropertyOp25
 70
     1
102
RTVSPropertyOp26
 70
     1
102
RTVSPropertyOp27
 70
     1
102
RTVSPropertyOp28
 70
     1
102
RTVSPropertyOp29
 70
     1
102
RTVSPropertyOp30
 70
     1
102
RTVSPropertyOp31
 70
     1
102
RTVSPropertyOp32
 70
     1
102
RTVSPropertyOp33
 70
     1
102
RTVSPropertyOp34
 70
     1
102
RTVSPropertyOp35
 70
     1
102
RTVSPropertyOp36
 70
     1
102
RTVSPropertyOp37
 70
     1
102
RTVSPropertyOp38
 70
     1
102
RTVSPropertyOp39
 70
     1
102
RTVSPropertyOp40
 70
     1
102
RTVSPropertyOp41
 70
     1
102
RTVSPropertyOp42
 70
     1
102
RTVSPropertyOp43
 70
     1
102
RTVSPropertyOp44
 70
     1
102
RTVSPropertyOp45
 70
     1
102
RTVSPropertyOp46
 70
     1
102
RTVSPropertyOp47
 70
     1
102
RTVSPropertyOp48
 70
     1
102
RTVSPropertyOp49
 70
     1
102
RTVSPropertyOp50
 70
     1
102
RTVSPropertyOp51
 70
     0
102
RTVSPropertyOp52
 70
     0
102
RTVSPropertyOp53
 70
     1
102
RTVSPropertyOp54
 70
     1
102
RTVSPropertyOp55
 70
     1
102
RTVSPropertyOp56
 70
     1
102
RTVSPropertyOp57
 70
     1
102
RTVSPost2010Prop28
280
     0
102
RTVSPost2010PropOp28
 70
     1
102
RTVSPost2010Prop29
280
     1
102
RTVSPost2010PropOp29
 70
     1
102
RTVSPost2010Prop30
280
     1
102
RTVSPost2010PropOp30
 70
     1
102
RTVSPost2010Prop31
280
     0
102
RTVSPost2010PropOp31
 70
     1
102
RTVSPost2010Prop32
280
     0
102
RTVSPost2010PropOp32
 70
     1
102
RTVSPost2010Prop33
280
     0
102
RTVSPost2010PropOp33
 70
     1
102
RTVSPost2010Prop34
280
     0
102
RTVSPost2010PropOp34
 70
     1
102
RTVSPost2010Prop35
280
     0
102
RTVSPost2010PropOp35
 70
     1
102
RTVSPost2010Prop36
280
     0
102
RTVSPost2010PropOp36
 70
     1
102
RTVSPost2010Prop37
 90
       50
102
RTVSPost2010PropOp37
 70
     1
102
RTVSPost2010Prop38
140
0.0
102
RTVSPost2010PropOp38
 70
     1
102
RTVSPost2010Prop39
140
1.0
102
RTVSPost2010PropOp39
 70
     1
102
RTVSPost2010Prop40
 90
        0
102
RTVSPost2010PropOp40
 70
     1
102
RTVSPost2010Prop41ColorIndex
 90
       18
102
RTVSPost2010Prop41ColorRGB
 90
        0
102
RTVSPost2010PropOp41
 70
     1
102
RTVSPost2010Prop42
 90
       50
102
RTVSPost2010PropOp42
 70
     1
102
RTVSPost2010Prop43
 90
        3
102
RTVSPost2010PropOp43
 70
     1
102
RTVSPost2010Prop44ColorIndex
 90
        5
102
RTVSPost2010Prop44ColorRGB
 90
      255
102
RTVSPost2010PropOp44
 70
     1
102
RTVSPost2010Prop45
280
     0
102
RTVSPost2010PropOp45
 70
     1
102
RTVSPost2010Prop46
 90
       50
102
RTVSPost2010PropOp46
 70
     1
102
RTVSPost2010Prop47
 90
       50
102
RTVSPost2010PropOp47
 70
     1
102
RTVSPost2010Prop48
 90
       50
102
RTVSPost2010PropOp48
 70
     1
102
RTVSPost2010Prop49
280
     0
102
RTVSPost2010PropOp49
 70
     1
102
RTVSPost2010Prop50
 90
       50
102
RTVSPost2010PropOp50
 70
     1
102
RTVSPost2010Prop51ColorIndex
 90
      256
102
RTVSPost2010Prop51ColorRGB
 90
-16777216
102
RTVSPost2010PropOp51
 70
     0
102
RTVSPost2010Prop52
140
1.0
102
RTVSPost2010PropOp52
 70
     0
102
RTVSPost2010Prop53
 90
        2
102
RTVSPost2010PropOp53
 70
     1
102
RTVSPost2010Prop54
  1
strokes_ogs.tif
102
RTVSPost2010PropOp54
 70
     1
102
RTVSPost2010Prop55
280
     0
102
RTVSPost2010PropOp55
 70
     1
102
RTVSPost2010Prop56
140
1.0
102
RTVSPost2010PropOp56
 70
     1
102
RTVSPost2010Prop57
140
1.0
102
RTVSPost2010PropOp57
 70
     1
  0
ENDSEC
  0
EOF
