  0
SECTION
  2
HEADER
  9
$ACADVER
  1
AC1006
  9
$INSBASE
 10
0.000000
 20
0.000000
 30
0.0
  9
$EXTMIN
 10
0.000000
 20
0.000000
  9
$EXTMAX
 10
210.000000
 20
297.000000
  9
$LIMMIN
 10
0.000000
 20
0.000000
  9
$LIMMAX
 10
210.000000
 20
297.000000
  9
$VIEWCTR
 10
105.000000
 20
148.500000
  9
$VIEWSIZE
 40
297.000000
  9
$SNAPMODE
 70
     0
  9
$SNAPUNIT
 10
1.0
 20
1.0
  9
$SNAPBASE
 10
0.0
 20
0.0
  9
$SNAPANG
 50
0.0
  9
$SNAPSTYLE
 70
     0
  9
$SNAPISOPAIR
 70
     0
  9
$GRIDMODE
 70
     0
  9
$GRIDUNIT
 10
0.0
 20
0.0
  9
$ORTHOMODE
 70
     0
  9
$REGENMODE
 70
     1
  9
$FILLMODE
 70
     1
  9
$QTEXTMODE
 70
     0
  9
$DRAGMODE
 70
     2
  9
$LTSCALE
 40
15.000000
  9
$OSMODE
 70
     0
  9
$ATTMODE
 70
     1
  9
$TEXTSIZE
 40
0.2
  9
$TRACEWID
 40
0.05
  9
$TEXTSTYLE
  7
STANDARD
  9
$CLAYER
  8
CSLAYER1
  9
$CELTYPE
  6
BYLAYER
  9
$CECOLOR
 62
   256
  9
$DIMSCALE
 40
1.0
  9
$DIMASZ
 40
0.18
  9
$DIMEXO
 40
0.0625
  9
$DIMDLI
 40
0.38
  9
$DIMRND
 40
0.0
  9
$DIMDLE
 40
0.0
  9
$DIMEXE
 40
0.18
  9
$DIMTP
 40
0.0
  9
$DIMTM
 40
0.0
  9
$DIMTXT
 40
0.18
  9
$DIMCEN
 40
0.09
  9
$DIMTSZ
 40
0.0
  9
$DIMTOL
 70
     0
  9
$DIMLIM
 70
     0
  9
$DIMTIH
 70
     1
  9
$DIMTOH
 70
     1
  9
$DIMSE1
 70
     0
  9
$DIMSE2
 70
     0
  9
$DIMTAD
 70
     0
  9
$DIMZIN
 70
     0
  9
$DIMBLK
  1

  9
$LUNITS
 70
     2
  9
$LUPREC
 70
     4
  9
$AXISMODE
 70
     0
  9
$AXISUNIT
 10
0.0
 20
0.0
  9
$SKETCHINC
 40
0.1
  9
$FILLETRAD
 40
0.0
  9
$AUNITS
 70
     0
  9
$AUPREC
 70
     0
  9
$MENU
  1
ACAD
  9
$ELEVATION
 40
0.0
  9
$THICKNESS
 40
0.0
  9
$VIEWDIR
 10
0.0
 20
0.0
 30
1.0
  9
$LIMCHECK
 70
     0
  9
$BLIPMODE
 70
     1
  9
$CHAMFERA
 40
0.0
  9
$CHAMFERB
 40
0.0
  9
$FASTZOOM
 70
     1
  9
$SKPOLY
 70
     0
  9
$TDCREATE
 40
0.000000
  9
$TDUPDATE
 40
0.000000
  9
$TDINDWG
 40
0.0
  9
$TDUSRTIMER
 40
0.0
  9
$USRTIMER
 70
     1
  9
$ANGBASE
 50
0.0
  9
$ANGDIR
 70
     0
  9
$PDMODE
 70
     0
  9
$PDSIZE
 40
0.0
  9
$PLINEWID
 40
0.0
  9
$COORDS
 70
     0
  9
$USERI1
 70
     0
  9
$USERI2
 70
     0
  9
$USERI3
 70
     0
  9
$USERI4
 70
     0
  9
$USERI5
 70
     0
  9
$USERR1
 40
0.0
  9
$USERR2
 40
0.0
  9
$USERR3
 40
0.0
  9
$USERR4
 40
0.0
  9
$USERR5
 40
0.0
  0
ENDSEC
  0
SECTION
  2
TABLES
  0
TABLE
  2
LTYPE
 70
     9
  0
LTYPE
  2
CONTINUOUS
 70
    64
  3
Solid line
 72
    65
 73
     0
 40
0.0
  0
LTYPE
  2
DASHED
 70
    64
  3
__ __ __ __ __ __ __ __ __ __ __ __ __ __ __
 72
    65
 73
     2
 40
0.75
 49
0.5
 49
-0.25
  0
LTYPE
  2
HIDDEN
 70
    64
  3
_ _ _ _ _ _ _ _ _ _ _ _ _ _ _ _ _ _ _ _ _ _ _
 72
    65
 73
     2
 40
0.375
 49
0.25
 49
-0.125
  0
LTYPE
  2
DOT
 70
    64
  3
...............................................
 72
    65
 73
     2
 40
0.25
 49
0.0
 49
-0.25
  0
LTYPE
  2
DASHDOT
 70
    64
  3
__ . __ . __ . __ . __ . __ . __ . __ . __ . __
 72
    65
 73
     4
 40
1.0
 49
0.5
 49
-0.25
 49
0.0
 49
-0.25
  0
LTYPE
  2
DIVIDE
 70
    64
  3
__ . . __ . . __ . . __ . . __ . . __ . . __
 72
    65
 73
     6
 40
1.25
 49
0.5
 49
-0.25
 49
0.0
 49
-0.25
 49
0.0
 49
-0.25
  0
LTYPE
  2
CENTER
 70
    64
  3
____ _ ____ _ ____ _ ____ _ ____ _ ____ _ ____ 
 72
    65
 73
     4
 40
2.0
 49
1.25
 49
-0.25
 49
0.25
 49
-0.25
  0
LTYPE
  2
PHANTOM
 70
    64
  3
______  __  __  ______  __  __  ______  __  __ 
 72
    65
 73
     6
 40
2.5
 49
1.25
 49
-0.25
 49
0.25
 49
-0.25
 49
0.25
 49
-0.25
  0
LTYPE
  2
BORDER
 70
    64
  3
__ __ . __ __ . __ __ . __ __ . __ __ . __ __ .
 72
    65
 73
     6
 40
1.75
 49
0.5
 49
-0.25
 49
0.5
 49
-0.25
 49
0.0
 49
-0.25
  0
ENDTAB
  0
TABLE
  2
LAYER
 70
    16
  0
LAYER
  2
CSLAYER1
 70
    64
 62
     7
  6
CONTINUOUS
  0
LAYER
  2
CSLAYER2
 70
    64
 62
     7
  6
CONTINUOUS
  0
LAYER
  2
CSLAYER3
 70
    64
 62
     7
  6
CONTINUOUS
  0
LAYER
  2
CSLAYER4
 70
    64
 62
     7
  6
CONTINUOUS
  0
LAYER
  2
CSLAYER5
 70
    64
 62
     7
  6
CONTINUOUS
  0
LAYER
  2
CSLAYER6
 70
    64
 62
     7
  6
CONTINUOUS
  0
LAYER
  2
CSLAYER7
 70
    64
 62
     7
  6
CONTINUOUS
  0
LAYER
  2
CSLAYER8
 70
    64
 62
     7
  6
CONTINUOUS
  0
LAYER
  2
CSLAYER9
 70
    64
 62
     7
  6
CONTINUOUS
  0
LAYER
  2
CSLAYER10
 70
    64
 62
     7
  6
CONTINUOUS
  0
LAYER
  2
CSLAYER11
 70
    64
 62
     7
  6
CONTINUOUS
  0
LAYER
  2
CSLAYER12
 70
    64
 62
     7
  6
CONTINUOUS
  0
LAYER
  2
CSLAYER13
 70
    64
 62
     7
  6
CONTINUOUS
  0
LAYER
  2
CSLAYER14
 70
    64
 62
     7
  6
CONTINUOUS
  0
LAYER
  2
CSLAYER15
 70
    64
 62
     7
  6
CONTINUOUS
  0
LAYER
  2
CSLAYER16
 70
    64
 62
     7
  6
CONTINUOUS
  0
ENDTAB
  0
TABLE
  2
STYLE
 70
     1
  0
STYLE
  2
JX_FONT
 70
     0
 40
1.0
 41
1.0
 50
0.0
 71
     0
 42
1.0
  3
monotxt
  4
bigfont
  0
ENDTAB
  0
TABLE
  2
VIEW
 70
     0
  0
ENDTAB
  0
ENDSEC
  0
SECTION
  2
BLOCKS
  0
ENDSEC
  0
SECTION
  2
ENTITIES
  0
LINE
  8
CSLAYER1
  6
CENTER
 62
     3
 10
72.615576
 20
92.387435
 11
160.515576
 21
92.387435
  0
LINE
  8
CSLAYER1
  6
CONTINUOUS
 62
     3
 10
145.065576
 20
96.387435
 11
145.065576
 21
105.887435
  0
ARC
  8
CSLAYER1
  6
CONTINUOUS
 62
     3
 10
144.065576
 20
96.387435
 40
1.000000
 50
270.000000
 51
360.000000
  0
LINE
  8
CSLAYER1
  6
CONTINUOUS
 62
     3
 10
144.065576
 20
95.387435
 11
132.065576
 21
95.387435
  0
ARC
  8
CSLAYER1
  6
CONTINUOUS
 62
     3
 10
132.065576
 20
96.387435
 40
1.000000
 50
180.000000
 51
270.000000
  0
LINE
  8
CSLAYER1
  6
CONTINUOUS
 62
     3
 10
131.065576
 20
96.387435
 11
131.065576
 21
105.887435
  0
LINE
  8
CSLAYER1
  6
CONTINUOUS
 62
     3
 10
117.915576
 20
104.887435
 11
117.915576
 21
86.387435
  0
ARC
  8
CSLAYER1
  6
CONTINUOUS
 62
     3
 10
116.915576
 20
86.387435
 40
1.000000
 50
270.000000
 51
360.000000
  0
LINE
  8
CSLAYER1
  6
CONTINUOUS
 62
     3
 10
116.915576
 20
85.387435
 11
86.915576
 21
85.387435
  0
ARC
  8
CSLAYER1
  6
CONTINUOUS
 62
     3
 10
86.915576
 20
86.387435
 40
1.000000
 50
180.000000
 51
270.000000
  0
LINE
  8
CSLAYER1
  6
CONTINUOUS
 62
     3
 10
85.915576
 20
86.387435
 11
85.915576
 21
104.887435
  0
LINE
  8
CSLAYER1
  6
CONTINUOUS
 62
     3
 10
85.915576
 20
139.887435
 11
85.915576
 21
164.887435
  0
LINE
  8
CSLAYER1
  6
CENTER
 62
     3
 10
72.615576
 20
152.387435
 11
160.515576
 21
152.387435
  0
LINE
  8
CSLAYER1
  6
CONTINUOUS
 62
     3
 10
145.065576
 20
163.358364
 11
145.065576
 21
141.416505
  0
ARC
  8
CSLAYER1
  6
CONTINUOUS
 62
     3
 10
144.065576
 20
141.416505
 40
1.000000
 50
270.000000
 51
360.000000
  0
LINE
  8
CSLAYER1
  6
CONTINUOUS
 62
     3
 10
144.065576
 20
140.416505
 11
132.065576
 21
140.416505
  0
ARC
  8
CSLAYER1
  6
CONTINUOUS
 62
     3
 10
132.065576
 20
141.416505
 40
1.000000
 50
180.000000
 51
270.000000
  0
LINE
  8
CSLAYER1
  6
CONTINUOUS
 62
     3
 10
131.065576
 20
141.416505
 11
131.065576
 21
163.358364
  0
ARC
  8
CSLAYER1
  6
CONTINUOUS
 62
     3
 10
132.065576
 20
163.358364
 40
1.000000
 50
90.000000
 51
180.000000
  0
LINE
  8
CSLAYER1
  6
CONTINUOUS
 62
     3
 10
132.065576
 20
164.358364
 11
144.065576
 21
164.358364
  0
ARC
  8
CSLAYER1
  6
CONTINUOUS
 62
     3
 10
144.065576
 20
163.358364
 40
1.000000
 50
0.000000
 51
90.000000
  0
LINE
  8
CSLAYER1
  6
CONTINUOUS
 62
     3
 10
117.915576
 20
164.887435
 11
117.915576
 21
139.887435
  0
LINE
  8
CSLAYER1
  6
CENTER
 62
     3
 10
166.015576
 20
152.387435
 11
197.015576
 21
152.387435
  0
CIRCLE
  8
CSLAYER1
  6
CONTINUOUS
 62
     3
 10
188.798776
 20
159.670634
 40
1.000000
  0
LINE
  8
CSLAYER1
  6
CENTER
 62
     3
 10
190.920096
 20
161.791955
 11
181.515576
 21
152.387435
  0
CIRCLE
  8
CSLAYER1
  6
CENTER
 62
     3
 10
181.515576
 20
152.387435
 40
10.300000
  0
LINE
  8
CSLAYER1
  6
CENTER
 62
     3
 10
181.515576
 20
152.387435
 11
190.920096
 21
142.982914
  0
CIRCLE
  8
CSLAYER1
  6
CONTINUOUS
 62
     3
 10
188.798776
 20
145.104235
 40
1.000000
  0
LINE
  8
CSLAYER1
  6
CENTER
 62
     3
 10
181.515576
 20
136.887435
 11
181.515576
 21
167.887435
  0
CIRCLE
  8
CSLAYER1
  6
CONTINUOUS
 62
     3
 10
174.232376
 20
159.670634
 40
1.000000
  0
LINE
  8
CSLAYER1
  6
CENTER
 62
     3
 10
172.111056
 20
161.791955
 11
176.353696
 21
157.549314
  0
LINE
  8
CSLAYER1
  6
CENTER
 62
     3
 10
176.353696
 20
147.225555
 11
172.111056
 21
142.982914
  0
CIRCLE
  8
CSLAYER1
  6
CONTINUOUS
 62
     3
 10
174.232376
 20
145.104235
 40
1.000000
  0
LINE
  8
CSLAYER1
  6
CONTINUOUS
 62
     3
 10
145.065576
 20
193.887435
 11
145.065576
 21
203.387435
  0
ARC
  8
CSLAYER1
  6
CONTINUOUS
 62
     3
 10
144.065576
 20
203.387435
 40
1.000000
 50
0.000000
 51
90.000000
  0
LINE
  8
CSLAYER1
  6
CONTINUOUS
 62
     3
 10
144.065576
 20
204.387435
 11
132.065576
 21
204.387435
  0
ARC
  8
CSLAYER1
  6
CONTINUOUS
 62
     3
 10
132.065576
 20
203.387435
 40
1.000000
 50
90.000000
 51
180.000000
  0
LINE
  8
CSLAYER1
  6
CONTINUOUS
 62
     3
 10
131.065576
 20
203.387435
 11
131.065576
 21
193.887435
  0
LINE
  8
CSLAYER1
  6
CONTINUOUS
 62
     3
 10
117.915576
 20
194.887435
 11
117.915576
 21
213.387435
  0
ARC
  8
CSLAYER1
  6
CONTINUOUS
 62
     3
 10
116.915576
 20
213.387435
 40
1.000000
 50
0.000000
 51
90.000000
  0
LINE
  8
CSLAYER1
  6
CONTINUOUS
 62
     3
 10
116.915576
 20
214.387435
 11
86.915576
 21
214.387435
  0
ARC
  8
CSLAYER1
  6
CONTINUOUS
 62
     3
 10
86.915576
 20
213.387435
 40
1.000000
 50
90.000000
 51
180.000000
  0
LINE
  8
CSLAYER1
  6
CONTINUOUS
 62
     3
 10
85.915576
 20
213.387435
 11
85.915576
 21
194.887435
  0
LINE
  8
CSLAYER1
  6
CENTER
 62
     3
 10
72.615576
 20
207.387435
 11
160.515576
 21
207.387435
  0
LINE
  8
CSLAYER1
  6
CENTER
 62
     3
 10
56.541291
 20
152.387435
 11
25.541291
 21
152.387435
  0
ARC
  8
CSLAYER1
  6
CONTINUOUS
 62
     3
 10
25.315168
 20
155.868352
 40
0.500001
 50
-27.543991
 51
32.456004
  0
ARC
  8
CSLAYER1
  6
CONTINUOUS
 62
     3
 10
26.180401
 20
155.905463
 40
0.500001
 50
152.456004
 51
212.455992
  0
ARC
  8
CSLAYER1
  6
CONTINUOUS
 62
     3
 10
25.293746
 20
156.367894
 40
0.500001
 50
-27.543991
 51
32.456004
  0
ARC
  8
CSLAYER1
  6
CONTINUOUS
 62
     3
 10
25.211981
 20
156.370432
 40
0.500001
 50
144.000362
 51
204.000350
  0
ARC
  8
CSLAYER1
  6
CONTINUOUS
 62
     3
 10
24.350695
 20
156.460952
 40
0.500001
 50
-35.999650
 51
24.000345
  0
ARC
  8
CSLAYER1
  6
CONTINUOUS
 62
     3
 10
24.298438
 20
155.963689
 40
0.500001
 50
-35.999650
 51
24.000345
  0
LINE
  8
CSLAYER1
  6
CONTINUOUS
 62
     3
 10
19.679471
 20
156.947098
 11
18.374226
 21
157.744326
  0
LINE
  8
CSLAYER1
  6
CONTINUOUS
 62
     3
 10
18.097280
 20
157.350478
 11
19.605885
 21
156.696209
  0
LINE
  8
CSLAYER1
  6
CONTINUOUS
 62
     3
 10
19.550258
 20
156.506549
 11
18.108557
 21
156.816169
  0
LINE
  8
CSLAYER1
  6
CENTER
 62
     3
 10
31.541291
 20
156.887435
 11
31.541291
 21
147.887435
  0
LINE
  8
CSLAYER1
  6
CENTER
 62
     3
 10
32.791291
 20
146.637435
 11
39.291291
 21
146.637435
  0
LINE
  8
CSLAYER1
  6
CENTER
 62
     3
 10
42.791291
 20
146.637435
 11
49.291291
 21
146.637435
  0
LINE
  8
CSLAYER1
  6
CENTER
 62
     3
 10
50.541291
 20
147.887435
 11
50.541291
 21
156.887435
  0
LINE
  8
CSLAYER1
  6
CENTER
 62
     3
 10
49.291291
 20
158.137435
 11
42.791291
 21
158.137435
  0
LINE
  8
CSLAYER1
  6
CENTER
 62
     3
 10
39.291291
 20
158.137435
 11
32.791291
 21
158.137435
  0
LINE
  8
CSLAYER1
  6
CENTER
 62
     3
 10
36.041291
 20
161.187435
 11
36.041291
 21
155.087435
  0
LINE
  8
CSLAYER1
  6
CENTER
 62
     3
 10
36.041291
 20
149.687435
 11
36.041291
 21
143.587435
  0
ARC
  8
CSLAYER1
  6
CONTINUOUS
 62
     3
 10
34.555436
 20
141.150039
 40
0.500001
 50
184.544008
 51
244.543996
  0
ARC
  8
CSLAYER1
  6
CONTINUOUS
 62
     3
 10
33.842096
 20
140.658967
 40
0.500001
 50
4.543996
 51
64.543991
  0
ARC
  8
CSLAYER1
  6
CONTINUOUS
 62
     3
 10
34.125619
 20
140.247123
 40
0.500001
 50
4.543996
 51
64.543991
  0
ARC
  8
CSLAYER1
  6
CONTINUOUS
 62
     3
 10
34.061846
 20
140.195888
 40
0.500001
 50
192.999650
 51
252.999638
  0
ARC
  8
CSLAYER1
  6
CONTINUOUS
 62
     3
 10
33.428469
 20
139.605262
 40
0.500001
 50
12.999655
 51
72.999650
  0
ARC
  8
CSLAYER1
  6
CONTINUOUS
 62
     3
 10
33.087475
 20
139.970944
 40
0.500001
 50
12.999655
 51
72.999650
  0
LINE
  8
CSLAYER1
  6
CONTINUOUS
 62
     3
 10
30.811336
 20
137.273093
 11
30.000259
 21
135.842669
  0
LINE
  8
CSLAYER1
  6
CONTINUOUS
 62
     3
 10
30.458462
 20
135.694798
 11
31.021093
 21
137.117009
  0
LINE
  8
CSLAYER1
  6
CONTINUOUS
 62
     3
 10
30.652769
 20
137.391085
 11
29.687710
 21
136.276174
  0
LINE
  8
CSLAYER1
  6
CENTER
 62
     3
 10
41.041291
 20
136.887435
 11
41.041291
 21
167.887435
  0
LINE
  8
CSLAYER1
  6
CONTINUOUS
 62
     3
 10
38.791291
 20
162.387435
 11
38.791291
 21
160.387435
  0
LINE
  8
CSLAYER1
  6
CONTINUOUS
 62
     3
 10
38.791291
 20
160.387435
 11
38.291291
 21
160.387435
  0
LINE
  8
CSLAYER1
  6
CONTINUOUS
 62
     3
 10
38.291291
 20
160.387435
 11
38.291291
 21
162.387435
  0
LINE
  8
CSLAYER1
  6
CONTINUOUS
 62
     3
 10
38.291291
 20
162.387435
 11
38.791291
 21
162.387435
  0
CIRCLE
  8
CSLAYER1
  6
CONTINUOUS
 62
     3
 10
38.541291
 20
161.387435
 40
1.500000
  0
LINE
  8
CSLAYER1
  6
CENTER
 62
     3
 10
46.041291
 20
161.187435
 11
46.041291
 21
155.087435
  0
LINE
  8
CSLAYER1
  6
CENTER
 62
     3
 10
46.041291
 20
149.687435
 11
46.041291
 21
143.587435
  0
LINE
  8
CSLAYER1
  6
CONTINUOUS
 62
     3
 10
44.541291
 20
143.637435
 11
44.541291
 21
143.137435
  0
LINE
  8
CSLAYER1
  6
CONTINUOUS
 62
     3
 10
44.541291
 20
143.137435
 11
43.791291
 21
143.137435
  0
LINE
  8
CSLAYER1
  6
CONTINUOUS
 62
     3
 10
43.791291
 20
143.137435
 11
43.791291
 21
142.387435
  0
LINE
  8
CSLAYER1
  6
CONTINUOUS
 62
     3
 10
43.791291
 20
142.387435
 11
43.291291
 21
142.387435
  0
LINE
  8
CSLAYER1
  6
CONTINUOUS
 62
     3
 10
43.291291
 20
142.387435
 11
43.291291
 21
143.137435
  0
LINE
  8
CSLAYER1
  6
CONTINUOUS
 62
     3
 10
43.291291
 20
143.137435
 11
42.541291
 21
143.137435
  0
LINE
  8
CSLAYER1
  6
CONTINUOUS
 62
     3
 10
42.541291
 20
143.137435
 11
42.541291
 21
143.637435
  0
LINE
  8
CSLAYER1
  6
CONTINUOUS
 62
     3
 10
42.541291
 20
143.637435
 11
43.291291
 21
143.637435
  0
LINE
  8
CSLAYER1
  6
CONTINUOUS
 62
     3
 10
43.291291
 20
143.637435
 11
43.291291
 21
144.387435
  0
LINE
  8
CSLAYER1
  6
CONTINUOUS
 62
     3
 10
43.291291
 20
144.387435
 11
43.791291
 21
144.387435
  0
LINE
  8
CSLAYER1
  6
CONTINUOUS
 62
     3
 10
43.791291
 20
144.387435
 11
43.791291
 21
143.637435
  0
LINE
  8
CSLAYER1
  6
CONTINUOUS
 62
     3
 10
43.791291
 20
143.637435
 11
44.541291
 21
143.637435
  0
CIRCLE
  8
CSLAYER1
  6
CONTINUOUS
 62
     3
 10
43.541291
 20
143.387435
 40
1.500000
  0
TEXT
  8
CSLAYER1
 62
     3
 10
103.713417
 20
147.137436
 40
3.500000
 41
1.125000
  1
N P
 50
90.000000
 51
10.000000
  7
JX_FONT
 72
     5
 11
103.713417
 21
157.637436
  0
POINT
  8
CSLAYER1
 62
     3
 10
38.541291
 20
161.387435
  0
POINT
  8
CSLAYER1
 62
     3
 10
43.541291
 20
143.387435
  0
TEXT
  8
CSLAYER1
 62
     3
 10
139.815552
 20
147.137436
 40
3.500000
 41
1.125000
  1
N P
 50
90.000000
 51
10.000000
  7
JX_FONT
 72
     5
 11
139.815552
 21
157.637436
  0
LINE
  8
CSLAYER1
  6
CONTINUOUS
 62
     6
 10
75.415576
 20
87.387435
 11
77.015576
 21
87.387435
  0
ARC
  8
CSLAYER1
  6
CONTINUOUS
 62
     6
 10
77.598909
 20
86.637435
 40
2.083333
 50
158.899804
 51
253.739795
  0
LINE
  8
CSLAYER1
  6
CONTINUOUS
 62
     6
 10
75.415576
 20
87.387435
 11
75.415576
 21
96.850761
  0
ARC
  8
CSLAYER1
  6
CONTINUOUS
 62
     6
 10
77.598909
 20
98.137435
 40
2.083333
 50
106.260205
 51
253.739795
  0
LINE
  8
CSLAYER1
  6
CONTINUOUS
 62
     6
 10
77.015576
 20
104.387435
 11
77.015576
 21
80.387435
  0
LINE
  8
CSLAYER1
  6
CONTINUOUS
 62
     6
 10
77.015576
 20
80.387435
 11
77.515576
 21
79.887435
  0
LINE
  8
CSLAYER1
  6
CONTINUOUS
 62
     6
 10
77.515576
 20
79.887435
 11
77.515576
 21
104.887435
  0
LINE
  8
CSLAYER1
  6
CONTINUOUS
 62
     6
 10
77.515576
 20
104.887435
 11
77.015576
 21
104.387435
  0
LINE
  8
CSLAYER1
  6
CONTINUOUS
 62
     6
 10
77.515576
 20
104.887435
 11
125.915576
 21
104.887435
  0
LINE
  8
CSLAYER1
  6
CONTINUOUS
 62
     6
 10
125.915576
 20
105.887435
 11
125.915576
 21
78.887435
  0
LINE
  8
CSLAYER1
  6
CONTINUOUS
 62
     6
 10
125.915576
 20
78.887435
 11
148.215576
 21
78.887435
  0
LINE
  8
CSLAYER1
  6
CONTINUOUS
 62
     6
 10
148.215576
 20
78.887435
 11
148.215576
 21
105.887435
  0
LINE
  8
CSLAYER1
  6
CONTINUOUS
 62
     6
 10
148.215576
 20
105.887435
 11
125.915576
 21
105.887435
  0
LINE
  8
CSLAYER1
  6
CONTINUOUS
 62
     6
 10
127.915576
 20
105.887435
 11
127.915576
 21
78.887435
  0
LINE
  8
CSLAYER1
  6
CONTINUOUS
 62
     6
 10
125.915576
 20
79.887435
 11
77.515576
 21
79.887435
  0
LINE
  8
CSLAYER1
  6
CONTINUOUS
 62
     6
 10
81.415576
 20
79.887435
 11
81.415576
 21
104.887435
  0
LINE
  8
CSLAYER1
  6
CONTINUOUS
 62
     6
 10
81.415576
 20
139.887435
 11
81.415576
 21
164.887435
  0
LINE
  8
CSLAYER1
  6
CONTINUOUS
 62
     6
 10
77.515576
 20
164.887435
 11
125.915576
 21
164.887435
  0
LINE
  8
CSLAYER1
  6
CONTINUOUS
 62
     6
 10
125.915576
 20
165.887435
 11
125.915576
 21
138.887435
  0
LINE
  8
CSLAYER1
  6
CONTINUOUS
 62
     6
 10
125.915576
 20
138.887435
 11
148.215576
 21
138.887435
  0
LINE
  8
CSLAYER1
  6
CONTINUOUS
 62
     6
 10
148.215576
 20
138.887435
 11
148.215576
 21
165.887435
  0
LINE
  8
CSLAYER1
  6
CONTINUOUS
 62
     6
 10
148.215576
 20
165.887435
 11
125.915576
 21
165.887435
  0
LINE
  8
CSLAYER1
  6
CONTINUOUS
 62
     6
 10
127.915576
 20
165.887435
 11
127.915576
 21
138.887435
  0
LINE
  8
CSLAYER1
  6
CONTINUOUS
 62
     6
 10
125.915576
 20
139.887435
 11
77.515576
 21
139.887435
  0
LINE
  8
CSLAYER1
  6
CONTINUOUS
 62
     6
 10
77.515576
 20
139.887435
 11
77.015576
 21
140.387435
  0
LINE
  8
CSLAYER1
  6
CONTINUOUS
 62
     6
 10
77.015576
 20
140.387435
 11
77.015576
 21
164.387435
  0
LINE
  8
CSLAYER1
  6
CONTINUOUS
 62
     6
 10
77.015576
 20
164.387435
 11
77.515576
 21
164.887435
  0
LINE
  8
CSLAYER1
  6
CONTINUOUS
 62
     6
 10
77.515576
 20
164.887435
 11
77.515576
 21
139.887435
  0
ARC
  8
CSLAYER1
  6
CONTINUOUS
 62
     6
 10
77.598909
 20
146.637435
 40
2.083333
 50
106.260205
 51
253.739795
  0
LINE
  8
CSLAYER1
  6
CONTINUOUS
 62
     6
 10
77.015576
 20
157.387435
 11
75.415576
 21
157.387435
  0
LINE
  8
CSLAYER1
  6
CONTINUOUS
 62
     6
 10
75.415576
 20
157.387435
 11
75.415576
 21
147.387435
  0
LINE
  8
CSLAYER1
  6
CONTINUOUS
 62
     6
 10
75.415576
 20
147.387435
 11
75.655259
 21
147.387435
  0
ARC
  8
CSLAYER1
  6
CONTINUOUS
 62
     6
 10
77.598909
 20
158.137435
 40
2.083333
 50
106.260205
 51
201.100196
  0
LINE
  8
CSLAYER1
  6
CONTINUOUS
 62
     6
 10
53.288740
 20
154.887435
 11
50.541291
 21
154.887435
  0
ARC
  8
CSLAYER1
  6
CONTINUOUS
 62
     6
 10
50.541291
 20
152.387435
 40
2.500000
 50
90.000000
 51
270.000000
  0
LINE
  8
CSLAYER1
  6
CONTINUOUS
 62
     6
 10
50.541291
 20
149.887435
 11
53.288740
 21
149.887435
  0
LINE
  8
CSLAYER1
  6
CONTINUOUS
 62
     6
 10
77.515576
 20
194.887435
 11
77.015576
 21
195.387435
  0
LINE
  8
CSLAYER1
  6
CONTINUOUS
 62
     6
 10
77.015576
 20
195.387435
 11
77.015576
 21
219.387435
  0
LINE
  8
CSLAYER1
  6
CONTINUOUS
 62
     6
 10
77.015576
 20
219.387435
 11
77.515576
 21
219.887435
  0
LINE
  8
CSLAYER1
  6
CONTINUOUS
 62
     6
 10
77.515576
 20
219.887435
 11
77.515576
 21
194.887435
  0
LINE
  8
CSLAYER1
  6
CONTINUOUS
 62
     6
 10
77.515576
 20
194.887435
 11
125.915576
 21
194.887435
  0
LINE
  8
CSLAYER1
  6
CONTINUOUS
 62
     6
 10
125.915576
 20
193.887435
 11
125.915576
 21
220.887435
  0
LINE
  8
CSLAYER1
  6
CONTINUOUS
 62
     6
 10
125.915576
 20
220.887435
 11
148.215576
 21
220.887435
  0
LINE
  8
CSLAYER1
  6
CONTINUOUS
 62
     6
 10
148.215576
 20
220.887435
 11
148.215576
 21
193.887435
  0
LINE
  8
CSLAYER1
  6
CONTINUOUS
 62
     6
 10
148.215576
 20
193.887435
 11
125.915576
 21
193.887435
  0
LINE
  8
CSLAYER1
  6
CONTINUOUS
 62
     6
 10
127.915576
 20
193.887435
 11
127.915576
 21
220.887435
  0
LINE
  8
CSLAYER1
  6
CONTINUOUS
 62
     6
 10
125.915576
 20
219.887435
 11
77.515576
 21
219.887435
  0
LINE
  8
CSLAYER1
  6
CONTINUOUS
 62
     6
 10
81.415576
 20
219.887435
 11
81.415576
 21
194.887435
  0
ARC
  8
CSLAYER1
  6
CONTINUOUS
 62
     6
 10
77.598909
 20
201.637435
 40
2.083333
 50
158.899804
 51
253.739795
  0
LINE
  8
CSLAYER1
  6
CONTINUOUS
 62
     6
 10
75.415576
 20
202.387435
 11
77.015576
 21
202.387435
  0
LINE
  8
CSLAYER1
  6
CONTINUOUS
 62
     6
 10
75.415576
 20
202.387435
 11
75.415576
 21
212.387435
  0
LINE
  8
CSLAYER1
  6
CONTINUOUS
 62
     6
 10
75.415576
 20
212.387435
 11
75.655259
 21
212.387435
  0
ARC
  8
CSLAYER1
  6
CONTINUOUS
 62
     6
 10
77.598909
 20
213.137435
 40
2.083333
 50
106.260205
 51
253.739795
  0
LINE
  8
CSLAYER1
  6
CONTINUOUS
 62
     6
 10
46.853695
 20
159.687435
 11
45.228887
 21
159.687435
  0
LINE
  8
CSLAYER1
  6
CONTINUOUS
 62
     6
 10
45.228887
 20
159.687435
 11
44.291291
 21
158.137435
  0
LINE
  8
CSLAYER1
  6
CONTINUOUS
 62
     6
 10
44.291291
 20
158.137435
 11
45.228887
 21
156.587435
  0
LINE
  8
CSLAYER1
  6
CONTINUOUS
 62
     6
 10
45.228887
 20
156.587435
 11
46.853695
 21
156.587435
  0
LINE
  8
CSLAYER1
  6
CONTINUOUS
 62
     6
 10
46.853695
 20
156.587435
 11
47.791291
 21
158.137435
  0
LINE
  8
CSLAYER1
  6
CONTINUOUS
 62
     6
 10
47.791291
 20
158.137435
 11
46.853695
 21
159.687435
  0
CIRCLE
  8
CSLAYER1
  6
CONTINUOUS
 62
     6
 10
46.041291
 20
158.137435
 40
0.900000
  0
LINE
  8
CSLAYER1
  6
CONTINUOUS
 62
     6
 10
50.223820
 20
153.452241
 11
50.223820
 21
153.022347
  0
ARC
  8
CSLAYER1
  6
CONTINUOUS
 62
     6
 10
49.906355
 20
153.022347
 40
0.317460
 50
-89.999984
 51
0.000005
  0
LINE
  8
CSLAYER1
  6
CONTINUOUS
 62
     6
 10
49.906355
 20
152.704899
 11
49.476494
 21
152.704899
  0
ARC
  8
CSLAYER1
  6
CONTINUOUS
 62
     6
 10
50.541284
 20
152.387435
 40
1.111111
 50
163.398416
 51
196.601577
  0
LINE
  8
CSLAYER1
  6
CONTINUOUS
 62
     6
 10
49.476494
 20
152.069971
 11
49.906355
 21
152.069971
  0
ARC
  8
CSLAYER1
  6
CONTINUOUS
 62
     6
 10
49.906355
 20
151.752523
 40
0.317460
 50
0.000005
 51
89.942654
  0
LINE
  8
CSLAYER1
  6
CONTINUOUS
 62
     6
 10
50.223820
 20
151.752523
 11
50.223820
 21
151.322629
  0
ARC
  8
CSLAYER1
  6
CONTINUOUS
 62
     6
 10
50.541284
 20
152.387435
 40
1.111111
 50
253.398422
 51
286.601583
  0
LINE
  8
CSLAYER1
  6
CONTINUOUS
 62
     6
 10
50.858748
 20
151.322629
 11
50.858748
 21
151.752523
  0
ARC
  8
CSLAYER1
  6
CONTINUOUS
 62
     6
 10
51.176212
 20
151.752523
 40
0.317460
 50
90.000001
 51
179.942691
  0
LINE
  8
CSLAYER1
  6
CONTINUOUS
 62
     6
 10
51.176212
 20
152.069971
 11
51.606073
 21
152.069971
  0
ARC
  8
CSLAYER1
  6
CONTINUOUS
 62
     6
 10
50.541284
 20
152.387435
 40
1.111111
 50
-16.601562
 51
16.601572
  0
LINE
  8
CSLAYER1
  6
CONTINUOUS
 62
     6
 10
51.606073
 20
152.704899
 11
51.176212
 21
152.704899
  0
ARC
  8
CSLAYER1
  6
CONTINUOUS
 62
     6
 10
51.176212
 20
153.022347
 40
0.317460
 50
180.000010
 51
270.000016
  0
LINE
  8
CSLAYER1
  6
CONTINUOUS
 62
     6
 10
50.858748
 20
153.022347
 11
50.858748
 21
153.452241
  0
ARC
  8
CSLAYER1
  6
CONTINUOUS
 62
     6
 10
50.541284
 20
152.387435
 40
1.111111
 50
73.398406
 51
106.601595
  0
CIRCLE
  8
CSLAYER1
  6
CONTINUOUS
 62
     6
 10
50.541291
 20
152.387435
 40
2.000000
  0
CIRCLE
  8
CSLAYER1
  6
CONTINUOUS
 62
     6
 10
41.041291
 20
152.387435
 40
5.000000
  0
CIRCLE
  8
CSLAYER1
  6
CONTINUOUS
 62
     6
 10
41.041291
 20
152.387435
 40
3.050000
  0
CIRCLE
  8
CSLAYER1
  6
CONTINUOUS
 62
     6
 10
36.041291
 20
158.137435
 40
2.000000
  0
ARC
  8
CSLAYER1
  6
CONTINUOUS
 62
     6
 10
25.170387
 20
185.112394
 40
28.481396
 50
271.096967
 51
288.151627
  0
ARC
  8
CSLAYER1
  6
CONTINUOUS
 62
     6
 10
24.535604
 20
174.961628
 40
18.299324
 50
254.938172
 51
270.851248
  0
LINE
  8
CSLAYER1
  6
CONTINUOUS
 62
     6
 10
19.780327
 20
157.290964
 11
19.494268
 21
156.315655
  0
ARC
  8
CSLAYER1
  6
CONTINUOUS
 62
     6
 10
24.155515
 20
172.581515
 40
16.920567
 50
254.009480
 51
271.854011
  0
ARC
  8
CSLAYER1
  6
CONTINUOUS
 62
     6
 10
25.169142
 20
184.049298
 40
28.418268
 50
271.188317
 51
288.757725
  0
LINE
  8
CSLAYER1
  6
CONTINUOUS
 62
     6
 10
31.541291
 20
154.887435
 11
28.793842
 21
154.887435
  0
ARC
  8
CSLAYER1
  6
CONTINUOUS
 62
     6
 10
41.041291
 20
152.387435
 40
12.500000
 50
163.696849
 51
239.809801
  0
ARC
  8
CSLAYER1
  6
CONTINUOUS
 62
     6
 10
61.365668
 20
101.499248
 40
48.112452
 50
111.085600
 51
124.583084
  0
ARC
  8
CSLAYER1
  6
CONTINUOUS
 62
     6
 10
62.382766
 20
100.087004
 40
48.852482
 50
111.608789
 51
124.625853
  0
ARC
  8
CSLAYER1
  6
CONTINUOUS
 62
     6
 10
40.209926
 20
131.272914
 40
10.532465
 50
126.698661
 51
147.686360
  0
LINE
  8
CSLAYER1
  6
CONTINUOUS
 62
     6
 10
31.308584
 20
136.903081
 11
30.493172
 21
137.509844
  0
ARC
  8
CSLAYER1
  6
CONTINUOUS
 62
     6
 10
38.999824
 20
132.325606
 40
9.961904
 50
125.367654
 51
148.640481
  0
ARC
  8
CSLAYER1
  6
CONTINUOUS
 62
     6
 10
41.041291
 20
152.387435
 40
12.500000
 50
-114.947234
 51
158.605871
  0
ARC
  8
CSLAYER1
  6
CONTINUOUS
 62
     6
 10
31.541291
 20
152.387435
 40
2.500000
 50
-90.000000
 51
90.000000
  0
LINE
  8
CSLAYER1
  6
CONTINUOUS
 62
     6
 10
31.541291
 20
149.887435
 11
28.793842
 21
149.887435
  0
ARC
  8
CSLAYER1
  6
CONTINUOUS
 62
     6
 10
31.541298
 20
152.387435
 40
1.111111
 50
163.398428
 51
196.601562
  0
LINE
  8
CSLAYER1
  6
CONTINUOUS
 62
     6
 10
30.476509
 20
152.704899
 11
30.906370
 21
152.704899
  0
ARC
  8
CSLAYER1
  6
CONTINUOUS
 62
     6
 10
30.906370
 20
153.022347
 40
0.317460
 50
269.999984
 51
359.999990
  0
LINE
  8
CSLAYER1
  6
CONTINUOUS
 62
     6
 10
31.223834
 20
153.022347
 11
31.223834
 21
153.452241
  0
ARC
  8
CSLAYER1
  6
CONTINUOUS
 62
     6
 10
31.541298
 20
152.387435
 40
1.111111
 50
73.398405
 51
106.601594
  0
LINE
  8
CSLAYER1
  6
CONTINUOUS
 62
     6
 10
31.858763
 20
153.452241
 11
31.858763
 21
153.022347
  0
ARC
  8
CSLAYER1
  6
CONTINUOUS
 62
     6
 10
32.176227
 20
153.022347
 40
0.317460
 50
179.999995
 51
269.999984
  0
LINE
  8
CSLAYER1
  6
CONTINUOUS
 62
     6
 10
32.176227
 20
152.704899
 11
32.606088
 21
152.704899
  0
ARC
  8
CSLAYER1
  6
CONTINUOUS
 62
     6
 10
31.541298
 20
152.387435
 40
1.111111
 50
-16.601577
 51
16.601584
  0
LINE
  8
CSLAYER1
  6
CONTINUOUS
 62
     6
 10
32.606088
 20
152.069971
 11
32.176227
 21
152.069971
  0
ARC
  8
CSLAYER1
  6
CONTINUOUS
 62
     6
 10
32.176227
 20
151.752523
 40
0.317460
 50
90.057346
 51
179.999995
  0
LINE
  8
CSLAYER1
  6
CONTINUOUS
 62
     6
 10
31.858763
 20
151.752523
 11
31.858763
 21
151.322629
  0
ARC
  8
CSLAYER1
  6
CONTINUOUS
 62
     6
 10
31.541298
 20
152.387435
 40
1.111111
 50
253.398417
 51
286.601578
  0
LINE
  8
CSLAYER1
  6
CONTINUOUS
 62
     6
 10
31.223834
 20
151.322629
 11
31.223834
 21
151.752523
  0
ARC
  8
CSLAYER1
  6
CONTINUOUS
 62
     6
 10
30.906370
 20
151.752523
 40
0.317460
 50
0.057309
 51
89.999999
  0
LINE
  8
CSLAYER1
  6
CONTINUOUS
 62
     6
 10
30.906370
 20
152.069971
 11
30.476509
 21
152.069971
  0
CIRCLE
  8
CSLAYER1
  6
CONTINUOUS
 62
     6
 10
31.541291
 20
152.387435
 40
2.000000
  0
LINE
  8
CSLAYER1
  6
CONTINUOUS
 62
     6
 10
35.228887
 20
148.187435
 11
36.853695
 21
148.187435
  0
LINE
  8
CSLAYER1
  6
CONTINUOUS
 62
     6
 10
36.853695
 20
148.187435
 11
37.791291
 21
146.637435
  0
LINE
  8
CSLAYER1
  6
CONTINUOUS
 62
     6
 10
37.791291
 20
146.637435
 11
36.853695
 21
145.087435
  0
LINE
  8
CSLAYER1
  6
CONTINUOUS
 62
     6
 10
36.853695
 20
145.087435
 11
35.228887
 21
145.087435
  0
LINE
  8
CSLAYER1
  6
CONTINUOUS
 62
     6
 10
35.228887
 20
145.087435
 11
34.291291
 21
146.637435
  0
LINE
  8
CSLAYER1
  6
CONTINUOUS
 62
     6
 10
34.291291
 20
146.637435
 11
35.228887
 21
148.187435
  0
CIRCLE
  8
CSLAYER1
  6
CONTINUOUS
 62
     6
 10
36.041291
 20
146.637435
 40
0.900000
  0
CIRCLE
  8
CSLAYER1
  6
CONTINUOUS
 62
     6
 10
46.041291
 20
146.637435
 40
2.000000
  0
LINE
  8
CSLAYER1
  6
CONTINUOUS
 62
     6
 10
148.215576
 20
144.387435
 11
149.515576
 21
144.387435
  0
LINE
  8
CSLAYER1
  6
CONTINUOUS
 62
     6
 10
149.515576
 20
144.387435
 11
149.515576
 21
160.387435
  0
LINE
  8
CSLAYER1
  6
CONTINUOUS
 62
     6
 10
149.515576
 20
160.387435
 11
148.215576
 21
160.387435
  0
LINE
  8
CSLAYER1
  6
CONTINUOUS
 62
     6
 10
149.515576
 20
153.887435
 11
157.715576
 21
153.887435
  0
LINE
  8
CSLAYER1
  6
CONTINUOUS
 62
     6
 10
157.715576
 20
153.887435
 11
157.715576
 21
150.887435
  0
LINE
  8
CSLAYER1
  6
CONTINUOUS
 62
     6
 10
157.715576
 20
150.887435
 11
149.515576
 21
150.887435
  0
LINE
  8
CSLAYER1
  6
CONTINUOUS
 62
     6
 10
149.515576
 20
199.387435
 11
148.215576
 21
199.387435
  0
LINE
  8
CSLAYER1
  6
CONTINUOUS
 62
     6
 10
149.515576
 20
199.387435
 11
149.515576
 21
215.387435
  0
LINE
  8
CSLAYER1
  6
CONTINUOUS
 62
     6
 10
149.515576
 20
215.387435
 11
148.215576
 21
215.387435
  0
LINE
  8
CSLAYER1
  6
CONTINUOUS
 62
     6
 10
149.515576
 20
208.887435
 11
157.715576
 21
208.887435
  0
LINE
  8
CSLAYER1
  6
CONTINUOUS
 62
     6
 10
157.715576
 20
208.887435
 11
157.715576
 21
205.887435
  0
LINE
  8
CSLAYER1
  6
CONTINUOUS
 62
     6
 10
157.715576
 20
205.887435
 11
149.515576
 21
205.887435
  0
CIRCLE
  8
CSLAYER1
  6
CONTINUOUS
 62
     6
 10
174.232376
 20
159.670634
 40
0.800000
  0
ARC
  8
CSLAYER1
  6
CONTINUOUS
 62
     6
 10
171.215584
 20
152.387437
 40
0.972222
 50
73.398416
 51
106.601577
  0
LINE
  8
CSLAYER1
  6
CONTINUOUS
 62
     6
 10
170.937803
 20
153.319127
 11
170.937803
 21
152.942999
  0
ARC
  8
CSLAYER1
  6
CONTINUOUS
 62
     6
 10
170.660036
 20
152.942999
 40
0.277778
 50
270.000005
 51
359.942654
  0
LINE
  8
CSLAYER1
  6
CONTINUOUS
 62
     6
 10
170.660036
 20
152.665218
 11
170.283879
 21
152.665218
  0
ARC
  8
CSLAYER1
  6
CONTINUOUS
 62
     6
 10
171.215584
 20
152.387437
 40
0.972222
 50
163.398422
 51
196.601583
  0
LINE
  8
CSLAYER1
  6
CONTINUOUS
 62
     6
 10
170.283879
 20
152.109656
 11
170.660036
 21
152.109656
  0
ARC
  8
CSLAYER1
  6
CONTINUOUS
 62
     6
 10
170.660036
 20
151.831874
 40
0.277778
 50
0.000001
 51
89.942691
  0
LINE
  8
CSLAYER1
  6
CONTINUOUS
 62
     6
 10
170.937803
 20
151.831874
 11
170.937803
 21
151.455746
  0
ARC
  8
CSLAYER1
  6
CONTINUOUS
 62
     6
 10
171.215584
 20
152.387437
 40
0.972222
 50
253.398438
 51
286.601572
  0
LINE
  8
CSLAYER1
  6
CONTINUOUS
 62
     6
 10
171.493365
 20
151.455746
 11
171.493365
 21
151.831874
  0
ARC
  8
CSLAYER1
  6
CONTINUOUS
 62
     6
 10
171.771132
 20
151.831874
 40
0.277778
 50
90.000010
 51
180.000016
  0
LINE
  8
CSLAYER1
  6
CONTINUOUS
 62
     6
 10
171.771132
 20
152.109656
 11
172.147289
 21
152.109656
  0
ARC
  8
CSLAYER1
  6
CONTINUOUS
 62
     6
 10
171.215584
 20
152.387437
 40
0.972222
 50
-16.601594
 51
16.601595
  0
LINE
  8
CSLAYER1
  6
CONTINUOUS
 62
     6
 10
172.147289
 20
152.665218
 11
171.771132
 21
152.665218
  0
ARC
  8
CSLAYER1
  6
CONTINUOUS
 62
     6
 10
171.771132
 20
152.942999
 40
0.277778
 50
180.000016
 51
270.000005
  0
LINE
  8
CSLAYER1
  6
CONTINUOUS
 62
     6
 10
171.493365
 20
152.942999
 11
171.493365
 21
153.319127
  0
CIRCLE
  8
CSLAYER1
  6
CONTINUOUS
 62
     6
 10
171.215583
 20
152.387430
 40
1.750000
  0
CIRCLE
  8
CSLAYER1
  6
CONTINUOUS
 62
     6
 10
181.515576
 20
152.387435
 40
1.500000
  0
CIRCLE
  8
CSLAYER1
  6
CONTINUOUS
 62
     6
 10
181.515576
 20
152.387435
 40
8.000000
  0
CIRCLE
  8
CSLAYER1
  6
CONTINUOUS
 62
     6
 10
181.515576
 20
152.387435
 40
3.500000
  0
CIRCLE
  8
CSLAYER1
  6
CONTINUOUS
 62
     6
 10
181.515576
 20
152.387435
 40
13.500000
  0
LINE
  8
CSLAYER1
  6
CONTINUOUS
 62
     6
 10
190.883879
 20
152.109656
 11
191.260036
 21
152.109656
  0
ARC
  8
CSLAYER1
  6
CONTINUOUS
 62
     6
 10
191.260036
 20
151.831874
 40
0.277778
 50
0.000001
 51
89.942691
  0
LINE
  8
CSLAYER1
  6
CONTINUOUS
 62
     6
 10
191.537803
 20
151.831874
 11
191.537803
 21
151.455746
  0
ARC
  8
CSLAYER1
  6
CONTINUOUS
 62
     6
 10
191.815584
 20
152.387437
 40
0.972222
 50
253.398438
 51
286.601572
  0
LINE
  8
CSLAYER1
  6
CONTINUOUS
 62
     6
 10
192.093365
 20
151.455746
 11
192.093365
 21
151.831874
  0
ARC
  8
CSLAYER1
  6
CONTINUOUS
 62
     6
 10
192.371132
 20
151.831874
 40
0.277778
 50
90.000010
 51
180.000016
  0
LINE
  8
CSLAYER1
  6
CONTINUOUS
 62
     6
 10
192.371132
 20
152.109656
 11
192.747289
 21
152.109656
  0
ARC
  8
CSLAYER1
  6
CONTINUOUS
 62
     6
 10
191.815584
 20
152.387437
 40
0.972222
 50
-16.601594
 51
16.601595
  0
LINE
  8
CSLAYER1
  6
CONTINUOUS
 62
     6
 10
192.747289
 20
152.665218
 11
192.371132
 21
152.665218
  0
ARC
  8
CSLAYER1
  6
CONTINUOUS
 62
     6
 10
192.371132
 20
152.942999
 40
0.277778
 50
180.000016
 51
270.000005
  0
LINE
  8
CSLAYER1
  6
CONTINUOUS
 62
     6
 10
192.093365
 20
152.942999
 11
192.093365
 21
153.319127
  0
ARC
  8
CSLAYER1
  6
CONTINUOUS
 62
     6
 10
191.815584
 20
152.387437
 40
0.972222
 50
73.398416
 51
106.601577
  0
LINE
  8
CSLAYER1
  6
CONTINUOUS
 62
     6
 10
191.537803
 20
153.319127
 11
191.537803
 21
152.942999
  0
ARC
  8
CSLAYER1
  6
CONTINUOUS
 62
     6
 10
191.260036
 20
152.942999
 40
0.277778
 50
270.000005
 51
359.942654
  0
LINE
  8
CSLAYER1
  6
CONTINUOUS
 62
     6
 10
191.260036
 20
152.665218
 11
190.883879
 21
152.665218
  0
ARC
  8
CSLAYER1
  6
CONTINUOUS
 62
     6
 10
191.815584
 20
152.387437
 40
0.972222
 50
163.398422
 51
196.601583
  0
CIRCLE
  8
CSLAYER1
  6
CONTINUOUS
 62
     6
 10
191.815583
 20
152.387430
 40
1.750000
  0
CIRCLE
  8
CSLAYER1
  6
CONTINUOUS
 62
     6
 10
188.798776
 20
159.670634
 40
0.800000
  0
LINE
  8
CSLAYER1
  6
CONTINUOUS
 62
     6
 10
182.447289
 20
162.409656
 11
182.071132
 21
162.409656
  0
ARC
  8
CSLAYER1
  6
CONTINUOUS
 62
     6
 10
182.071132
 20
162.131874
 40
0.277778
 50
90.000010
 51
180.000016
  0
LINE
  8
CSLAYER1
  6
CONTINUOUS
 62
     6
 10
181.793365
 20
162.131874
 11
181.793365
 21
161.755746
  0
ARC
  8
CSLAYER1
  6
CONTINUOUS
 62
     6
 10
181.515584
 20
162.687437
 40
0.972222
 50
253.398438
 51
286.601572
  0
LINE
  8
CSLAYER1
  6
CONTINUOUS
 62
     6
 10
181.237803
 20
161.755746
 11
181.237803
 21
162.131874
  0
ARC
  8
CSLAYER1
  6
CONTINUOUS
 62
     6
 10
180.960036
 20
162.131874
 40
0.277778
 50
0.000001
 51
89.942691
  0
LINE
  8
CSLAYER1
  6
CONTINUOUS
 62
     6
 10
180.960036
 20
162.409656
 11
180.583879
 21
162.409656
  0
ARC
  8
CSLAYER1
  6
CONTINUOUS
 62
     6
 10
181.515584
 20
162.687437
 40
0.972222
 50
163.398422
 51
196.601583
  0
LINE
  8
CSLAYER1
  6
CONTINUOUS
 62
     6
 10
180.583879
 20
162.965218
 11
180.960036
 21
162.965218
  0
ARC
  8
CSLAYER1
  6
CONTINUOUS
 62
     6
 10
180.960036
 20
163.242999
 40
0.277778
 50
270.000005
 51
359.942654
  0
LINE
  8
CSLAYER1
  6
CONTINUOUS
 62
     6
 10
181.237803
 20
163.242999
 11
181.237803
 21
163.619127
  0
ARC
  8
CSLAYER1
  6
CONTINUOUS
 62
     6
 10
181.515584
 20
162.687437
 40
0.972222
 50
73.398416
 51
106.601577
  0
LINE
  8
CSLAYER1
  6
CONTINUOUS
 62
     6
 10
181.793365
 20
163.619127
 11
181.793365
 21
163.242999
  0
ARC
  8
CSLAYER1
  6
CONTINUOUS
 62
     6
 10
182.071132
 20
163.242999
 40
0.277778
 50
180.000016
 51
270.000005
  0
LINE
  8
CSLAYER1
  6
CONTINUOUS
 62
     6
 10
182.071132
 20
162.965218
 11
182.447289
 21
162.965218
  0
ARC
  8
CSLAYER1
  6
CONTINUOUS
 62
     6
 10
181.515584
 20
162.687437
 40
0.972222
 50
-16.601594
 51
16.601595
  0
CIRCLE
  8
CSLAYER1
  6
CONTINUOUS
 62
     6
 10
181.515583
 20
162.687430
 40
1.750000
  0
CIRCLE
  8
CSLAYER1
  6
CONTINUOUS
 62
     6
 10
188.798776
 20
145.104235
 40
0.800000
  0
LINE
  8
CSLAYER1
  6
CONTINUOUS
 62
     6
 10
182.447289
 20
142.365218
 11
182.071132
 21
142.365218
  0
ARC
  8
CSLAYER1
  6
CONTINUOUS
 62
     6
 10
182.071132
 20
142.642999
 40
0.277778
 50
180.000016
 51
270.000005
  0
LINE
  8
CSLAYER1
  6
CONTINUOUS
 62
     6
 10
181.793365
 20
142.642999
 11
181.793365
 21
143.019127
  0
ARC
  8
CSLAYER1
  6
CONTINUOUS
 62
     6
 10
181.515584
 20
142.087437
 40
0.972222
 50
73.398416
 51
106.601577
  0
LINE
  8
CSLAYER1
  6
CONTINUOUS
 62
     6
 10
181.237803
 20
143.019127
 11
181.237803
 21
142.642999
  0
ARC
  8
CSLAYER1
  6
CONTINUOUS
 62
     6
 10
180.960036
 20
142.642999
 40
0.277778
 50
270.000005
 51
359.942654
  0
LINE
  8
CSLAYER1
  6
CONTINUOUS
 62
     6
 10
180.960036
 20
142.365218
 11
180.583879
 21
142.365218
  0
ARC
  8
CSLAYER1
  6
CONTINUOUS
 62
     6
 10
181.515584
 20
142.087437
 40
0.972222
 50
163.398422
 51
196.601583
  0
LINE
  8
CSLAYER1
  6
CONTINUOUS
 62
     6
 10
180.583879
 20
141.809656
 11
180.960036
 21
141.809656
  0
ARC
  8
CSLAYER1
  6
CONTINUOUS
 62
     6
 10
180.960036
 20
141.531874
 40
0.277778
 50
0.000001
 51
89.942691
  0
LINE
  8
CSLAYER1
  6
CONTINUOUS
 62
     6
 10
181.237803
 20
141.531874
 11
181.237803
 21
141.155746
  0
ARC
  8
CSLAYER1
  6
CONTINUOUS
 62
     6
 10
181.515584
 20
142.087437
 40
0.972222
 50
253.398438
 51
286.601572
  0
LINE
  8
CSLAYER1
  6
CONTINUOUS
 62
     6
 10
181.793365
 20
141.155746
 11
181.793365
 21
141.531874
  0
ARC
  8
CSLAYER1
  6
CONTINUOUS
 62
     6
 10
182.071132
 20
141.531874
 40
0.277778
 50
90.000010
 51
180.000016
  0
LINE
  8
CSLAYER1
  6
CONTINUOUS
 62
     6
 10
182.071132
 20
141.809656
 11
182.447289
 21
141.809656
  0
ARC
  8
CSLAYER1
  6
CONTINUOUS
 62
     6
 10
181.515584
 20
142.087437
 40
0.972222
 50
-16.601594
 51
16.601595
  0
CIRCLE
  8
CSLAYER1
  6
CONTINUOUS
 62
     6
 10
181.515583
 20
142.087430
 40
1.750000
  0
CIRCLE
  8
CSLAYER1
  6
CONTINUOUS
 62
     6
 10
174.232376
 20
145.104235
 40
0.800000
  0
LINE
  8
CSLAYER1
  6
CONTINUOUS
 62
     6
 10
149.515576
 20
100.387435
 11
148.215576
 21
100.387435
  0
LINE
  8
CSLAYER1
  6
CONTINUOUS
 62
     6
 10
149.515576
 20
100.387435
 11
149.515576
 21
84.387435
  0
LINE
  8
CSLAYER1
  6
CONTINUOUS
 62
     6
 10
149.515576
 20
84.387435
 11
148.215576
 21
84.387435
  0
LINE
  8
CSLAYER1
  6
CONTINUOUS
 62
     6
 10
149.515576
 20
90.887435
 11
157.715576
 21
90.887435
  0
LINE
  8
CSLAYER1
  6
CONTINUOUS
 62
     6
 10
157.715576
 20
90.887435
 11
157.715576
 21
93.887435
  0
LINE
  8
CSLAYER1
  6
CONTINUOUS
 62
     6
 10
157.715576
 20
93.887435
 11
149.515576
 21
93.887435
  0
ARC
  8
CSLAYER1
  6
CONTINUOUS
 62
     3
 10
70.417653
 20
221.470799
 40
0.500001
 50
272.456009
 51
332.456004
  0
ARC
  8
CSLAYER1
  6
CONTINUOUS
 62
     3
 10
70.882409
 20
220.740040
 40
0.500001
 50
92.456004
 51
152.455992
  0
ARC
  8
CSLAYER1
  6
CONTINUOUS
 62
     3
 10
70.839557
 20
221.739122
 40
0.500001
 50
272.456009
 51
332.456004
  0
ARC
  8
CSLAYER1
  6
CONTINUOUS
 62
     3
 10
70.800874
 20
221.811202
 40
0.500001
 50
84.000362
 51
144.000350
  0
ARC
  8
CSLAYER1
  6
CONTINUOUS
 62
     3
 10
70.448623
 20
222.602356
 40
0.500001
 50
264.000350
 51
324.000345
  0
ARC
  8
CSLAYER1
  6
CONTINUOUS
 62
     3
 10
69.991852
 20
222.398981
 40
0.500001
 50
264.000350
 51
324.000345
  0
LINE
  8
CSLAYER1
  6
CONTINUOUS
 62
     3
 10
68.534026
 20
226.890828
 11
68.571824
 21
228.419817
  0
LINE
  8
CSLAYER1
  6
CONTINUOUS
 62
     3
 10
68.092268
 20
228.462736
 11
68.279956
 21
226.829111
  0
LINE
  8
CSLAYER1
  6
CONTINUOUS
 62
     3
 10
68.087892
 20
226.782456
 11
67.635181
 21
228.185815
  0
ARC
  8
CSLAYER1
  6
CONTINUOUS
 62
     6
 10
95.671346
 20
236.218204
 40
28.481396
 50
211.096967
 51
228.151627
  0
ARC
  8
CSLAYER1
  6
CONTINUOUS
 62
     6
 10
86.563133
 20
231.692559
 40
18.299324
 50
194.938172
 51
210.851248
  0
LINE
  8
CSLAYER1
  6
CONTINUOUS
 62
     6
 10
68.882251
 20
226.975418
 11
67.894579
 21
226.735497
  0
ARC
  8
CSLAYER1
  6
CONTINUOUS
 62
     6
 10
84.311851
 20
230.831669
 40
16.920567
 50
194.009480
 51
211.854011
  0
ARC
  8
CSLAYER1
  6
CONTINUOUS
 62
     6
 10
94.750055
 20
235.687734
 40
28.418268
 50
211.188317
 51
228.540313
  0
ARC
  8
CSLAYER1
  6
CONTINUOUS
 62
     3
 10
68.505515
 20
207.828200
 40
0.500001
 50
287.456009
 51
347.456004
  0
ARC
  8
CSLAYER1
  6
CONTINUOUS
 62
     3
 10
69.143569
 20
207.242629
 40
0.500001
 50
107.456004
 51
167.455992
  0
ARC
  8
CSLAYER1
  6
CONTINUOUS
 62
     3
 10
68.843596
 20
208.196577
 40
0.500001
 50
287.456009
 51
347.456004
  0
ARC
  8
CSLAYER1
  6
CONTINUOUS
 62
     3
 10
68.787575
 20
208.256189
 40
0.500001
 50
99.000362
 51
159.000350
  0
ARC
  8
CSLAYER1
  6
CONTINUOUS
 62
     3
 10
68.242561
 20
208.929217
 40
0.500001
 50
279.000350
 51
339.000345
  0
ARC
  8
CSLAYER1
  6
CONTINUOUS
 62
     3
 10
67.853992
 20
208.614551
 40
0.500001
 50
279.000350
 51
339.000345
  0
LINE
  8
CSLAYER1
  6
CONTINUOUS
 62
     3
 10
65.283264
 20
212.576028
 11
64.924042
 21
214.062701
  0
LINE
  8
CSLAYER1
  6
CONTINUOUS
 62
     3
 10
64.449719
 20
213.980039
 11
65.053825
 21
212.450656
  0
LINE
  8
CSLAYER1
  6
CONTINUOUS
 62
     3
 10
64.880381
 20
212.355881
 11
64.079879
 21
213.594251
  0
ARC
  8
CSLAYER1
  6
CONTINUOUS
 62
     6
 10
89.081800
 20
228.609237
 40
28.481396
 50
226.096967
 51
241.325710
  0
ARC
  8
CSLAYER1
  6
CONTINUOUS
 62
     6
 10
81.455265
 20
221.880420
 40
18.299324
 50
209.938172
 51
225.851248
  0
LINE
  8
CSLAYER1
  6
CONTINUOUS
 62
     6
 10
65.597730
 20
212.747863
 11
64.705808
 21
212.260489
  0
ARC
  8
CSLAYER1
  6
CONTINUOUS
 62
     6
 10
79.503508
 20
220.466190
 40
16.920567
 50
209.009480
 51
226.854011
  0
ARC
  8
CSLAYER1
  6
CONTINUOUS
 62
     6
 10
88.329197
 20
227.858394
 40
28.418268
 50
226.188317
 51
242.972850
  0
ARC
  8
CSLAYER1
  6
CONTINUOUS
 62
     3
 10
67.201912
 20
94.469491
 40
0.500001
 50
-2.456004
 51
57.543991
  0
ARC
  8
CSLAYER1
  6
CONTINUOUS
 62
     3
 10
67.969782
 20
94.869969
 40
0.500001
 50
177.544008
 51
237.543996
  0
ARC
  8
CSLAYER1
  6
CONTINUOUS
 62
     3
 10
67.433131
 20
94.026164
 40
0.500001
 50
-2.456004
 51
57.543991
  0
ARC
  8
CSLAYER1
  6
CONTINUOUS
 62
     3
 10
67.363590
 20
93.983083
 40
0.500001
 50
185.999650
 51
245.999638
  0
ARC
  8
CSLAYER1
  6
CONTINUOUS
 62
     3
 10
66.662954
 20
93.474048
 40
0.500001
 50
5.999655
 51
65.999650
  0
ARC
  8
CSLAYER1
  6
CONTINUOUS
 62
     3
 10
66.369067
 20
93.878561
 40
0.500001
 50
5.999655
 51
65.999650
  0
LINE
  8
CSLAYER1
  6
CONTINUOUS
 62
     3
 10
62.860628
 20
90.717421
 11
62.128868
 21
89.374379
  0
LINE
  8
CSLAYER1
  6
CONTINUOUS
 62
     3
 10
61.692101
 20
89.576988
 11
62.671457
 21
90.897905
  0
LINE
  8
CSLAYER1
  6
CONTINUOUS
 62
     3
 10
62.528452
 20
91.034341
 11
61.434713
 21
90.045352
  0
ARC
  8
CSLAYER1
  6
CONTINUOUS
 62
     6
 10
81.698549
 20
69.071017
 40
28.481396
 50
101.777515
 51
118.903033
  0
ARC
  8
CSLAYER1
  6
CONTINUOUS
 62
     6
 10
76.073428
 20
77.544447
 40
18.299324
 50
119.148752
 51
135.061828
  0
LINE
  8
CSLAYER1
  6
CONTINUOUS
 62
     6
 10
63.119906
 20
90.470052
 11
62.384517
 21
91.171666
  0
ARC
  8
CSLAYER1
  6
CONTINUOUS
 62
     6
 10
74.554205
 20
79.415641
 40
16.920567
 50
118.145989
 51
135.990520
  0
ARC
  8
CSLAYER1
  6
CONTINUOUS
 62
     6
 10
81.165923
 20
69.991063
 40
28.418268
 50
101.459687
 51
118.811683
  0
ARC
  8
CSLAYER1
  6
CONTINUOUS
 62
     3
 10
68.505515
 20
80.446669
 40
0.500001
 50
12.543996
 51
72.543991
  0
ARC
  8
CSLAYER1
  6
CONTINUOUS
 62
     3
 10
69.143569
 20
81.032240
 40
0.500001
 50
192.544008
 51
252.543996
  0
ARC
  8
CSLAYER1
  6
CONTINUOUS
 62
     3
 10
68.843596
 20
80.078292
 40
0.500001
 50
12.543996
 51
72.543991
  0
ARC
  8
CSLAYER1
  6
CONTINUOUS
 62
     3
 10
68.787575
 20
80.018680
 40
0.500001
 50
200.999650
 51
260.999638
  0
ARC
  8
CSLAYER1
  6
CONTINUOUS
 62
     3
 10
68.242561
 20
79.345652
 40
0.500001
 50
20.999655
 51
80.999650
  0
ARC
  8
CSLAYER1
  6
CONTINUOUS
 62
     3
 10
67.853992
 20
79.660318
 40
0.500001
 50
20.999655
 51
80.999650
  0
LINE
  8
CSLAYER1
  6
CONTINUOUS
 62
     3
 10
65.283264
 20
75.698841
 11
64.924042
 21
74.212168
  0
LINE
  8
CSLAYER1
  6
CONTINUOUS
 62
     3
 10
64.449719
 20
74.294830
 11
65.053825
 21
75.824213
  0
LINE
  8
CSLAYER1
  6
CONTINUOUS
 62
     3
 10
64.880381
 20
75.918989
 11
64.079879
 21
74.680618
  0
ARC
  8
CSLAYER1
  6
CONTINUOUS
 62
     6
 10
89.081800
 20
59.665632
 40
28.481396
 50
116.848373
 51
133.903033
  0
ARC
  8
CSLAYER1
  6
CONTINUOUS
 62
     6
 10
81.455265
 20
66.394449
 40
18.299324
 50
134.148752
 51
150.061828
  0
LINE
  8
CSLAYER1
  6
CONTINUOUS
 62
     6
 10
65.597730
 20
75.527006
 11
64.705808
 21
76.014380
  0
ARC
  8
CSLAYER1
  6
CONTINUOUS
 62
     6
 10
79.503508
 20
67.808679
 40
16.920567
 50
133.145989
 51
150.990520
  0
ARC
  8
CSLAYER1
  6
CONTINUOUS
 62
     6
 10
88.329197
 20
60.416475
 40
28.418268
 50
116.459687
 51
133.811683
  0
ARC
  8
CSLAYER1
  6
CONTINUOUS
 62
     3
 10
66.641718
 20
157.765396
 40
0.500001
 50
-37.543991
 51
22.456004
  0
ARC
  8
CSLAYER1
  6
CONTINUOUS
 62
     3
 10
67.500251
 20
157.651697
 40
0.500001
 50
142.456004
 51
202.455992
  0
ARC
  8
CSLAYER1
  6
CONTINUOUS
 62
     3
 10
66.707365
 20
158.261069
 40
0.500001
 50
-37.543991
 51
22.456004
  0
ARC
  8
CSLAYER1
  6
CONTINUOUS
 62
     3
 10
66.627284
 20
158.277767
 40
0.500001
 50
134.000362
 51
194.000350
  0
ARC
  8
CSLAYER1
  6
CONTINUOUS
 62
     3
 10
65.794802
 20
158.516472
 40
0.500001
 50
-45.999650
 51
14.000345
  0
ARC
  8
CSLAYER1
  6
CONTINUOUS
 62
     3
 10
65.656989
 20
158.035838
 40
0.500001
 50
-45.999650
 51
14.000345
  0
LINE
  8
CSLAYER1
  6
CONTINUOUS
 62
     3
 10
61.278962
 20
159.806382
 11
60.131984
 21
160.818152
  0
LINE
  8
CSLAYER1
  6
CONTINUOUS
 62
     3
 10
59.790854
 20
160.478379
 11
61.162928
 21
159.572083
  0
LINE
  8
CSLAYER1
  6
CONTINUOUS
 62
     3
 10
61.075211
 20
159.394963
 11
59.709178
 21
159.950229
  0
ARC
  8
CSLAYER1
  6
CONTINUOUS
 62
     6
 10
71.577311
 20
186.590297
 40
28.481396
 50
261.096967
 51
277.977916
  0
ARC
  8
CSLAYER1
  6
CONTINUOUS
 62
     6
 10
69.189510
 20
176.703973
 40
18.299324
 50
244.938172
 51
260.851248
  0
LINE
  8
CSLAYER1
  6
CONTINUOUS
 62
     6
 10
61.437998
 20
160.127511
 11
60.986924
 21
159.216692
  0
ARC
  8
CSLAYER1
  6
CONTINUOUS
 62
     6
 10
68.401893
 20
174.426021
 40
16.920567
 50
244.009480
 51
261.854011
  0
ARC
  8
CSLAYER1
  6
CONTINUOUS
 62
     6
 10
71.391480
 20
185.543567
 40
28.418268
 50
261.188317
 51
278.586567
  0
ARC
  8
CSLAYER1
  6
CONTINUOUS
 62
     3
 10
65.334674
 20
143.227903
 40
0.500001
 50
174.544008
 51
234.543996
  0
ARC
  8
CSLAYER1
  6
CONTINUOUS
 62
     3
 10
64.546897
 20
142.868162
 40
0.500001
 50
-5.456004
 51
54.543991
  0
ARC
  8
CSLAYER1
  6
CONTINUOUS
 62
     3
 10
64.754597
 20
142.413341
 40
0.500001
 50
-5.456004
 51
54.543991
  0
ARC
  8
CSLAYER1
  6
CONTINUOUS
 62
     3
 10
64.682897
 20
142.373959
 40
0.500001
 50
182.999650
 51
242.999638
  0
ARC
  8
CSLAYER1
  6
CONTINUOUS
 62
     3
 10
63.956581
 20
141.902290
 40
0.500001
 50
2.999655
 51
62.999650
  0
ARC
  8
CSLAYER1
  6
CONTINUOUS
 62
     3
 10
63.684266
 20
142.321630
 40
0.500001
 50
2.999655
 51
62.999650
  0
LINE
  8
CSLAYER1
  6
CONTINUOUS
 62
     3
 10
60.974230
 20
140.060012
 11
59.927085
 21
138.792161
  0
LINE
  8
CSLAYER1
  6
CONTINUOUS
 62
     3
 10
60.352650
 20
138.566971
 11
61.153697
 21
139.869875
  0
LINE
  8
CSLAYER1
  6
CONTINUOUS
 62
     3
 10
60.838562
 20
140.203746
 11
59.694562
 21
139.273354
  0
ARC
  8
CSLAYER1
  6
CONTINUOUS
 62
     6
 10
84.852311
 20
99.523948
 40
48.112452
 50
101.187767
 51
114.583084
  0
ARC
  8
CSLAYER1
  6
CONTINUOUS
 62
     6
 10
85.608723
 20
97.956542
 40
48.852482
 50
101.708909
 51
114.625853
  0
ARC
  8
CSLAYER1
  6
CONTINUOUS
 62
     6
 10
69.188114
 20
132.518942
 40
10.532465
 50
116.698661
 51
137.686360
  0
LINE
  8
CSLAYER1
  6
CONTINUOUS
 62
     6
 10
61.399673
 20
139.609276
 11
60.702011
 21
140.348415
  0
ARC
  8
CSLAYER1
  6
CONTINUOUS
 62
     6
 10
68.179195
 20
133.765773
 40
9.961904
 50
115.367654
 51
138.640481
  0
ENDSEC
  0
EOF
