  0
SECTION
  2
HEADER
  9
$ACADVER
  1
AC1015
  9
$ACADMAINTVER
 70
     6
  9
$DWGCODEPAGE
  3
ANSI_932
  9
$INSBASE
 10
0.0
 20
0.0
 30
0.0
  9
$EXTMIN
 10
0.0
 20
0.0
 30
0.0
  9
$EXTMAX
 10
420.0
 20
297.0
 30
0.0
  9
$LIMMIN
 10
0.0
 20
0.0
  9
$LIMMAX
 10
420.0
 20
297.0
  9
$ORTHOMODE
 70
     0
  9
$REGENMODE
 70
     1
  9
$FILLMODE
 70
     1
  9
$QTEXTMODE
 70
     0
  9
$MIRRTEXT
 70
     1
  9
$LTSCALE
 40
1.0
  9
$ATTMODE
 70
     1
  9
$TEXTSIZE
 40
0.2
  9
$TRACEWID
 40
0.05
  9
$TEXTSTYLE
  7
寸法文字
  9
$CLAYER
  8
0
  9
$CELTYPE
  6
ByLayer
  9
$CECOLOR
 62
   256
  9
$CELTSCALE
 40
1.0
  9
$DISPSILH
 70
     0
  9
$DIMSCALE
 40
1.0
  9
$DIMASZ
 40
3.0
  9
$DIMEXO
 40
1.0
  9
$DIMDLI
 40
8.0
  9
$DIMRND
 40
0.0
  9
$DIMDLE
 40
6.0
  9
$DIMEXE
 40
1.0
  9
$DIMTP
 40
0.0
  9
$DIMTM
 40
0.0
  9
$DIMTXT
 40
3.5
  9
$DIMCEN
 40
2.5
  9
$DIMTSZ
 40
0.0
  9
$DIMTOL
 70
     0
  9
$DIMLIM
 70
     0
  9
$DIMTIH
 70
     0
  9
$DIMTOH
 70
     0
  9
$DIMSE1
 70
     0
  9
$DIMSE2
 70
     0
  9
$DIMTAD
 70
     1
  9
$DIMZIN
 70
     8
  9
$DIMBLK
  1

  9
$DIMASO
 70
     1
  9
$DIMSHO
 70
     1
  9
$DIMPOST
  1

  9
$DIMAPOST
  1

  9
$DIMALT
 70
     0
  9
$DIMALTD
 70
     3
  9
$DIMALTF
 40
0.03937
  9
$DIMLFAC
 40
1.0
  9
$DIMTOFL
 70
     1
  9
$DIMTVP
 40
0.0
  9
$DIMTIX
 70
     0
  9
$DIMSOXD
 70
     0
  9
$DIMSAH
 70
     1
  9
$DIMBLK1
  1
FXTIP_ARROW_S
  9
$DIMBLK2
  1
FXTIP_ARROW_E
  9
$DIMSTYLE
  2
FXDIMINFO
  9
$DIMCLRD
 70
     7
  9
$DIMCLRE
 70
     7
  9
$DIMCLRT
 70
     7
  9
$DIMTFAC
 40
1.0
  9
$DIMGAP
 40
0.5
  9
$DIMJUST
 70
     0
  9
$DIMSD1
 70
     0
  9
$DIMSD2
 70
     0
  9
$DIMTOLJ
 70
     0
  9
$DIMTZIN
 70
     8
  9
$DIMALTZ
 70
     0
  9
$DIMALTTZ
 70
     0
  9
$DIMUPT
 70
     0
  9
$DIMDEC
 70
     4
  9
$DIMTDEC
 70
     2
  9
$DIMALTU
 70
     2
  9
$DIMALTTD
 70
     3
  9
$DIMTXSTY
  7
寸法文字
  9
$DIMAUNIT
 70
     0
  9
$DIMADEC
 70
     4
  9
$DIMALTRND
 40
0.0
  9
$DIMAZIN
 70
     0
  9
$DIMDSEP
 70
    46
  9
$DIMATFIT
 70
     3
  9
$DIMFRAC
 70
     0
  9
$DIMLDRBLK
  1
FXTIP_ARROW_S
  9
$DIMLUNIT
 70
     2
  9
$DIMLWD
 70
    -2
  9
$DIMLWE
 70
    -2
  9
$DIMTMOVE
 70
     0
  9
$LUNITS
 70
     2
  9
$LUPREC
 70
     4
  9
$SKETCHINC
 40
0.1
  9
$FILLETRAD
 40
0.5
  9
$AUNITS
 70
     0
  9
$AUPREC
 70
     0
  9
$MENU
  1
.
  9
$ELEVATION
 40
0.0
  9
$PELEVATION
 40
0.0
  9
$THICKNESS
 40
0.0
  9
$LIMCHECK
 70
     0
  9
$CHAMFERA
 40
0.5
  9
$CHAMFERB
 40
0.5
  9
$CHAMFERC
 40
1.0
  9
$CHAMFERD
 40
0.0
  9
$SKPOLY
 70
     0
  9
$TDCREATE
 40
2455236.433186667
  9
$TDUCREATE
 40
2455236.058186667
  9
$TDUPDATE
 40
2455236.433186678
  9
$TDUUPDATE
 40
2455236.058186678
  9
$TDINDWG
 40
0.0000000116
  9
$TDUSRTIMER
 40
0.0000000116
  9
$USRTIMER
 70
     1
  9
$ANGBASE
 50
0.0
  9
$ANGDIR
 70
     0
  9
$PDMODE
 70
     0
  9
$PDSIZE
 40
0.0
  9
$PLINEWID
 40
0.0
  9
$SPLFRAME
 70
     0
  9
$SPLINETYPE
 70
     6
  9
$SPLINESEGS
 70
     8
  9
$HANDSEED
  5
276
  9
$SURFTAB1
 70
     6
  9
$SURFTAB2
 70
     6
  9
$SURFTYPE
 70
     6
  9
$SURFU
 70
     6
  9
$SURFV
 70
     6
  9
$UCSBASE
  2

  9
$UCSNAME
  2

  9
$UCSORG
 10
0.0
 20
0.0
 30
0.0
  9
$UCSXDIR
 10
1.0
 20
0.0
 30
0.0
  9
$UCSYDIR
 10
0.0
 20
1.0
 30
0.0
  9
$UCSORTHOREF
  2

  9
$UCSORTHOVIEW
 70
     0
  9
$UCSORGTOP
 10
0.0
 20
0.0
 30
0.0
  9
$UCSORGBOTTOM
 10
0.0
 20
0.0
 30
0.0
  9
$UCSORGLEFT
 10
0.0
 20
0.0
 30
0.0
  9
$UCSORGRIGHT
 10
0.0
 20
0.0
 30
0.0
  9
$UCSORGFRONT
 10
0.0
 20
0.0
 30
0.0
  9
$UCSORGBACK
 10
0.0
 20
0.0
 30
0.0
  9
$PUCSBASE
  2

  9
$PUCSNAME
  2

  9
$PUCSORG
 10
0.0
 20
0.0
 30
0.0
  9
$PUCSXDIR
 10
1.0
 20
0.0
 30
0.0
  9
$PUCSYDIR
 10
0.0
 20
1.0
 30
0.0
  9
$PUCSORTHOREF
  2

  9
$PUCSORTHOVIEW
 70
     0
  9
$PUCSORGTOP
 10
0.0
 20
0.0
 30
0.0
  9
$PUCSORGBOTTOM
 10
0.0
 20
0.0
 30
0.0
  9
$PUCSORGLEFT
 10
0.0
 20
0.0
 30
0.0
  9
$PUCSORGRIGHT
 10
0.0
 20
0.0
 30
0.0
  9
$PUCSORGFRONT
 10
0.0
 20
0.0
 30
0.0
  9
$PUCSORGBACK
 10
0.0
 20
0.0
 30
0.0
  9
$USERI1
 70
     0
  9
$USERI2
 70
     0
  9
$USERI3
 70
     0
  9
$USERI4
 70
     0
  9
$USERI5
 70
     0
  9
$USERR1
 40
0.0
  9
$USERR2
 40
0.0
  9
$USERR3
 40
0.0
  9
$USERR4
 40
0.0
  9
$USERR5
 40
0.0
  9
$WORLDVIEW
 70
     1
  9
$SHADEDGE
 70
     3
  9
$SHADEDIF
 70
    70
  9
$TILEMODE
 70
     1
  9
$MAXACTVP
 70
    64
  9
$PINSBASE
 10
0.0
 20
0.0
 30
0.0
  9
$PLIMCHECK
 70
     0
  9
$PEXTMIN
 10
1.000000000000000E+20
 20
1.000000000000000E+20
 30
1.000000000000000E+20
  9
$PEXTMAX
 10
-1.000000000000000E+20
 20
-1.000000000000000E+20
 30
-1.000000000000000E+20
  9
$PLIMMIN
 10
0.0
 20
0.0
  9
$PLIMMAX
 10
12.0
 20
9.0
  9
$UNITMODE
 70
     0
  9
$VISRETAIN
 70
     1
  9
$PLINEGEN
 70
     0
  9
$PSLTSCALE
 70
     1
  9
$TREEDEPTH
 70
  3020
  9
$CMLSTYLE
  2
Standard
  9
$CMLJUST
 70
     0
  9
$CMLSCALE
 40
1.0
  9
$PROXYGRAPHICS
 70
     1
  9
$MEASUREMENT
 70
     0
  9
$CELWEIGHT
370
    -1
  9
$ENDCAPS
280
     0
  9
$JOINSTYLE
280
     0
  9
$LWDISPLAY
290
     0
  9
$INSUNITS
 70
     1
  9
$HYPERLINKBASE
  1

  9
$STYLESHEET
  1

  9
$XEDIT
290
     1
  9
$CEPSNTYPE
380
     0
  9
$PSTYLEMODE
290
     1
  9
$FINGERPRINTGUID
  2
{3E8CDDFB-FCA2-4FF7-9317-B8B22494E5F2}
  9
$VERSIONGUID
  2
{FAEB1C32-E019-11D5-929B-00C0DF256EC4}
  9
$EXTNAMES
290
     1
  9
$PSVPSCALE
 40
0.0
  9
$OLESTARTUP
290
     0
  0
ENDSEC
  0
SECTION
  2
CLASSES
  0
CLASS
  1
ACDBDICTIONARYWDFLT
  2
AcDbDictionaryWithDefault
  3
ObjectDBX Classes
 90
        0
280
     0
281
     0
  0
CLASS
  1
ACDBPLACEHOLDER
  2
AcDbPlaceHolder
  3
ObjectDBX Classes
 90
        0
280
     0
281
     0
  0
CLASS
  1
LAYOUT
  2
AcDbLayout
  3
ObjectDBX Classes
 90
        0
280
     0
281
     0
  0
ENDSEC
  0
SECTION
  2
TABLES
  0
TABLE
  2
VPORT
  5
8
330
0
100
AcDbSymbolTable
 70
     1
  0
VPORT
  5
29
330
8
100
AcDbSymbolTableRecord
100
AcDbViewportTableRecord
  2
*Active
 70
     0
 10
0.0
 20
0.0
 11
1.0
 21
1.0
 12
210.0
 22
148.5
 13
0.0
 23
0.0
 14
0.5
 24
0.5
 15
0.5
 25
0.5
 16
0.0
 26
0.0
 36
1.0
 17
0.0
 27
0.0
 37
0.0
 40
297.0
 41
1.414141414141414
 42
50.0
 43
0.0
 44
0.0
 50
0.0
 51
0.0
 71
     0
 72
   100
 73
     1
 74
     3
 75
     0
 76
     0
 77
     0
 78
     0
281
     0
 65
     1
110
0.0
120
0.0
130
0.0
111
1.0
121
0.0
131
0.0
112
0.0
122
1.0
132
0.0
 79
     0
146
0.0
  0
ENDTAB
  0
TABLE
  2
LTYPE
  5
5
330
0
100
AcDbSymbolTable
 70
     5
  0
LTYPE
  5
14
330
5
100
AcDbSymbolTableRecord
100
AcDbLinetypeTableRecord
  2
ByBlock
 70
     0
  3

 72
    65
 73
     0
 40
0.0
  0
LTYPE
  5
15
330
5
100
AcDbSymbolTableRecord
100
AcDbLinetypeTableRecord
  2
ByLayer
 70
     0
  3

 72
    65
 73
     0
 40
0.0
  0
LTYPE
  5
16
330
5
100
AcDbSymbolTableRecord
100
AcDbLinetypeTableRecord
  2
Continuous
 70
     0
  3
Continuous ___________________________________
 72
    65
 73
     0
 40
0.0
  0
LTYPE
  5
2A
330
5
100
AcDbSymbolTableRecord
100
AcDbLinetypeTableRecord
  2
DASHDOT
 70
     0
  3
Dash dot __ . __ . __ . __ . __ . __ . __ . __
 72
    65
 73
     4
 40
25.3
 49
12.7
 74
     0
 49
-6.3
 74
     0
 49
0.0
 74
     0
 49
-6.3
 74
     0
  0
ENDTAB
  0
TABLE
  2
LAYER
  5
2
330
0
100
AcDbSymbolTable
 70
     4
  0
LAYER
  5
10
330
2
100
AcDbSymbolTableRecord
100
AcDbLayerTableRecord
  2
0
 70
     0
 62
     7
  6
Continuous
370
    -3
390
F
  0
LAYER
  5
99
330
2
100
AcDbSymbolTableRecord
100
AcDbLayerTableRecord
  2
用紙-作図レイヤ
 70
     0
 62
     7
  6
Continuous
370
    -3
390
F
  0
ENDTAB
  0
TABLE
  2
STYLE
  5
3
330
0
100
AcDbSymbolTable
 70
     3
  0
STYLE
  5
11
330
3
100
AcDbSymbolTableRecord
100
AcDbTextStyleTableRecord
  2
Standard
 70
     0
 40
0.0
 41
1.0
 50
0.0
 71
     0
 42
0.2
  3
txt
  4

  0
STYLE
  5
30
330
3
100
AcDbSymbolTableRecord
100
AcDbTextStyleTableRecord
  2
FX_VECTOR
 70
     0
 40
0.0
 41
1.0
 50
0.0
 71
     0
 42
0.2
  3
MONOTXT.SHX
  4
BigFont.shx
  0
STYLE
  5
98
330
3
100
AcDbSymbolTableRecord
100
AcDbTextStyleTableRecord
  2
寸法文字
 70
     0
 40
0.0
 41
1.0
 50
0.0
 71
     0
 42
0.2
  3

  4

1001
ACAD
1000
ＭＳ Ｐゴシック
1071
    32818
  0
ENDTAB
  0
TABLE
  2
VIEW
  5
6
330
0
100
AcDbSymbolTable
 70
     0
  0
ENDTAB
  0
TABLE
  2
UCS
  5
7
330
0
100
AcDbSymbolTable
 70
     0
  0
ENDTAB
  0
TABLE
  2
APPID
  5
9
330
0
100
AcDbSymbolTable
 70
     1
  0
APPID
  5
12
330
9
100
AcDbSymbolTableRecord
100
AcDbRegAppTableRecord
  2
ACAD
 70
     0
  0
ENDTAB
  0
TABLE
  2
DIMSTYLE
  5
A
330
0
100
AcDbSymbolTable
 70
     2
100
AcDbDimStyleTable
  0
DIMSTYLE
105
27
330
A
100
AcDbSymbolTableRecord
100
AcDbDimStyleTableRecord
  2
Standard
 70
     0
340
11
  0
DIMSTYLE
105
97
330
A
100
AcDbSymbolTableRecord
100
AcDbDimStyleTableRecord
  2
FXDIMINFO
 70
     0
 41
3.0
 42
1.0
 43
8.0
 44
1.0
 46
6.0
 73
     0
 74
     0
 77
     1
 78
     8
140
3.5
141
2.5
143
0.03937
147
0.5
171
     3
172
     1
173
     1
176
     7
177
     7
178
     7
179
     4
272
     2
274
     3
283
     0
284
     8
340
98
341
31
343
31
344
37
  0
ENDTAB
  0
TABLE
  2
BLOCK_RECORD
  5
1
330
0
100
AcDbSymbolTable
 70
    24
  0
BLOCK_RECORD
  5
1F
330
1
100
AcDbSymbolTableRecord
100
AcDbBlockTableRecord
  2
*Model_Space
340
22
  0
BLOCK_RECORD
  5
1B
330
1
100
AcDbSymbolTableRecord
100
AcDbBlockTableRecord
  2
*Paper_Space
340
1E
  0
BLOCK_RECORD
  5
23
330
1
100
AcDbSymbolTableRecord
100
AcDbBlockTableRecord
  2
*Paper_Space0
340
26
  0
BLOCK_RECORD
  5
31
330
1
100
AcDbSymbolTableRecord
100
AcDbBlockTableRecord
  2
FXTIP_ARROW_S
340
0
  0
BLOCK_RECORD
  5
37
330
1
100
AcDbSymbolTableRecord
100
AcDbBlockTableRecord
  2
FXTIP_ARROW_E
340
0
  0
BLOCK_RECORD
  5
3D
330
1
100
AcDbSymbolTableRecord
100
AcDbBlockTableRecord
  2
FXTIP_BLACKDOT_S
340
0
  0
BLOCK_RECORD
  5
43
330
1
100
AcDbSymbolTableRecord
100
AcDbBlockTableRecord
  2
FXTIP_BLACKDOT_E
340
0
  0
BLOCK_RECORD
  5
49
330
1
100
AcDbSymbolTableRecord
100
AcDbBlockTableRecord
  2
FXTIP_TRIANGLE_S
340
0
  0
BLOCK_RECORD
  5
50
330
1
100
AcDbSymbolTableRecord
100
AcDbBlockTableRecord
  2
FXTIP_TRIANGLE_E
340
0
  0
BLOCK_RECORD
  5
57
330
1
100
AcDbSymbolTableRecord
100
AcDbBlockTableRecord
  2
FXTIP_ARCHITECT_S
340
0
  0
BLOCK_RECORD
  5
5D
330
1
100
AcDbSymbolTableRecord
100
AcDbBlockTableRecord
  2
FXTIP_ARCHITECT_E
340
0
  0
BLOCK_RECORD
  5
63
330
1
100
AcDbSymbolTableRecord
100
AcDbBlockTableRecord
  2
FXTIP_CIVIL_S
340
0
  0
BLOCK_RECORD
  5
69
330
1
100
AcDbSymbolTableRecord
100
AcDbBlockTableRecord
  2
FXTIP_CIVIL_E
340
0
  0
BLOCK_RECORD
  5
6F
330
1
100
AcDbSymbolTableRecord
100
AcDbBlockTableRecord
  2
FXTIP_WHITEDOT_S
340
0
  0
BLOCK_RECORD
  5
74
330
1
100
AcDbSymbolTableRecord
100
AcDbBlockTableRecord
  2
FXTIP_WHITEDOT_E
340
0
  0
BLOCK_RECORD
  5
79
330
1
100
AcDbSymbolTableRecord
100
AcDbBlockTableRecord
  2
FXTIP_UPARROW_S
340
0
  0
BLOCK_RECORD
  5
7E
330
1
100
AcDbSymbolTableRecord
100
AcDbBlockTableRecord
  2
FXTIP_UPARROW_E
340
0
  0
BLOCK_RECORD
  5
83
330
1
100
AcDbSymbolTableRecord
100
AcDbBlockTableRecord
  2
FXTIP_DOWNARROW_S
340
0
  0
BLOCK_RECORD
  5
88
330
1
100
AcDbSymbolTableRecord
100
AcDbBlockTableRecord
  2
FXTIP_DOWNARROW_E
340
0
  0
BLOCK_RECORD
  5
8D
330
1
100
AcDbSymbolTableRecord
100
AcDbBlockTableRecord
  2
FXTIP_BLACKTRIANGLE_S
340
0
  0
BLOCK_RECORD
  5
92
330
1
100
AcDbSymbolTableRecord
100
AcDbBlockTableRecord
  2
FXTIP_BLACKTRIANGLE_E
340
0
  0
BLOCK_RECORD
  5
9C
330
1
100
AcDbSymbolTableRecord
100
AcDbBlockTableRecord
  2
BLKF021
340
0
102
{BLKREFS
331
9F
102
}
  0
BLOCK_RECORD
  5
B1
330
1
100
AcDbSymbolTableRecord
100
AcDbBlockTableRecord
  2
BLKF022
340
0
102
{BLKREFS
331
B4
102
}
  0
BLOCK_RECORD
  5
D6
330
1
100
AcDbSymbolTableRecord
100
AcDbBlockTableRecord
  2
BLKF023
340
0
102
{BLKREFS
331
D9
102
}
  0
BLOCK_RECORD
  5
EB
330
1
100
AcDbSymbolTableRecord
100
AcDbBlockTableRecord
  2
BLKF024
340
0
102
{BLKREFS
331
EE
102
}
  0
BLOCK_RECORD
  5
105
330
1
100
AcDbSymbolTableRecord
100
AcDbBlockTableRecord
  2
BLKF025
340
0
102
{BLKREFS
331
108
102
}
  0
ENDTAB
  0
ENDSEC
  0
SECTION
  2
BLOCKS
  0
BLOCK
  5
20
330
1F
100
AcDbEntity
  8
0
100
AcDbBlockBegin
  2
*Model_Space
 70
     0
 71
     0
 10
0.0
 20
0.0
 30
0.0
  3
*Model_Space
  1

  0
ENDBLK
  5
21
330
1F
100
AcDbEntity
  8
0
100
AcDbBlockEnd
  0
BLOCK
  5
1C
330
1B
100
AcDbEntity
 67
     1
  8
0
100
AcDbBlockBegin
  2
*Paper_Space
 70
     0
 71
     0
 10
0.0
 20
0.0
 30
0.0
  3
*Paper_Space
  1

  0
ENDBLK
  5
1D
330
1B
100
AcDbEntity
 67
     1
  8
0
100
AcDbBlockEnd
  0
BLOCK
  5
24
330
23
100
AcDbEntity
  8
0
100
AcDbBlockBegin
  2
*Paper_Space0
 70
     0
 71
     0
 10
0.0
 20
0.0
 30
0.0
  3
*Paper_Space0
  1

  0
ENDBLK
  5
25
330
23
100
AcDbEntity
  8
0
100
AcDbBlockEnd
  0
BLOCK
  5
32
330
31
100
AcDbEntity
  8
0
100
AcDbBlockBegin
  2
FXTIP_ARROW_S
 70
     0
 71
     0
 10
0.0
 20
0.0
 30
0.0
  3
FXTIP_ARROW_S
  1

  0
LINE
  5
34
330
31
100
AcDbEntity
  8
0
  6
Continuous
 62
     0
370
    -2
100
AcDbLine
 10
0.0
 20
0.0
 30
0.0
 11
-1.0
 21
0.0000000000000001
 31
0.0
  0
LINE
  5
35
330
31
100
AcDbEntity
  8
0
  6
Continuous
 62
     0
370
    -2
100
AcDbLine
 10
0.0
 20
0.0
 30
0.0
 11
-0.9914448613738104
 21
-0.1305261922200515
 31
0.0
  0
LINE
  5
36
330
31
100
AcDbEntity
  8
0
  6
Continuous
 62
     0
370
    -2
100
AcDbLine
 10
0.0
 20
0.0
 30
0.0
 11
-0.9914448613738104
 21
0.1305261922200517
 31
0.0
  0
ENDBLK
  5
33
330
31
100
AcDbEntity
  8
0
100
AcDbBlockEnd
  0
BLOCK
  5
38
330
37
100
AcDbEntity
  8
0
100
AcDbBlockBegin
  2
FXTIP_ARROW_E
 70
     0
 71
     0
 10
0.0
 20
0.0
 30
0.0
  3
FXTIP_ARROW_E
  1

  0
LINE
  5
3A
330
37
100
AcDbEntity
  8
0
  6
Continuous
 62
     0
370
    -2
100
AcDbLine
 10
0.0
 20
0.0
 30
0.0
 11
-1.0
 21
0.0
 31
0.0
  0
LINE
  5
3B
330
37
100
AcDbEntity
  8
0
  6
Continuous
 62
     0
370
    -2
100
AcDbLine
 10
0.0
 20
0.0
 30
0.0
 11
-0.9914448613738104
 21
0.1305261922200516
 31
0.0
  0
LINE
  5
3C
330
37
100
AcDbEntity
  8
0
  6
Continuous
 62
     0
370
    -2
100
AcDbLine
 10
0.0
 20
0.0
 30
0.0
 11
-0.9914448613738104
 21
-0.1305261922200516
 31
0.0
  0
ENDBLK
  5
39
330
37
100
AcDbEntity
  8
0
100
AcDbBlockEnd
  0
BLOCK
  5
3E
330
3D
100
AcDbEntity
  8
0
100
AcDbBlockBegin
  2
FXTIP_BLACKDOT_S
 70
     0
 71
     0
 10
0.0
 20
0.0
 30
0.0
  3
FXTIP_BLACKDOT_S
  1

  0
LINE
  5
40
330
3D
100
AcDbEntity
  8
0
  6
Continuous
 62
     0
370
    -2
100
AcDbLine
 10
0.0
 20
0.0
 30
0.0
 11
-1.0
 21
0.0000000000000001
 31
0.0
  0
LWPOLYLINE
  5
41
330
3D
100
AcDbEntity
  8
0
  6
Continuous
 62
     0
370
    -2
100
AcDbPolyline
 90
        2
 70
     1
 10
-0.25
 20
0.0
 40
0.5
 41
0.5
 42
1.0
 10
0.25
 20
0.0
 40
0.5
 41
0.5
 42
1.0
  0
CIRCLE
  5
42
330
3D
100
AcDbEntity
  8
0
  6
Continuous
 62
     0
370
    -2
100
AcDbCircle
 10
0.0
 20
0.0
 30
0.0
 40
0.5
  0
ENDBLK
  5
3F
330
3D
100
AcDbEntity
  8
0
100
AcDbBlockEnd
  0
BLOCK
  5
44
330
43
100
AcDbEntity
  8
0
100
AcDbBlockBegin
  2
FXTIP_BLACKDOT_E
 70
     0
 71
     0
 10
0.0
 20
0.0
 30
0.0
  3
FXTIP_BLACKDOT_E
  1

  0
LINE
  5
46
330
43
100
AcDbEntity
  8
0
  6
Continuous
 62
     0
370
    -2
100
AcDbLine
 10
0.0
 20
0.0
 30
0.0
 11
-1.0
 21
0.0
 31
0.0
  0
LWPOLYLINE
  5
47
330
43
100
AcDbEntity
  8
0
  6
Continuous
 62
     0
370
    -2
100
AcDbPolyline
 90
        2
 70
     1
 10
-0.25
 20
0.0
 40
0.5
 41
0.5
 42
1.0
 10
0.25
 20
0.0
 40
0.5
 41
0.5
 42
1.0
  0
CIRCLE
  5
48
330
43
100
AcDbEntity
  8
0
  6
Continuous
 62
     0
370
    -2
100
AcDbCircle
 10
0.0
 20
0.0
 30
0.0
 40
0.5
  0
ENDBLK
  5
45
330
43
100
AcDbEntity
  8
0
100
AcDbBlockEnd
  0
BLOCK
  5
4A
330
49
100
AcDbEntity
  8
0
100
AcDbBlockBegin
  2
FXTIP_TRIANGLE_S
 70
     0
 71
     0
 10
0.0
 20
0.0
 30
0.0
  3
FXTIP_TRIANGLE_S
  1

  0
LINE
  5
4C
330
49
100
AcDbEntity
  8
0
  6
Continuous
 62
     0
370
    -2
100
AcDbLine
 10
0.0
 20
0.0
 30
0.0
 11
-1.0
 21
0.0000000000000001
 31
0.0
  0
LINE
  5
4D
330
49
100
AcDbEntity
  8
0
  6
Continuous
 62
     0
370
    -2
100
AcDbLine
 10
0.0
 20
0.0
 30
0.0
 11
-0.9914448613738104
 21
-0.1305261922200515
 31
0.0
  0
LINE
  5
4E
330
49
100
AcDbEntity
  8
0
  6
Continuous
 62
     0
370
    -2
100
AcDbLine
 10
0.0
 20
0.0
 30
0.0
 11
-0.9914448613738104
 21
0.1305261922200517
 31
0.0
  0
LINE
  5
4F
330
49
100
AcDbEntity
  8
0
  6
Continuous
 62
     0
370
    -2
100
AcDbLine
 10
-0.9914448613738104
 20
-0.1305261922200515
 30
0.0
 11
-0.9914448613738104
 21
0.1305261922200517
 31
0.0
  0
ENDBLK
  5
4B
330
49
100
AcDbEntity
  8
0
100
AcDbBlockEnd
  0
BLOCK
  5
51
330
50
100
AcDbEntity
  8
0
100
AcDbBlockBegin
  2
FXTIP_TRIANGLE_E
 70
     0
 71
     0
 10
0.0
 20
0.0
 30
0.0
  3
FXTIP_TRIANGLE_E
  1

  0
LINE
  5
53
330
50
100
AcDbEntity
  8
0
  6
Continuous
 62
     0
370
    -2
100
AcDbLine
 10
0.0
 20
0.0
 30
0.0
 11
-1.0
 21
0.0
 31
0.0
  0
LINE
  5
54
330
50
100
AcDbEntity
  8
0
  6
Continuous
 62
     0
370
    -2
100
AcDbLine
 10
0.0
 20
0.0
 30
0.0
 11
-0.9914448613738104
 21
0.1305261922200516
 31
0.0
  0
LINE
  5
55
330
50
100
AcDbEntity
  8
0
  6
Continuous
 62
     0
370
    -2
100
AcDbLine
 10
0.0
 20
0.0
 30
0.0
 11
-0.9914448613738104
 21
-0.1305261922200516
 31
0.0
  0
LINE
  5
56
330
50
100
AcDbEntity
  8
0
  6
Continuous
 62
     0
370
    -2
100
AcDbLine
 10
-0.9914448613738104
 20
0.1305261922200516
 30
0.0
 11
-0.9914448613738104
 21
-0.1305261922200516
 31
0.0
  0
ENDBLK
  5
52
330
50
100
AcDbEntity
  8
0
100
AcDbBlockEnd
  0
BLOCK
  5
58
330
57
100
AcDbEntity
  8
0
100
AcDbBlockBegin
  2
FXTIP_ARCHITECT_S
 70
     0
 71
     0
 10
0.0
 20
0.0
 30
0.0
  3
FXTIP_ARCHITECT_S
  1

  0
LINE
  5
5A
330
57
100
AcDbEntity
  8
0
  6
Continuous
 62
     0
370
    -2
100
AcDbLine
 10
0.0
 20
0.0
 30
0.0
 11
-1.0
 21
0.0000000000000001
 31
0.0
  0
LINE
  5
5B
330
57
100
AcDbEntity
  8
0
  6
Continuous
 62
     0
370
    -2
100
AcDbLine
 10
0.0
 20
0.0
 30
0.0
 11
-0.7071067811865476
 21
-0.7071067811865474
 31
0.0
  0
LINE
  5
5C
330
57
100
AcDbEntity
  8
0
  6
Continuous
 62
     0
370
    -2
100
AcDbLine
 10
0.0
 20
0.0
 30
0.0
 11
0.7071067811865476
 21
0.7071067811865474
 31
0.0
  0
ENDBLK
  5
59
330
57
100
AcDbEntity
  8
0
100
AcDbBlockEnd
  0
BLOCK
  5
5E
330
5D
100
AcDbEntity
  8
0
100
AcDbBlockBegin
  2
FXTIP_ARCHITECT_E
 70
     0
 71
     0
 10
0.0
 20
0.0
 30
0.0
  3
FXTIP_ARCHITECT_E
  1

  0
LINE
  5
60
330
5D
100
AcDbEntity
  8
0
  6
Continuous
 62
     0
370
    -2
100
AcDbLine
 10
0.0
 20
0.0
 30
0.0
 11
-1.0
 21
0.0
 31
0.0
  0
LINE
  5
61
330
5D
100
AcDbEntity
  8
0
  6
Continuous
 62
     0
370
    -2
100
AcDbLine
 10
0.0
 20
0.0
 30
0.0
 11
0.7071067811865475
 21
0.7071067811865475
 31
0.0
  0
LINE
  5
62
330
5D
100
AcDbEntity
  8
0
  6
Continuous
 62
     0
370
    -2
100
AcDbLine
 10
0.0
 20
0.0
 30
0.0
 11
-0.7071067811865475
 21
-0.7071067811865475
 31
0.0
  0
ENDBLK
  5
5F
330
5D
100
AcDbEntity
  8
0
100
AcDbBlockEnd
  0
BLOCK
  5
64
330
63
100
AcDbEntity
  8
0
100
AcDbBlockBegin
  2
FXTIP_CIVIL_S
 70
     0
 71
     0
 10
0.0
 20
0.0
 30
0.0
  3
FXTIP_CIVIL_S
  1

  0
LINE
  5
66
330
63
100
AcDbEntity
  8
0
  6
Continuous
 62
     0
370
    -2
100
AcDbLine
 10
0.0
 20
0.0
 30
0.0
 11
-1.0
 21
0.0000000000000001
 31
0.0
  0
LINE
  5
67
330
63
100
AcDbEntity
  8
0
  6
Continuous
 62
     0
370
    -2
100
AcDbLine
 10
0.0
 20
-0.0833333333333333
 30
0.0
 11
-1.0
 21
-0.0833333333333332
 31
0.0
  0
LINE
  5
68
330
63
100
AcDbEntity
  8
0
  6
Continuous
 62
     0
370
    -2
100
AcDbLine
 10
0.0
 20
-0.1666666666666667
 30
0.0
 11
-1.0
 21
-0.1666666666666666
 31
0.0
  0
ENDBLK
  5
65
330
63
100
AcDbEntity
  8
0
100
AcDbBlockEnd
  0
BLOCK
  5
6A
330
69
100
AcDbEntity
  8
0
100
AcDbBlockBegin
  2
FXTIP_CIVIL_E
 70
     0
 71
     0
 10
0.0
 20
0.0
 30
0.0
  3
FXTIP_CIVIL_E
  1

  0
LINE
  5
6C
330
69
100
AcDbEntity
  8
0
  6
Continuous
 62
     0
370
    -2
100
AcDbLine
 10
0.0
 20
0.0
 30
0.0
 11
-1.0
 21
0.0
 31
0.0
  0
LINE
  5
6D
330
69
100
AcDbEntity
  8
0
  6
Continuous
 62
     0
370
    -2
100
AcDbLine
 10
0.0
 20
0.0833333333333333
 30
0.0
 11
-1.0
 21
0.0833333333333333
 31
0.0
  0
LINE
  5
6E
330
69
100
AcDbEntity
  8
0
  6
Continuous
 62
     0
370
    -2
100
AcDbLine
 10
0.0
 20
0.1666666666666667
 30
0.0
 11
-1.0
 21
0.1666666666666667
 31
0.0
  0
ENDBLK
  5
6B
330
69
100
AcDbEntity
  8
0
100
AcDbBlockEnd
  0
BLOCK
  5
70
330
6F
100
AcDbEntity
  8
0
100
AcDbBlockBegin
  2
FXTIP_WHITEDOT_S
 70
     0
 71
     0
 10
0.0
 20
0.0
 30
0.0
  3
FXTIP_WHITEDOT_S
  1

  0
LINE
  5
72
330
6F
100
AcDbEntity
  8
0
  6
Continuous
 62
     0
370
    -2
100
AcDbLine
 10
0.0
 20
0.0
 30
0.0
 11
-1.0
 21
0.0000000000000001
 31
0.0
  0
CIRCLE
  5
73
330
6F
100
AcDbEntity
  8
0
  6
Continuous
 62
     0
370
    -2
100
AcDbCircle
 10
0.0
 20
0.0
 30
0.0
 40
0.5
  0
ENDBLK
  5
71
330
6F
100
AcDbEntity
  8
0
100
AcDbBlockEnd
  0
BLOCK
  5
75
330
74
100
AcDbEntity
  8
0
100
AcDbBlockBegin
  2
FXTIP_WHITEDOT_E
 70
     0
 71
     0
 10
0.0
 20
0.0
 30
0.0
  3
FXTIP_WHITEDOT_E
  1

  0
LINE
  5
77
330
74
100
AcDbEntity
  8
0
  6
Continuous
 62
     0
370
    -2
100
AcDbLine
 10
0.0
 20
0.0
 30
0.0
 11
-1.0
 21
0.0
 31
0.0
  0
CIRCLE
  5
78
330
74
100
AcDbEntity
  8
0
  6
Continuous
 62
     0
370
    -2
100
AcDbCircle
 10
0.0
 20
0.0
 30
0.0
 40
0.5
  0
ENDBLK
  5
76
330
74
100
AcDbEntity
  8
0
100
AcDbBlockEnd
  0
BLOCK
  5
7A
330
79
100
AcDbEntity
  8
0
100
AcDbBlockBegin
  2
FXTIP_UPARROW_S
 70
     0
 71
     0
 10
0.0
 20
0.0
 30
0.0
  3
FXTIP_UPARROW_S
  1

  0
LINE
  5
7C
330
79
100
AcDbEntity
  8
0
  6
Continuous
 62
     0
370
    -2
100
AcDbLine
 10
0.0
 20
0.0
 30
0.0
 11
-1.0
 21
0.0000000000000001
 31
0.0
  0
LINE
  5
7D
330
79
100
AcDbEntity
  8
0
  6
Continuous
 62
     0
370
    -2
100
AcDbLine
 10
0.0
 20
0.0
 30
0.0
 11
-0.9914448613738104
 21
-0.1305261922200515
 31
0.0
  0
ENDBLK
  5
7B
330
79
100
AcDbEntity
  8
0
100
AcDbBlockEnd
  0
BLOCK
  5
7F
330
7E
100
AcDbEntity
  8
0
100
AcDbBlockBegin
  2
FXTIP_UPARROW_E
 70
     0
 71
     0
 10
0.0
 20
0.0
 30
0.0
  3
FXTIP_UPARROW_E
  1

  0
LINE
  5
81
330
7E
100
AcDbEntity
  8
0
  6
Continuous
 62
     0
370
    -2
100
AcDbLine
 10
0.0
 20
0.0
 30
0.0
 11
-1.0
 21
0.0
 31
0.0
  0
LINE
  5
82
330
7E
100
AcDbEntity
  8
0
  6
Continuous
 62
     0
370
    -2
100
AcDbLine
 10
0.0
 20
0.0
 30
0.0
 11
-0.9914448613738104
 21
0.1305261922200516
 31
0.0
  0
ENDBLK
  5
80
330
7E
100
AcDbEntity
  8
0
100
AcDbBlockEnd
  0
BLOCK
  5
84
330
83
100
AcDbEntity
  8
0
100
AcDbBlockBegin
  2
FXTIP_DOWNARROW_S
 70
     0
 71
     0
 10
0.0
 20
0.0
 30
0.0
  3
FXTIP_DOWNARROW_S
  1

  0
LINE
  5
86
330
83
100
AcDbEntity
  8
0
  6
Continuous
 62
     0
370
    -2
100
AcDbLine
 10
0.0
 20
0.0
 30
0.0
 11
-1.0
 21
0.0000000000000001
 31
0.0
  0
LINE
  5
87
330
83
100
AcDbEntity
  8
0
  6
Continuous
 62
     0
370
    -2
100
AcDbLine
 10
0.0
 20
0.0
 30
0.0
 11
-0.9914448613738104
 21
0.1305261922200517
 31
0.0
  0
ENDBLK
  5
85
330
83
100
AcDbEntity
  8
0
100
AcDbBlockEnd
  0
BLOCK
  5
89
330
88
100
AcDbEntity
  8
0
100
AcDbBlockBegin
  2
FXTIP_DOWNARROW_E
 70
     0
 71
     0
 10
0.0
 20
0.0
 30
0.0
  3
FXTIP_DOWNARROW_E
  1

  0
LINE
  5
8B
330
88
100
AcDbEntity
  8
0
  6
Continuous
 62
     0
370
    -2
100
AcDbLine
 10
0.0
 20
0.0
 30
0.0
 11
-1.0
 21
0.0
 31
0.0
  0
LINE
  5
8C
330
88
100
AcDbEntity
  8
0
  6
Continuous
 62
     0
370
    -2
100
AcDbLine
 10
0.0
 20
0.0
 30
0.0
 11
-0.9914448613738104
 21
-0.1305261922200516
 31
0.0
  0
ENDBLK
  5
8A
330
88
100
AcDbEntity
  8
0
100
AcDbBlockEnd
  0
BLOCK
  5
8E
330
8D
100
AcDbEntity
  8
0
100
AcDbBlockBegin
  2
FXTIP_BLACKTRIANGLE_S
 70
     0
 71
     0
 10
0.0
 20
0.0
 30
0.0
  3
FXTIP_BLACKTRIANGLE_S
  1

  0
LINE
  5
90
330
8D
100
AcDbEntity
  8
0
  6
Continuous
 62
     0
370
    -2
100
AcDbLine
 10
0.0
 20
0.0
 30
0.0
 11
-1.0
 21
0.0000000000000001
 31
0.0
  0
SOLID
  5
91
330
8D
100
AcDbEntity
  8
0
  6
Continuous
 62
     0
370
    -2
100
AcDbTrace
 10
0.0
 20
0.0
 30
0.0
 11
-0.9914448613738104
 21
-0.1305261922200515
 31
0.0
 12
-0.9914448613738104
 22
0.1305261922200517
 32
0.0
 13
-0.9914448613738104
 23
0.1305261922200517
 33
0.0
  0
ENDBLK
  5
8F
330
8D
100
AcDbEntity
  8
0
100
AcDbBlockEnd
  0
BLOCK
  5
93
330
92
100
AcDbEntity
  8
0
100
AcDbBlockBegin
  2
FXTIP_BLACKTRIANGLE_E
 70
     0
 71
     0
 10
0.0
 20
0.0
 30
0.0
  3
FXTIP_BLACKTRIANGLE_E
  1

  0
LINE
  5
95
330
92
100
AcDbEntity
  8
0
  6
Continuous
 62
     0
370
    -2
100
AcDbLine
 10
0.0
 20
0.0
 30
0.0
 11
-1.0
 21
0.0
 31
0.0
  0
SOLID
  5
96
330
92
100
AcDbEntity
  8
0
  6
Continuous
 62
     0
370
    -2
100
AcDbTrace
 10
0.0
 20
0.0
 30
0.0
 11
-0.9914448613738104
 21
0.1305261922200516
 31
0.0
 12
-0.9914448613738104
 22
-0.1305261922200516
 32
0.0
 13
-0.9914448613738104
 23
-0.1305261922200516
 33
0.0
  0
ENDBLK
  5
94
330
92
100
AcDbEntity
  8
0
100
AcDbBlockEnd
  0
BLOCK
  5
9D
330
9C
100
AcDbEntity
  8
0
100
AcDbBlockBegin
  2
BLKF021
 70
     0
 71
     0
 10
0.0
 20
0.0
 30
0.0
  3
BLKF021
  1

  0
CIRCLE
  5
A0
330
9C
100
AcDbEntity
  8
用紙-作図レイヤ
  6
Continuous
 62
     3
370
    35
100
AcDbCircle
 10
285.1635720800516
 20
150.4255055700538
 30
0.0
 40
1.5
  0
ARC
  5
A1
330
9C
100
AcDbEntity
  8
用紙-作図レイヤ
  6
Continuous
 62
     3
370
    35
100
AcDbCircle
 10
285.163576170561
 20
150.4255092516381
 30
0.0
 40
0.8333333333355235
100
AcDbArc
 50
28.39841561750001
 51
61.60157709756999
  0
ARC
  5
A2
330
9C
100
AcDbEntity
  8
用紙-作図レイヤ
  6
Continuous
 62
     3
370
    35
100
AcDbCircle
 10
285.163576170561
 20
150.4255092516381
 30
0.0
 40
0.8333333333355235
100
AcDbArc
 50
118.39842176444
 51
151.60158324452
  0
ARC
  5
A3
330
9C
100
AcDbEntity
  8
用紙-作図レイヤ
  6
Continuous
 62
     3
370
    35
100
AcDbCircle
 10
285.163576170561
 20
150.4255092516381
 30
0.0
 40
0.8333333333355235
100
AcDbArc
 50
208.3984379293
 51
241.60157208862
  0
ARC
  5
A4
330
9C
100
AcDbEntity
  8
用紙-作図レイヤ
  6
Continuous
 62
     3
370
    35
100
AcDbCircle
 10
285.163576170561
 20
150.4255092516381
 30
0.0
 40
0.8333333333355235
100
AcDbArc
 50
298.39840628283
 51
331.60159508366
  0
LINE
  5
A5
330
9C
100
AcDbEntity
  8
用紙-作図レイヤ
  6
Continuous
 62
     3
370
    35
100
AcDbLine
 10
284.6584936688148
 20
150.2571484177227
 30
0.0
 11
284.4305255171386
 21
150.0291802660464
 31
0.0
  0
LINE
  5
A6
330
9C
100
AcDbEntity
  8
用紙-作図レイヤ
  6
Continuous
 62
     3
370
    35
100
AcDbLine
 10
285.3319370044763
 20
150.9305917533842
 30
0.0
 11
285.5599051561555
 21
151.1585599050634
 31
0.0
  0
LINE
  5
A7
330
9C
100
AcDbEntity
  8
用紙-作図レイヤ
  6
Continuous
 62
     3
370
    35
100
AcDbLine
 10
284.9952153366456
 20
149.9204267498919
 30
0.0
 11
284.7672471849693
 21
149.6924585982157
 31
0.0
  0
LINE
  5
A8
330
9C
100
AcDbEntity
  8
用紙-作図レイヤ
  6
Continuous
 62
     3
370
    35
100
AcDbLine
 10
285.6686586723072
 20
150.5938700855534
 30
0.0
 11
285.8966268239864
 21
150.8218382372326
 31
0.0
  0
LINE
  5
A9
330
9C
100
AcDbEntity
  8
用紙-作図レイヤ
  6
Continuous
 62
     3
370
    35
100
AcDbLine
 10
284.9952241127502
 20
150.9305829772797
 30
0.0
 11
284.767238408859
 21
151.1585686811707
 31
0.0
  0
LINE
  5
AA
330
9C
100
AcDbEntity
  8
用紙-作図レイヤ
  6
Continuous
 62
     3
370
    35
100
AcDbLine
 10
285.6686498961998
 20
150.2571571938302
 30
0.0
 11
285.8966356000909
 21
150.0291714899389
 31
0.0
  0
LINE
  5
AB
330
9C
100
AcDbEntity
  8
用紙-作図レイヤ
  6
Continuous
 62
     3
370
    35
100
AcDbLine
 10
284.6585024449195
 20
150.593861309449
 30
0.0
 11
284.4305167410283
 21
150.8218470133401
 31
0.0
  0
LINE
  5
AC
330
9C
100
AcDbEntity
  8
用紙-作図レイヤ
  6
Continuous
 62
     3
370
    35
100
AcDbLine
 10
285.331928228369
 20
149.9204355259993
 30
0.0
 11
285.5599139322602
 21
149.6924498221082
 31
0.0
  0
ARC
  5
AD
330
9C
100
AcDbEntity
  8
用紙-作図レイヤ
  6
Continuous
 62
     3
370
    35
100
AcDbCircle
 10
284.490141611004
 20
150.4255004755336
 30
0.0
 40
0.2380952415588361
100
AcDbArc
 50
-44.99999931674999
 51
44.94269107039996
  0
ARC
  5
AE
330
9C
100
AcDbEntity
  8
用紙-作図レイヤ
  6
Continuous
 62
     3
370
    35
100
AcDbCircle
 10
285.1635673944536
 20
149.7520746920839
 30
0.0
 40
0.2380952415588361
100
AcDbArc
 50
45.00001001791304
 51
135.000016164857
  0
ARC
  5
AF
330
9C
100
AcDbEntity
  8
用紙-作図レイヤ
  6
Continuous
 62
     3
370
    35
100
AcDbCircle
 10
285.8370107301151
 20
150.4255180277455
 30
0.0
 40
0.2380952415588361
100
AcDbArc
 50
135.000016164857
 51
225.00000500896
  0
ARC
  5
B0
330
9C
100
AcDbEntity
  8
用紙-作図レイヤ
  6
Continuous
 62
     3
370
    35
100
AcDbCircle
 10
285.1635849466655
 20
151.0989438111951
 30
0.0
 40
0.2380952415588361
100
AcDbArc
 50
225.00000500896
 51
314.94265441497
  0
ENDBLK
  5
9E
330
9C
100
AcDbEntity
  8
0
100
AcDbBlockEnd
  0
BLOCK
  5
B2
330
B1
100
AcDbEntity
  8
0
100
AcDbBlockBegin
  2
BLKF022
 70
     0
 71
     0
 10
0.0
 20
0.0
 30
0.0
  3
BLKF022
  1

  0
CIRCLE
  5
B5
330
B1
100
AcDbEntity
  8
用紙-作図レイヤ
  6
Continuous
 62
     3
370
    35
100
AcDbCircle
 10
297.8914941414097
 20
163.1534276314114
 30
0.0
 40
1.5
  0
ARC
  5
B6
330
B1
100
AcDbEntity
  8
用紙-作図レイヤ
  6
Continuous
 62
     3
370
    35
100
AcDbCircle
 10
297.8914982319192
 20
163.1534313129957
 30
0.0
 40
0.8333333333355235
100
AcDbArc
 50
28.39841561750001
 51
61.60157709756999
  0
ARC
  5
B7
330
B1
100
AcDbEntity
  8
用紙-作図レイヤ
  6
Continuous
 62
     3
370
    35
100
AcDbCircle
 10
297.8914982319192
 20
163.1534313129957
 30
0.0
 40
0.8333333333355235
100
AcDbArc
 50
118.39842176444
 51
151.60158324452
  0
ARC
  5
B8
330
B1
100
AcDbEntity
  8
用紙-作図レイヤ
  6
Continuous
 62
     3
370
    35
100
AcDbCircle
 10
297.8914982319192
 20
163.1534313129957
 30
0.0
 40
0.8333333333355235
100
AcDbArc
 50
208.3984379293
 51
241.60157208862
  0
ARC
  5
B9
330
B1
100
AcDbEntity
  8
用紙-作図レイヤ
  6
Continuous
 62
     3
370
    35
100
AcDbCircle
 10
297.8914982319192
 20
163.1534313129957
 30
0.0
 40
0.8333333333355235
100
AcDbArc
 50
298.39840628283
 51
331.60159508366
  0
LINE
  5
BA
330
B1
100
AcDbEntity
  8
用紙-作図レイヤ
  6
Continuous
 62
     3
370
    35
100
AcDbLine
 10
297.3864157301729
 20
162.9850704790803
 30
0.0
 11
297.1584475784966
 21
162.757102327404
 31
0.0
  0
LINE
  5
BB
330
B1
100
AcDbEntity
  8
用紙-作図レイヤ
  6
Continuous
 62
     3
370
    35
100
AcDbLine
 10
298.0598590658345
 20
163.6585138147418
 30
0.0
 11
298.2878272175136
 21
163.886481966421
 31
0.0
  0
LINE
  5
BC
330
B1
100
AcDbEntity
  8
用紙-作図レイヤ
  6
Continuous
 62
     3
370
    35
100
AcDbLine
 10
297.7231373980037
 20
162.6483488112495
 30
0.0
 11
297.4951692463274
 21
162.4203806595733
 31
0.0
  0
LINE
  5
BD
330
B1
100
AcDbEntity
  8
用紙-作図レイヤ
  6
Continuous
 62
     3
370
    35
100
AcDbLine
 10
298.3965807336652
 20
163.321792146911
 30
0.0
 11
298.6245488853444
 21
163.5497602985903
 31
0.0
  0
LINE
  5
BE
330
B1
100
AcDbEntity
  8
用紙-作図レイヤ
  6
Continuous
 62
     3
370
    35
100
AcDbLine
 10
297.7231461741083
 20
163.6585050386373
 30
0.0
 11
297.4951604702171
 21
163.8864907425284
 31
0.0
  0
LINE
  5
BF
330
B1
100
AcDbEntity
  8
用紙-作図レイヤ
  6
Continuous
 62
     3
370
    35
100
AcDbLine
 10
298.3965719575579
 20
162.9850792551877
 30
0.0
 11
298.624557661449
 21
162.7570935512965
 31
0.0
  0
LINE
  5
C0
330
B1
100
AcDbEntity
  8
用紙-作図レイヤ
  6
Continuous
 62
     3
370
    35
100
AcDbLine
 10
297.3864245062775
 20
163.3217833708065
 30
0.0
 11
297.1584388023864
 21
163.5497690746976
 31
0.0
  0
LINE
  5
C1
330
B1
100
AcDbEntity
  8
用紙-作図レイヤ
  6
Continuous
 62
     3
370
    35
100
AcDbLine
 10
298.059850289727
 20
162.6483575873569
 30
0.0
 11
298.2878359936183
 21
162.4203718834658
 31
0.0
  0
ARC
  5
C2
330
B1
100
AcDbEntity
  8
用紙-作図レイヤ
  6
Continuous
 62
     3
370
    35
100
AcDbCircle
 10
297.2180636723621
 20
163.1534225368911
 30
0.0
 40
0.2380952415588361
100
AcDbArc
 50
-44.99999931674999
 51
44.94269107039996
  0
ARC
  5
C3
330
B1
100
AcDbEntity
  8
用紙-作図レイヤ
  6
Continuous
 62
     3
370
    35
100
AcDbCircle
 10
297.8914894558117
 20
162.4799967534416
 30
0.0
 40
0.2380952415588361
100
AcDbArc
 50
45.00001001791304
 51
135.000016164857
  0
ARC
  5
C4
330
B1
100
AcDbEntity
  8
用紙-作図レイヤ
  6
Continuous
 62
     3
370
    35
100
AcDbCircle
 10
298.5649327914732
 20
163.1534400891031
 30
0.0
 40
0.2380952415588361
100
AcDbArc
 50
135.000016164857
 51
225.00000500896
  0
ARC
  5
C5
330
B1
100
AcDbEntity
  8
用紙-作図レイヤ
  6
Continuous
 62
     3
370
    35
100
AcDbCircle
 10
297.8915070080236
 20
163.8268658725526
 30
0.0
 40
0.2380952415588361
100
AcDbArc
 50
225.00000500896
 51
314.94265441497
  0
ENDBLK
  5
B3
330
B1
100
AcDbEntity
  8
0
100
AcDbBlockEnd
  0
BLOCK
  5
D7
330
D6
100
AcDbEntity
  8
0
100
AcDbBlockBegin
  2
BLKF023
 70
     0
 71
     0
 10
0.0
 20
0.0
 30
0.0
  3
BLKF023
  1

  0
CIRCLE
  5
DA
330
D6
100
AcDbEntity
  8
用紙-作図レイヤ
  6
Continuous
 62
     3
370
    35
100
AcDbCircle
 10
144.1089895940136
 20
156.7894736842105
 30
0.0
 40
2.0
  0
ARC
  5
DB
330
D6
100
AcDbEntity
  8
用紙-作図レイヤ
  6
Continuous
 62
     3
370
    35
100
AcDbCircle
 10
144.1089822664134
 20
156.7894740697489
 30
0.0
 40
1.111111111114031
100
AcDbArc
 50
163.3984156175
 51
196.60157709757
  0
ARC
  5
DC
330
D6
100
AcDbEntity
  8
用紙-作図レイヤ
  6
Continuous
 62
     3
370
    35
100
AcDbCircle
 10
144.1089822664134
 20
156.7894740697489
 30
0.0
 40
1.111111111114031
100
AcDbArc
 50
253.39842176444
 51
286.60158324452
  0
ARC
  5
DD
330
D6
100
AcDbEntity
  8
用紙-作図レイヤ
  6
Continuous
 62
     3
370
    35
100
AcDbCircle
 10
144.1089822664134
 20
156.7894740697489
 30
0.0
 40
1.111111111114031
100
AcDbArc
 50
-16.60156207069997
 51
16.60157208862002
  0
ARC
  5
DE
330
D6
100
AcDbEntity
  8
用紙-作図レイヤ
  6
Continuous
 62
     3
370
    35
100
AcDbCircle
 10
144.1089822664134
 20
156.7894740697489
 30
0.0
 40
1.111111111114031
100
AcDbArc
 50
73.39840628283002
 51
106.60159508366
  0
LINE
  5
DF
330
D6
100
AcDbEntity
  8
用紙-作図レイヤ
  6
Continuous
 62
     3
370
    35
100
AcDbLine
 10
144.7439107322683
 20
156.4720098368213
 30
0.0
 11
145.1737716014546
 21
156.4720098368213
 31
0.0
  0
LINE
  5
E0
330
D6
100
AcDbEntity
  8
用紙-作図レイヤ
  6
Continuous
 62
     3
370
    35
100
AcDbLine
 10
143.4740538005585
 20
156.4720098368214
 30
0.0
 11
143.0441929313667
 21
156.4720098368213
 31
0.0
  0
LINE
  5
E1
330
D6
100
AcDbEntity
  8
用紙-作図レイヤ
  6
Continuous
 62
     3
370
    35
100
AcDbLine
 10
144.7439107322683
 20
157.1069383026762
 30
0.0
 11
145.1737716014546
 21
157.1069383026762
 31
0.0
  0
LINE
  5
E2
330
D6
100
AcDbEntity
  8
用紙-作図レイヤ
  6
Continuous
 62
     3
370
    35
100
AcDbLine
 10
143.4740538005585
 20
157.1069383026763
 30
0.0
 11
143.0441929313667
 21
157.1069383026762
 31
0.0
  0
LINE
  5
E3
330
D6
100
AcDbEntity
  8
用紙-作図レイヤ
  6
Continuous
 62
     3
370
    35
100
AcDbLine
 10
143.7915180334859
 20
156.1545621522754
 30
0.0
 11
143.7915180334859
 21
155.7246681863154
 31
0.0
  0
LINE
  5
E4
330
D6
100
AcDbEntity
  8
用紙-作図レイヤ
  6
Continuous
 62
     3
370
    35
100
AcDbLine
 10
143.7915180334859
 20
157.4243859872169
 30
0.0
 11
143.7915180334859
 21
157.8542799531769
 31
0.0
  0
LINE
  5
E5
330
D6
100
AcDbEntity
  8
用紙-作図レイヤ
  6
Continuous
 62
     3
370
    35
100
AcDbLine
 10
144.4264464993408
 20
156.1545621522754
 30
0.0
 11
144.4264464993408
 21
155.7246681863154
 31
0.0
  0
LINE
  5
E6
330
D6
100
AcDbEntity
  8
用紙-作図レイヤ
  6
Continuous
 62
     3
370
    35
100
AcDbLine
 10
144.4264464993408
 20
157.4243859872169
 30
0.0
 11
144.4264464993408
 21
157.8542799531769
 31
0.0
  0
ARC
  5
E7
330
D6
100
AcDbEntity
  8
用紙-作図レイヤ
  6
Continuous
 62
     3
370
    35
100
AcDbCircle
 10
144.7439107322683
 20
156.1545621522754
 30
0.0
 40
0.317460322078448
100
AcDbArc
 50
90.00000068325
 51
179.9426910704
  0
ARC
  5
E8
330
D6
100
AcDbEntity
  8
用紙-作図レイヤ
  6
Continuous
 62
     3
370
    35
100
AcDbCircle
 10
144.7439107322683
 20
157.4243859872169
 30
0.0
 40
0.317460322078448
100
AcDbArc
 50
180.000010017913
 51
270.000016164857
  0
ARC
  5
E9
330
D6
100
AcDbEntity
  8
用紙-作図レイヤ
  6
Continuous
 62
     3
370
    35
100
AcDbCircle
 10
143.4740538005585
 20
157.4243859872169
 30
0.0
 40
0.317460322078448
100
AcDbArc
 50
-89.99998383514298
 51
0.0000050089599985
  0
ARC
  5
EA
330
D6
100
AcDbEntity
  8
用紙-作図レイヤ
  6
Continuous
 62
     3
370
    35
100
AcDbCircle
 10
143.4740538005585
 20
156.1545621522754
 30
0.0
 40
0.317460322078448
100
AcDbArc
 50
0.0000050089599881
 51
89.94265441496998
  0
ENDBLK
  5
D8
330
D6
100
AcDbEntity
  8
0
100
AcDbBlockEnd
  0
BLOCK
  5
EC
330
EB
100
AcDbEntity
  8
0
100
AcDbBlockBegin
  2
BLKF024
 70
     0
 71
     0
 10
0.0
 20
0.0
 30
0.0
  3
BLKF024
  1

  0
CIRCLE
  5
EF
330
EB
100
AcDbEntity
  8
用紙-作図レイヤ
  6
Continuous
 62
     3
370
    35
100
AcDbCircle
 10
125.1089895940136
 20
156.7894736842105
 30
0.0
 40
2.0
  0
ARC
  5
F0
330
EB
100
AcDbEntity
  8
用紙-作図レイヤ
  6
Continuous
 62
     3
370
    35
100
AcDbCircle
 10
125.1089969216138
 20
156.7894740697489
 30
0.0
 40
1.111111111114031
100
AcDbArc
 50
-16.60157709756994
 51
16.60158438249985
  0
ARC
  5
F1
330
EB
100
AcDbEntity
  8
用紙-作図レイヤ
  6
Continuous
 62
     3
370
    35
100
AcDbCircle
 10
125.1089969216138
 20
156.7894740697489
 30
0.0
 40
1.111111111114031
100
AcDbArc
 50
253.3984167554804
 51
286.6015782355599
  0
ARC
  5
F2
330
EB
100
AcDbEntity
  8
用紙-作図レイヤ
  6
Continuous
 62
     3
370
    35
100
AcDbCircle
 10
125.1089969216138
 20
156.7894740697489
 30
0.0
 40
1.111111111114031
100
AcDbArc
 50
163.3984279113801
 51
196.6015620707002
  0
ARC
  5
F3
330
EB
100
AcDbEntity
  8
用紙-作図レイヤ
  6
Continuous
 62
     3
370
    35
100
AcDbCircle
 10
125.1089969216138
 20
156.7894740697489
 30
0.0
 40
1.111111111114031
100
AcDbArc
 50
73.39840491633976
 51
106.6015937171697
  0
LINE
  5
F4
330
EB
100
AcDbEntity
  8
用紙-作図レイヤ
  6
Continuous
 62
     3
370
    35
100
AcDbLine
 10
124.4740684557589
 20
156.4720098368213
 30
0.0
 11
124.0442075865726
 21
156.4720098368213
 31
0.0
  0
LINE
  5
F5
330
EB
100
AcDbEntity
  8
用紙-作図レイヤ
  6
Continuous
 62
     3
370
    35
100
AcDbLine
 10
125.7439253874686
 20
156.4720098368214
 30
0.0
 11
126.1737862566604
 21
156.4720098368213
 31
0.0
  0
LINE
  5
F6
330
EB
100
AcDbEntity
  8
用紙-作図レイヤ
  6
Continuous
 62
     3
370
    35
100
AcDbLine
 10
124.4740684557589
 20
157.1069383026762
 30
0.0
 11
124.0442075865726
 21
157.1069383026762
 31
0.0
  0
LINE
  5
F7
330
EB
100
AcDbEntity
  8
用紙-作図レイヤ
  6
Continuous
 62
     3
370
    35
100
AcDbLine
 10
125.7439253874686
 20
157.1069383026763
 30
0.0
 11
126.1737862566604
 21
157.1069383026762
 31
0.0
  0
LINE
  5
F8
330
EB
100
AcDbEntity
  8
用紙-作図レイヤ
  6
Continuous
 62
     3
370
    35
100
AcDbLine
 10
125.4264611545412
 20
156.1545621522754
 30
0.0
 11
125.4264611545412
 21
155.7246681863154
 31
0.0
  0
LINE
  5
F9
330
EB
100
AcDbEntity
  8
用紙-作図レイヤ
  6
Continuous
 62
     3
370
    35
100
AcDbLine
 10
125.4264611545412
 20
157.4243859872169
 30
0.0
 11
125.4264611545412
 21
157.8542799531769
 31
0.0
  0
LINE
  5
FA
330
EB
100
AcDbEntity
  8
用紙-作図レイヤ
  6
Continuous
 62
     3
370
    35
100
AcDbLine
 10
124.7915326886863
 20
156.1545621522754
 30
0.0
 11
124.7915326886863
 21
155.7246681863154
 31
0.0
  0
LINE
  5
FB
330
EB
100
AcDbEntity
  8
用紙-作図レイヤ
  6
Continuous
 62
     3
370
    35
100
AcDbLine
 10
124.7915326886863
 20
157.4243859872169
 30
0.0
 11
124.7915326886863
 21
157.8542799531769
 31
0.0
  0
ARC
  5
FC
330
EB
100
AcDbEntity
  8
用紙-作図レイヤ
  6
Continuous
 62
     3
370
    35
100
AcDbCircle
 10
124.4740684557589
 20
156.1545621522754
 30
0.0
 40
0.317460322078448
100
AcDbArc
 50
0.0573089296002109
 51
89.99999931675029
  0
ARC
  5
FD
330
EB
100
AcDbEntity
  8
用紙-作図レイヤ
  6
Continuous
 62
     3
370
    35
100
AcDbCircle
 10
124.4740684557589
 20
157.4243859872169
 30
0.0
 40
0.317460322078448
100
AcDbArc
 50
269.9999838351424
 51
359.9999899820864
  0
ARC
  5
FE
330
EB
100
AcDbEntity
  8
用紙-作図レイヤ
  6
Continuous
 62
     3
370
    35
100
AcDbCircle
 10
125.7439253874687
 20
157.4243859872169
 30
0.0
 40
0.317460322078448
100
AcDbArc
 50
179.9999949910394
 51
269.9999838351424
  0
ARC
  5
FF
330
EB
100
AcDbEntity
  8
用紙-作図レイヤ
  6
Continuous
 62
     3
370
    35
100
AcDbCircle
 10
125.7439253874687
 20
156.1545621522754
 30
0.0
 40
0.317460322078448
100
AcDbArc
 50
90.05734558502937
 51
179.9999949910394
  0
ENDBLK
  5
ED
330
EB
100
AcDbEntity
  8
0
100
AcDbBlockEnd
  0
BLOCK
  5
106
330
105
100
AcDbEntity
  8
0
100
AcDbBlockBegin
  2
BLKF025
 70
     0
 71
     0
 10
0.0
 20
0.0
 30
0.0
  3
BLKF025
  1

  0
LINE
  5
109
330
105
100
AcDbEntity
  8
用紙-作図レイヤ
  6
Continuous
 62
     7
370
    13
100
AcDbLine
 10
222.0832744421081
 20
101.9650335046504
 30
0.0
 11
222.0832744421081
 21
83.46503350465039
 31
0.0
  0
LINE
  5
10A
330
105
100
AcDbEntity
  8
用紙-作図レイヤ
  6
Continuous
 62
     7
370
    13
100
AcDbLine
 10
190.0832744421081
 20
101.9650335046503
 30
0.0
 11
190.0832744421081
 21
83.46503350465039
 31
0.0
  0
ARC
  5
10B
330
105
100
AcDbEntity
  8
用紙-作図レイヤ
  6
Continuous
 62
     7
370
    13
100
AcDbCircle
 10
221.0832744421081
 20
83.46503350465039
 30
0.0
 40
1.0
100
AcDbArc
 50
270.0
 51
360.0
  0
ENDBLK
  5
107
330
105
100
AcDbEntity
  8
0
100
AcDbBlockEnd
  0
ENDSEC
  0
SECTION
  2
ENTITIES
  0
LINE
  5
9A
330
1F
100
AcDbEntity
  8
用紙-作図レイヤ
  6
DASHDOT
 62
     7
370
    13
100
AcDbLine
 10
262.5832744421081
 20
156.7894736842105
 30
0.0
 11
173.8832744421081
 21
156.7894736842105
 31
0.0
  0
CIRCLE
  5
9B
330
1F
100
AcDbEntity
  8
用紙-作図レイヤ
  6
Continuous
 62
     3
370
    35
100
AcDbCircle
 10
291.5275310971766
 20
156.7894736842107
 30
0.0
 40
12.5
  0
INSERT
  5
9F
330
1F
100
AcDbEntity
  8
0
100
AcDbBlockReference
  2
BLKF021
 10
0.0
 20
0.0
 30
0.0
  0
INSERT
  5
B4
330
1F
100
AcDbEntity
  8
0
100
AcDbBlockReference
  2
BLKF022
 10
0.0
 20
0.0
 30
0.0
  0
CIRCLE
  5
C6
330
1F
100
AcDbEntity
  8
用紙-作図レイヤ
  6
Continuous
 62
     3
370
    35
100
AcDbCircle
 10
291.5275310971766
 20
156.7894736842107
 30
0.0
 40
4.0
  0
LINE
  5
C7
330
1F
100
AcDbEntity
  8
用紙-作図レイヤ
  6
Continuous
 62
     3
370
    35
100
AcDbLine
 10
293.5275310971766
 20
156.7894736842107
 30
0.0
 11
295.0275310971765
 21
156.7894736842107
 31
0.0
  0
ARC
  5
C8
330
1F
100
AcDbEntity
  8
用紙-作図レイヤ
  6
Continuous
 62
     3
370
    35
100
AcDbCircle
 10
178.9666077754414
 20
162.5394736842106
 30
0.0
 40
2.083333333333302
100
AcDbArc
 50
106.2602047083104
 51
201.1001960240942
  0
ARC
  5
C9
330
1F
100
AcDbEntity
  8
用紙-作図レイヤ
  6
Continuous
 62
     3
370
    35
100
AcDbCircle
 10
178.9666077754414
 20
151.0394736842105
 30
0.0
 40
2.083333333333302
100
AcDbArc
 50
106.2602047083076
 51
253.7397952916895
  0
LINE
  5
CA
330
1F
100
AcDbEntity
  8
用紙-作図レイヤ
  6
DASHDOT
 62
     7
370
    13
100
AcDbLine
 10
134.6089895940136
 20
172.2894736842105
 30
0.0
 11
134.6089895940136
 21
141.2894736842104
 31
0.0
  0
LINE
  5
CB
330
1F
100
AcDbEntity
  8
用紙-作図レイヤ
  6
DASHDOT
 62
     7
370
    13
100
AcDbLine
 10
119.1089895940136
 20
156.7894736842105
 30
0.0
 11
150.1089895940136
 21
156.7894736842105
 31
0.0
  0
LINE
  5
CC
330
1F
100
AcDbEntity
  8
用紙-作図レイヤ
  6
DASHDOT
 62
     7
370
    13
100
AcDbLine
 10
144.1089895940136
 20
161.2894736842105
 30
0.0
 11
144.1089895940136
 21
152.2894736842105
 31
0.0
  0
LINE
  5
CD
330
1F
100
AcDbEntity
  8
用紙-作図レイヤ
  6
DASHDOT
 62
     7
370
    13
100
AcDbLine
 10
125.1089895940136
 20
161.2894736842105
 30
0.0
 11
125.1089895940136
 21
152.2894736842105
 31
0.0
  0
LINE
  5
CE
330
1F
100
AcDbEntity
  8
用紙-作図レイヤ
  6
DASHDOT
 62
     7
370
    13
100
AcDbLine
 10
139.6089895940136
 20
165.5894736842105
 30
0.0
 11
139.6089895940136
 21
159.4894736842105
 31
0.0
  0
LINE
  5
CF
330
1F
100
AcDbEntity
  8
用紙-作図レイヤ
  6
DASHDOT
 62
     7
370
    13
100
AcDbLine
 10
136.3589895940136
 20
162.5394736842105
 30
0.0
 11
142.8589895940136
 21
162.5394736842105
 31
0.0
  0
LINE
  5
D0
330
1F
100
AcDbEntity
  8
用紙-作図レイヤ
  6
DASHDOT
 62
     7
370
    13
100
AcDbLine
 10
129.6089895940136
 20
165.5894736842105
 30
0.0
 11
129.6089895940136
 21
159.4894736842105
 31
0.0
  0
LINE
  5
D1
330
1F
100
AcDbEntity
  8
用紙-作図レイヤ
  6
DASHDOT
 62
     7
370
    13
100
AcDbLine
 10
132.8589895940136
 20
162.5394736842105
 30
0.0
 11
126.3589895940136
 21
162.5394736842105
 31
0.0
  0
LINE
  5
D2
330
1F
100
AcDbEntity
  8
用紙-作図レイヤ
  6
DASHDOT
 62
     7
370
    13
100
AcDbLine
 10
139.6089895940136
 20
147.9894736842105
 30
0.0
 11
139.6089895940136
 21
154.0894736842105
 31
0.0
  0
LINE
  5
D3
330
1F
100
AcDbEntity
  8
用紙-作図レイヤ
  6
DASHDOT
 62
     7
370
    13
100
AcDbLine
 10
136.3589895940136
 20
151.0394736842105
 30
0.0
 11
142.8589895940136
 21
151.0394736842105
 31
0.0
  0
LINE
  5
D4
330
1F
100
AcDbEntity
  8
用紙-作図レイヤ
  6
DASHDOT
 62
     7
370
    13
100
AcDbLine
 10
129.6089895940136
 20
147.9894736842105
 30
0.0
 11
129.6089895940136
 21
154.0894736842105
 31
0.0
  0
LINE
  5
D5
330
1F
100
AcDbEntity
  8
用紙-作図レイヤ
  6
DASHDOT
 62
     7
370
    13
100
AcDbLine
 10
132.8589895940136
 20
151.0394736842105
 30
0.0
 11
126.3589895940136
 21
151.0394736842105
 31
0.0
  0
INSERT
  5
D9
330
1F
100
AcDbEntity
  8
0
100
AcDbBlockReference
  2
BLKF023
 10
0.0
 20
0.0
 30
0.0
  0
INSERT
  5
EE
330
1F
100
AcDbEntity
  8
0
100
AcDbBlockReference
  2
BLKF024
 10
0.0
 20
0.0
 30
0.0
  0
CIRCLE
  5
100
330
1F
100
AcDbEntity
  8
用紙-作図レイヤ
  6
Continuous
 62
     3
370
    35
100
AcDbCircle
 10
129.6089895940136
 20
162.5394736842105
 30
0.0
 40
2.0
  0
CIRCLE
  5
101
330
1F
100
AcDbEntity
  8
用紙-作図レイヤ
  6
Continuous
 62
     3
370
    35
100
AcDbCircle
 10
139.6089895940136
 20
151.0394736842105
 30
0.0
 40
2.0
  0
LINE
  5
102
330
1F
100
AcDbEntity
  8
用紙-作図レイヤ
  6
DASHDOT
 62
     7
370
    13
100
AcDbLine
 10
262.5832744421082
 20
89.46503350465038
 30
0.0
 11
173.8832744421081
 21
89.46503350465039
 31
0.0
  0
ARC
  5
103
330
1F
100
AcDbEntity
  8
用紙-作図レイヤ
  6
Continuous
 62
     3
370
    35
100
AcDbCircle
 10
178.9666077754414
 20
83.71503350465034
 30
0.0
 40
2.083333333333302
100
AcDbArc
 50
158.8998039759058
 51
253.7397952916895
  0
ARC
  5
104
330
1F
100
AcDbEntity
  8
用紙-作図レイヤ
  6
Continuous
 62
     3
370
    35
100
AcDbCircle
 10
178.9666077754414
 20
95.21503350465039
 30
0.0
 40
2.083333333333302
100
AcDbArc
 50
106.2602047083104
 51
253.7397952916924
  0
INSERT
  5
108
330
1F
100
AcDbEntity
  8
0
100
AcDbBlockReference
  2
BLKF025
 10
0.0
 20
0.0
 30
0.0
  0
LINE
  5
10C
330
1F
100
AcDbEntity
  8
用紙-作図レイヤ
  6
Continuous
 62
     7
370
    13
100
AcDbLine
 10
221.0832744421081
 20
82.46503350465039
 30
0.0
 11
191.0832744421081
 21
82.46503350465039
 31
0.0
  0
ARC
  5
10D
330
1F
100
AcDbEntity
  8
用紙-作図レイヤ
  6
Continuous
 62
     7
370
    13
100
AcDbCircle
 10
191.0832744421081
 20
83.46503350465039
 30
0.0
 40
1.0
100
AcDbArc
 50
180.0
 51
270.0
  0
LINE
  5
10E
330
1F
100
AcDbEntity
  8
用紙-作図レイヤ
  6
Continuous
 62
     3
370
    35
100
AcDbLine
 10
248.5832744421083
 20
98.52777633741269
 30
0.0
 11
246.5832744421079
 21
98.52777633741269
 31
0.0
  0
LINE
  5
10F
330
1F
100
AcDbEntity
  8
用紙-作図レイヤ
  6
Continuous
 62
     3
370
    35
100
AcDbLine
 10
248.5832744421082
 20
95.69934921266649
 30
0.0
 11
246.5832744421079
 21
95.69934921266648
 31
0.0
  0
LINE
  5
110
330
1F
100
AcDbEntity
  8
用紙-作図レイヤ
  6
Continuous
 62
     3
370
    35
100
AcDbLine
 10
246.5832744421079
 20
98.52777633741269
 30
0.0
 11
246.5832744421079
 21
95.69934921266648
 31
0.0
  0
LINE
  5
111
330
1F
100
AcDbEntity
  8
用紙-作図レイヤ
  6
Continuous
 62
     3
370
    35
100
AcDbLine
 10
259.9832744421083
 20
91.4650335046504
 30
0.0
 11
259.9832744421083
 21
87.46503350465042
 31
0.0
  0
LINE
  5
112
330
1F
100
AcDbEntity
  8
用紙-作図レイヤ
  6
Continuous
 62
     3
370
    35
100
AcDbLine
 10
259.9832744421083
 20
87.4650335046504
 30
0.0
 11
252.9832744421082
 21
87.4650335046504
 31
0.0
  0
LINE
  5
113
330
1F
100
AcDbEntity
  8
用紙-作図レイヤ
  6
Continuous
 62
     3
370
    35
100
AcDbLine
 10
259.9832744421083
 20
91.4650335046504
 30
0.0
 11
252.9832744421081
 21
91.4650335046504
 31
0.0
  0
LINE
  5
114
330
1F
100
AcDbEntity
  8
用紙-作図レイヤ
  6
Continuous
 62
     3
370
    35
100
AcDbLine
 10
248.5832744421082
 20
100.4650335046504
 30
0.0
 11
229.8832744421082
 21
100.4650335046504
 31
0.0
  0
LINE
  5
115
330
1F
100
AcDbEntity
  8
用紙-作図レイヤ
  6
Continuous
 62
     3
370
    35
100
AcDbLine
 10
248.5832744421082
 20
78.4650335046504
 30
0.0
 11
229.8832744421082
 21
78.46503350465039
 31
0.0
  0
LINE
  5
116
330
1F
100
AcDbEntity
  8
用紙-作図レイヤ
  6
Continuous
 62
     3
370
    35
100
AcDbLine
 10
252.9832744421081
 20
92.96503350465035
 30
0.0
 11
252.9832744421082
 21
85.9650335046504
 31
0.0
  0
LINE
  5
117
330
1F
100
AcDbEntity
  8
用紙-作図レイヤ
  6
Continuous
 62
     3
370
    35
100
AcDbLine
 10
249.3832744421082
 20
96.4650335046504
 30
0.0
 11
249.3832744421082
 21
82.4650335046504
 31
0.0
  0
LINE
  5
118
330
1F
100
AcDbEntity
  8
用紙-作図レイヤ
  6
Continuous
 62
     3
370
    35
100
AcDbLine
 10
248.5832744421082
 20
100.4650335046504
 30
0.0
 11
248.5832744421082
 21
78.4650335046504
 31
0.0
  0
LINE
  5
119
330
1F
100
AcDbEntity
  8
用紙-作図レイヤ
  6
Continuous
 62
     3
370
    35
100
AcDbLine
 10
248.5832744421082
 20
82.4650335046504
 30
0.0
 11
249.3832744421082
 21
82.4650335046504
 31
0.0
  0
LINE
  5
11A
330
1F
100
AcDbEntity
  8
用紙-作図レイヤ
  6
Continuous
 62
     3
370
    35
100
AcDbLine
 10
248.5832744421082
 20
96.4650335046504
 30
0.0
 11
249.3832744421082
 21
96.4650335046504
 31
0.0
  0
LINE
  5
11B
330
1F
100
AcDbEntity
  8
用紙-作図レイヤ
  6
Continuous
 62
     3
370
    35
100
AcDbLine
 10
252.4832744421082
 20
93.46503350465035
 30
0.0
 11
249.3832744421082
 21
93.4650335046504
 31
0.0
  0
LINE
  5
11C
330
1F
100
AcDbEntity
  8
用紙-作図レイヤ
  6
Continuous
 62
     3
370
    35
100
AcDbLine
 10
252.4832744421082
 20
85.4650335046504
 30
0.0
 11
249.3832744421082
 21
85.4650335046504
 31
0.0
  0
LINE
  5
11D
330
1F
100
AcDbEntity
  8
用紙-作図レイヤ
  6
Continuous
 62
     3
370
    35
100
AcDbLine
 10
229.8832744421082
 20
100.4650335046504
 30
0.0
 11
229.8832744421082
 21
78.46503350465039
 31
0.0
  0
LINE
  5
11E
330
1F
100
AcDbEntity
  8
用紙-作図レイヤ
  6
Continuous
 62
     3
370
    35
100
AcDbLine
 10
231.8832744421082
 20
100.4650335046504
 30
0.0
 11
231.8832744421081
 21
78.46503350465039
 31
0.0
  0
LINE
  5
11F
330
1F
100
AcDbEntity
  8
用紙-作図レイヤ
  6
Continuous
 62
     3
370
    35
100
AcDbLine
 10
252.4832744421082
 20
85.4650335046504
 30
0.0
 11
252.9832744421082
 21
85.9650335046504
 31
0.0
  0
LINE
  5
120
330
1F
100
AcDbEntity
  8
用紙-作図レイヤ
  6
Continuous
 62
     3
370
    35
100
AcDbLine
 10
252.4832744421082
 20
93.46503350465035
 30
0.0
 11
252.9832744421081
 21
92.96503350465035
 31
0.0
  0
LINE
  5
121
330
1F
100
AcDbEntity
  8
用紙-作図レイヤ
  6
Continuous
 62
     3
370
    35
100
AcDbLine
 10
252.4832744421082
 20
85.4650335046504
 30
0.0
 11
252.4832744421082
 21
93.4650335046504
 31
0.0
  0
ARC
  5
122
330
1F
100
AcDbEntity
  8
用紙-作図レイヤ
  6
Continuous
 62
     3
370
    35
100
AcDbCircle
 10
246.5832744421079
 20
95.8344593412058
 30
0.0
 40
1.494533180569571
100
AcDbArc
 50
-5.18678585116561
 51
89.99999999999568
  0
LINE
  5
123
330
1F
100
AcDbEntity
  8
用紙-作図レイヤ
  6
Continuous
 62
     3
370
    35
100
AcDbLine
 10
178.3832744421081
 20
84.46503350465039
 30
0.0
 11
176.8832744421081
 21
84.46503350465039
 31
0.0
  0
LINE
  5
124
330
1F
100
AcDbEntity
  8
用紙-作図レイヤ
  6
Continuous
 62
     3
370
    35
100
AcDbLine
 10
176.8832744421081
 20
84.46503350465039
 30
0.0
 11
176.8832744421081
 21
94.46503350465039
 31
0.0
  0
LINE
  5
125
330
1F
100
AcDbEntity
  8
用紙-作図レイヤ
  6
Continuous
 62
     3
370
    35
100
AcDbLine
 10
177.0229571438263
 20
94.46503350465039
 30
0.0
 11
176.8832744421081
 21
94.46503350465039
 31
0.0
  0
LINE
  5
126
330
1F
100
AcDbEntity
  8
用紙-作図レイヤ
  6
Continuous
 62
     3
370
    35
100
AcDbLine
 10
182.7832744421081
 20
101.9650335046503
 30
0.0
 11
182.7832744421081
 21
76.96503350465039
 31
0.0
  0
LINE
  5
127
330
1F
100
AcDbEntity
  8
用紙-作図レイヤ
  6
Continuous
 62
     3
370
    35
100
AcDbLine
 10
178.3832744421081
 20
77.46503350465045
 30
0.0
 11
178.3832744421081
 21
101.4650335046503
 31
0.0
  0
LINE
  5
128
330
1F
100
AcDbEntity
  8
用紙-作図レイヤ
  6
Continuous
 62
     3
370
    35
100
AcDbLine
 10
178.8832744421081
 20
76.96503350465045
 30
0.0
 11
178.3832744421081
 21
77.46503350465045
 31
0.0
  0
LINE
  5
129
330
1F
100
AcDbEntity
  8
用紙-作図レイヤ
  6
Continuous
 62
     3
370
    35
100
AcDbLine
 10
178.3832744421081
 20
101.4650335046503
 30
0.0
 11
178.8832744421081
 21
101.9650335046503
 31
0.0
  0
LINE
  5
12A
330
1F
100
AcDbEntity
  8
用紙-作図レイヤ
  6
Continuous
 62
     3
370
    35
100
AcDbLine
 10
178.8832744421081
 20
76.96503350465045
 30
0.0
 11
178.8832744421081
 21
101.9650335046503
 31
0.0
  0
LINE
  5
12B
330
1F
100
AcDbEntity
  8
用紙-作図レイヤ
  6
Continuous
 62
     3
370
    35
100
AcDbLine
 10
182.7832744421081
 20
101.9650335046503
 30
0.0
 11
178.8832744421081
 21
101.9650335046503
 31
0.0
  0
LINE
  5
12C
330
1F
100
AcDbEntity
  8
用紙-作図レイヤ
  6
Continuous
 62
     3
370
    35
100
AcDbLine
 10
182.7832744421081
 20
76.96503350465039
 30
0.0
 11
178.8832744421081
 21
76.96503350465045
 31
0.0
  0
LINE
  5
12D
330
1F
100
AcDbEntity
  8
用紙-作図レイヤ
  6
Continuous
 62
     7
370
    13
100
AcDbLine
 10
234.8832744421081
 20
100.4650335046504
 30
0.0
 11
234.8832744421081
 21
98.01486793992113
 31
0.0
  0
LINE
  5
12E
330
1F
100
AcDbEntity
  8
用紙-作図レイヤ
  6
Continuous
 62
     7
370
    13
100
AcDbLine
 10
244.8832744421081
 20
100.4650335046504
 30
0.0
 11
244.8832744421081
 21
98.01486793992113
 31
0.0
  0
LINE
  5
12F
330
1F
100
AcDbEntity
  8
用紙-作図レイヤ
  6
Continuous
 62
     7
370
    13
100
AcDbLine
 10
243.8832744421082
 20
97.01486793992113
 30
0.0
 11
235.8832744421081
 21
97.01486793992113
 31
0.0
  0
ARC
  5
130
330
1F
100
AcDbEntity
  8
用紙-作図レイヤ
  6
Continuous
 62
     7
370
    13
100
AcDbCircle
 10
235.8832744421081
 20
98.01486793992113
 30
0.0
 40
1.0
100
AcDbArc
 50
180.0
 51
270.0
  0
ARC
  5
131
330
1F
100
AcDbEntity
  8
用紙-作図レイヤ
  6
Continuous
 62
     7
370
    13
100
AcDbCircle
 10
243.8832744421082
 20
98.01486793992113
 30
0.0
 40
1.0
100
AcDbArc
 50
270.0
 51
360.0
  0
LINE
  5
132
330
1F
100
AcDbEntity
  8
用紙-作図レイヤ
  6
DASHDOT
 62
     7
370
    13
100
AcDbLine
 10
262.5832744421081
 20
224.1139138637707
 30
0.0
 11
173.8832744421081
 21
224.1139138637707
 31
0.0
  0
ARC
  5
133
330
1F
100
AcDbEntity
  8
用紙-作図レイヤ
  6
Continuous
 62
     3
370
    35
100
AcDbCircle
 10
178.9666077754414
 20
229.8639138637708
 30
0.0
 40
2.083333333333302
100
AcDbArc
 50
106.2602047083106
 51
201.1001960240942
  0
ARC
  5
134
330
1F
100
AcDbEntity
  8
用紙-作図レイヤ
  6
Continuous
 62
     3
370
    35
100
AcDbCircle
 10
178.9666077754414
 20
218.3639138637707
 30
0.0
 40
2.083333333333302
100
AcDbArc
 50
106.2602047083071
 51
253.7397952916895
  0
LINE
  5
135
330
1F
100
AcDbEntity
  8
用紙-作図レイヤ
  6
Continuous
 62
     7
370
    13
100
AcDbLine
 10
221.0832744421081
 20
231.1139138637707
 30
0.0
 11
191.0832744421081
 21
231.1139138637707
 31
0.0
  0
ARC
  5
136
330
1F
100
AcDbEntity
  8
用紙-作図レイヤ
  6
Continuous
 62
     7
370
    13
100
AcDbCircle
 10
191.0832744421081
 20
230.1139138637708
 30
0.0
 40
1.0
100
AcDbArc
 50
90.0
 51
180.0
  0
LINE
  5
137
330
1F
100
AcDbEntity
  8
用紙-作図レイヤ
  6
Continuous
 62
     3
370
    35
100
AcDbLine
 10
248.5832744421082
 20
215.0511710310084
 30
0.0
 11
246.5832744421078
 21
215.0511710310084
 31
0.0
  0
LINE
  5
138
330
1F
100
AcDbEntity
  8
用紙-作図レイヤ
  6
Continuous
 62
     3
370
    35
100
AcDbLine
 10
248.5832744421082
 20
217.8795981557546
 30
0.0
 11
246.5832744421078
 21
217.8795981557546
 31
0.0
  0
LINE
  5
139
330
1F
100
AcDbEntity
  8
用紙-作図レイヤ
  6
Continuous
 62
     3
370
    35
100
AcDbLine
 10
246.5832744421078
 20
215.0511710310084
 30
0.0
 11
246.5832744421078
 21
217.8795981557546
 31
0.0
  0
LINE
  5
13A
330
1F
100
AcDbEntity
  8
用紙-作図レイヤ
  6
Continuous
 62
     3
370
    35
100
AcDbLine
 10
259.9832744421082
 20
222.1139138637707
 30
0.0
 11
259.9832744421082
 21
226.1139138637707
 31
0.0
  0
LINE
  5
13B
330
1F
100
AcDbEntity
  8
用紙-作図レイヤ
  6
Continuous
 62
     3
370
    35
100
AcDbLine
 10
259.9832744421082
 20
226.1139138637707
 30
0.0
 11
252.9832744421082
 21
226.1139138637707
 31
0.0
  0
LINE
  5
13C
330
1F
100
AcDbEntity
  8
用紙-作図レイヤ
  6
Continuous
 62
     3
370
    35
100
AcDbLine
 10
259.9832744421082
 20
222.1139138637707
 30
0.0
 11
252.9832744421081
 21
222.1139138637707
 31
0.0
  0
LINE
  5
13D
330
1F
100
AcDbEntity
  8
用紙-作図レイヤ
  6
Continuous
 62
     3
370
    35
100
AcDbLine
 10
248.5832744421082
 20
213.1139138637707
 30
0.0
 11
229.8832744421082
 21
213.1139138637707
 31
0.0
  0
LINE
  5
13E
330
1F
100
AcDbEntity
  8
用紙-作図レイヤ
  6
Continuous
 62
     3
370
    35
100
AcDbLine
 10
248.5832744421081
 20
235.1139138637707
 30
0.0
 11
229.8832744421082
 21
235.1139138637707
 31
0.0
  0
LINE
  5
13F
330
1F
100
AcDbEntity
  8
用紙-作図レイヤ
  6
Continuous
 62
     3
370
    35
100
AcDbLine
 10
252.9832744421081
 20
220.6139138637707
 30
0.0
 11
252.9832744421082
 21
227.6139138637707
 31
0.0
  0
LINE
  5
140
330
1F
100
AcDbEntity
  8
用紙-作図レイヤ
  6
Continuous
 62
     3
370
    35
100
AcDbLine
 10
249.3832744421081
 20
217.1139138637707
 30
0.0
 11
249.3832744421081
 21
231.1139138637707
 31
0.0
  0
LINE
  5
141
330
1F
100
AcDbEntity
  8
用紙-作図レイヤ
  6
Continuous
 62
     3
370
    35
100
AcDbLine
 10
248.5832744421082
 20
213.1139138637707
 30
0.0
 11
248.5832744421081
 21
235.1139138637707
 31
0.0
  0
LINE
  5
142
330
1F
100
AcDbEntity
  8
用紙-作図レイヤ
  6
Continuous
 62
     3
370
    35
100
AcDbLine
 10
248.5832744421081
 20
231.1139138637707
 30
0.0
 11
249.3832744421081
 21
231.1139138637707
 31
0.0
  0
LINE
  5
143
330
1F
100
AcDbEntity
  8
用紙-作図レイヤ
  6
Continuous
 62
     3
370
    35
100
AcDbLine
 10
248.5832744421082
 20
217.1139138637707
 30
0.0
 11
249.3832744421081
 21
217.1139138637707
 31
0.0
  0
LINE
  5
144
330
1F
100
AcDbEntity
  8
用紙-作図レイヤ
  6
Continuous
 62
     3
370
    35
100
AcDbLine
 10
252.4832744421081
 20
220.1139138637708
 30
0.0
 11
249.3832744421081
 21
220.1139138637707
 31
0.0
  0
LINE
  5
145
330
1F
100
AcDbEntity
  8
用紙-作図レイヤ
  6
Continuous
 62
     3
370
    35
100
AcDbLine
 10
252.4832744421082
 20
228.1139138637707
 30
0.0
 11
249.3832744421081
 21
228.1139138637707
 31
0.0
  0
LINE
  5
146
330
1F
100
AcDbEntity
  8
用紙-作図レイヤ
  6
Continuous
 62
     3
370
    35
100
AcDbLine
 10
229.8832744421082
 20
213.1139138637707
 30
0.0
 11
229.8832744421082
 21
235.1139138637707
 31
0.0
  0
LINE
  5
147
330
1F
100
AcDbEntity
  8
用紙-作図レイヤ
  6
Continuous
 62
     3
370
    35
100
AcDbLine
 10
231.8832744421082
 20
213.1139138637707
 30
0.0
 11
231.8832744421081
 21
235.1139138637707
 31
0.0
  0
LINE
  5
148
330
1F
100
AcDbEntity
  8
用紙-作図レイヤ
  6
Continuous
 62
     3
370
    35
100
AcDbLine
 10
252.4832744421082
 20
228.1139138637707
 30
0.0
 11
252.9832744421082
 21
227.6139138637707
 31
0.0
  0
LINE
  5
149
330
1F
100
AcDbEntity
  8
用紙-作図レイヤ
  6
Continuous
 62
     3
370
    35
100
AcDbLine
 10
252.4832744421081
 20
220.1139138637708
 30
0.0
 11
252.9832744421081
 21
220.6139138637707
 31
0.0
  0
LINE
  5
14A
330
1F
100
AcDbEntity
  8
用紙-作図レイヤ
  6
Continuous
 62
     3
370
    35
100
AcDbLine
 10
252.4832744421082
 20
228.1139138637707
 30
0.0
 11
252.4832744421081
 21
220.1139138637707
 31
0.0
  0
ARC
  5
14B
330
1F
100
AcDbEntity
  8
用紙-作図レイヤ
  6
Continuous
 62
     3
370
    35
100
AcDbCircle
 10
246.5832744421079
 20
217.7444880272153
 30
0.0
 40
1.494533180569571
100
AcDbArc
 50
-89.99999999999568
 51
5.18678585116505
  0
LINE
  5
14C
330
1F
100
AcDbEntity
  8
用紙-作図レイヤ
  6
Continuous
 62
     3
370
    35
100
AcDbLine
 10
178.3832744421081
 20
229.1139138637707
 30
0.0
 11
176.8832744421081
 21
229.1139138637707
 31
0.0
  0
LINE
  5
14D
330
1F
100
AcDbEntity
  8
用紙-作図レイヤ
  6
Continuous
 62
     3
370
    35
100
AcDbLine
 10
176.8832744421081
 20
229.1139138637707
 30
0.0
 11
176.8832744421081
 21
219.1139138637707
 31
0.0
  0
LINE
  5
14E
330
1F
100
AcDbEntity
  8
用紙-作図レイヤ
  6
Continuous
 62
     3
370
    35
100
AcDbLine
 10
177.0229571438263
 20
219.1139138637707
 30
0.0
 11
176.8832744421081
 21
219.1139138637707
 31
0.0
  0
LINE
  5
14F
330
1F
100
AcDbEntity
  8
用紙-作図レイヤ
  6
Continuous
 62
     3
370
    35
100
AcDbLine
 10
182.7832744421081
 20
211.6139138637708
 30
0.0
 11
182.7832744421081
 21
236.6139138637707
 31
0.0
  0
LINE
  5
150
330
1F
100
AcDbEntity
  8
用紙-作図レイヤ
  6
Continuous
 62
     3
370
    35
100
AcDbLine
 10
178.3832744421081
 20
236.1139138637706
 30
0.0
 11
178.3832744421081
 21
212.1139138637708
 31
0.0
  0
LINE
  5
151
330
1F
100
AcDbEntity
  8
用紙-作図レイヤ
  6
Continuous
 62
     3
370
    35
100
AcDbLine
 10
178.8832744421081
 20
236.6139138637707
 30
0.0
 11
178.3832744421081
 21
236.1139138637706
 31
0.0
  0
LINE
  5
152
330
1F
100
AcDbEntity
  8
用紙-作図レイヤ
  6
Continuous
 62
     3
370
    35
100
AcDbLine
 10
178.3832744421081
 20
212.1139138637708
 30
0.0
 11
178.8832744421081
 21
211.6139138637708
 31
0.0
  0
LINE
  5
153
330
1F
100
AcDbEntity
  8
用紙-作図レイヤ
  6
Continuous
 62
     3
370
    35
100
AcDbLine
 10
178.8832744421081
 20
236.6139138637707
 30
0.0
 11
178.8832744421081
 21
211.6139138637708
 31
0.0
  0
LINE
  5
154
330
1F
100
AcDbEntity
  8
用紙-作図レイヤ
  6
Continuous
 62
     3
370
    35
100
AcDbLine
 10
182.7832744421081
 20
211.6139138637708
 30
0.0
 11
178.8832744421081
 21
211.6139138637708
 31
0.0
  0
LINE
  5
155
330
1F
100
AcDbEntity
  8
用紙-作図レイヤ
  6
Continuous
 62
     3
370
    35
100
AcDbLine
 10
182.7832744421081
 20
236.6139138637707
 30
0.0
 11
178.8832744421081
 21
236.6139138637707
 31
0.0
  0
LINE
  5
156
330
1F
100
AcDbEntity
  8
用紙-作図レイヤ
  6
Continuous
 62
     7
370
    13
100
AcDbLine
 10
234.8832744421081
 20
213.1139138637707
 30
0.0
 11
234.8832744421081
 21
215.5640794285
 31
0.0
  0
LINE
  5
157
330
1F
100
AcDbEntity
  8
用紙-作図レイヤ
  6
Continuous
 62
     7
370
    13
100
AcDbLine
 10
244.8832744421081
 20
213.1139138637707
 30
0.0
 11
244.8832744421081
 21
215.5640794285
 31
0.0
  0
LINE
  5
158
330
1F
100
AcDbEntity
  8
用紙-作図レイヤ
  6
Continuous
 62
     7
370
    13
100
AcDbLine
 10
243.8832744421082
 20
216.5640794285
 30
0.0
 11
235.8832744421081
 21
216.5640794285
 31
0.0
  0
ARC
  5
159
330
1F
100
AcDbEntity
  8
用紙-作図レイヤ
  6
Continuous
 62
     7
370
    13
100
AcDbCircle
 10
235.8832744421081
 20
215.5640794285
 30
0.0
 40
1.0
100
AcDbArc
 50
90.0
 51
180.0
  0
ARC
  5
15A
330
1F
100
AcDbEntity
  8
用紙-作図レイヤ
  6
Continuous
 62
     7
370
    13
100
AcDbCircle
 10
243.8832744421082
 20
215.5640794285
 30
0.0
 40
1.0
100
AcDbArc
 50
0.0
 51
90.0
  0
LINE
  5
15B
330
1F
100
AcDbEntity
  8
用紙-作図レイヤ
  6
Continuous
 62
     7
370
    13
100
AcDbLine
 10
222.0832744421081
 20
211.6139138637707
 30
0.0
 11
222.0832744421081
 21
230.1139138637708
 31
0.0
  0
LINE
  5
15C
330
1F
100
AcDbEntity
  8
用紙-作図レイヤ
  6
Continuous
 62
     7
370
    13
100
AcDbLine
 10
190.0832744421081
 20
211.6139138637708
 30
0.0
 11
190.0832744421081
 21
230.1139138637708
 31
0.0
  0
ARC
  5
15D
330
1F
100
AcDbEntity
  8
用紙-作図レイヤ
  6
Continuous
 62
     7
370
    13
100
AcDbCircle
 10
221.0832744421081
 20
230.1139138637708
 30
0.0
 40
1.0
100
AcDbArc
 50
0.0
 51
90.0
  0
LINE
  5
15E
330
1F
100
AcDbEntity
  8
用紙-作図レイヤ
  6
Continuous
 62
     3
370
    35
100
AcDbLine
 10
229.3832744421081
 20
236.6139138637707
 30
0.0
 11
182.7832744421081
 21
236.6139138637707
 31
0.0
  0
LINE
  5
15F
330
1F
100
AcDbEntity
  8
用紙-作図レイヤ
  6
Continuous
 62
     3
370
    35
100
AcDbLine
 10
229.3832744421082
 20
211.6139138637707
 30
0.0
 11
182.7832744421081
 21
211.6139138637707
 31
0.0
  0
LINE
  5
160
330
1F
100
AcDbEntity
  8
用紙-作図レイヤ
  6
Continuous
 62
     3
370
    35
100
AcDbLine
 10
229.8832744421082
 20
212.1139138637707
 30
0.0
 11
229.8832744421081
 21
236.1139138637707
 31
0.0
  0
LINE
  5
161
330
1F
100
AcDbEntity
  8
用紙-作図レイヤ
  6
Continuous
 62
     3
370
    35
100
AcDbLine
 10
229.8832744421082
 20
212.1139138637707
 30
0.0
 11
229.3832744421082
 21
211.6139138637707
 31
0.0
  0
LINE
  5
162
330
1F
100
AcDbEntity
  8
用紙-作図レイヤ
  6
Continuous
 62
     3
370
    35
100
AcDbLine
 10
229.8832744421081
 20
236.1139138637707
 30
0.0
 11
229.3832744421081
 21
236.6139138637707
 31
0.0
  0
LINE
  5
163
330
1F
100
AcDbEntity
  8
用紙-作図レイヤ
  6
Continuous
 62
     3
370
    35
100
AcDbLine
 10
229.3832744421082
 20
211.6139138637707
 30
0.0
 11
229.3832744421081
 21
236.6139138637707
 31
0.0
  0
LINE
  5
164
330
1F
100
AcDbEntity
  8
用紙-作図レイヤ
  6
Continuous
 62
     3
370
    35
100
AcDbLine
 10
227.3832744421082
 20
211.6139138637706
 30
0.0
 11
227.3832744421081
 21
236.6139138637707
 31
0.0
  0
ARC
  5
165
330
1F
100
AcDbEntity
  8
用紙-作図レイヤ
  6
Continuous
 62
     3
370
    35
100
AcDbCircle
 10
163.2643472255085
 20
211.7007758905058
 30
0.0
 40
6.163129856350173
100
AcDbArc
 50
89.99996255206304
 51
117.463892320746
  0
LINE
  5
166
330
1F
100
AcDbEntity
  8
用紙-作図レイヤ
  6
Continuous
 62
     3
370
    35
100
AcDbLine
 10
160.4219803071958
 20
217.1693296640919
 30
0.0
 11
159.9608064324924
 21
218.056631822412
 31
0.0
  0
ARC
  5
167
330
1F
100
AcDbEntity
  8
用紙-作図レイヤ
  6
Continuous
 62
     3
370
    35
100
AcDbCircle
 10
163.2643673554571
 20
211.7007758905058
 30
0.0
 40
7.163125960231111
100
AcDbArc
 50
90.00001984784299
 51
117.4638923207459
  0
ARC
  5
168
330
1F
100
AcDbEntity
  8
用紙-作図レイヤ
  6
Continuous
 62
     7
370
    13
100
AcDbCircle
 10
165.0210989731337
 20
218.6139013845525
 30
0.0
 40
0.5000045454722619
100
AcDbArc
 50
149.9999812760294
 51
209.999981276031
  0
ARC
  5
169
330
1F
100
AcDbEntity
  8
用紙-作図レイヤ
  6
Continuous
 62
     7
370
    13
100
AcDbCircle
 10
165.0210988097348
 20
218.1138968390803
 30
0.0
 40
0.5000045454722619
100
AcDbArc
 50
149.9999812760331
 51
209.9999812760346
  0
ARC
  5
16A
330
1F
100
AcDbEntity
  8
用紙-作図レイヤ
  6
Continuous
 62
     7
370
    13
100
AcDbCircle
 10
164.1550655329615
 20
218.1138971220957
 30
0.0
 40
0.5000045454722619
100
AcDbArc
 50
-30.00001872396695
 51
29.99998127603466
  0
ARC
  5
16B
330
1F
100
AcDbEntity
  8
用紙-作図レイヤ
  6
Continuous
 62
     7
370
    13
100
AcDbCircle
 10
163.4100813145195
 20
218.1139154779945
 30
0.0
 40
0.5000012987063653
100
AcDbArc
 50
-29.99965510144667
 51
30.00034489854924
  0
ARC
  5
16C
330
1F
100
AcDbEntity
  8
用紙-作図レイヤ
  6
Continuous
 62
     7
370
    13
100
AcDbCircle
 10
163.410078304704
 20
218.6139167766918
 30
0.0
 40
0.5000012987063653
100
AcDbArc
 50
-29.99965510144667
 51
30.00034489855576
  0
ARC
  5
16D
330
1F
100
AcDbEntity
  8
用紙-作図レイヤ
  6
Continuous
 62
     7
370
    13
100
AcDbCircle
 10
164.2761059578982
 20
218.6139219898445
 30
0.0
 40
0.5000012987063653
100
AcDbArc
 50
150.0003448985534
 51
210.0003448985493
  0
LINE
  5
16E
330
1F
100
AcDbEntity
  8
用紙-作図レイヤ
  6
Continuous
 62
     3
370
    35
100
AcDbLine
 10
163.2643673554571
 20
217.8639141884472
 30
0.0
 11
163.8430936362088
 21
217.8639141884472
 31
0.0
  0
LINE
  5
16F
330
1F
100
AcDbEntity
  8
用紙-作図レイヤ
  6
Continuous
 62
     3
370
    35
100
AcDbLine
 10
176.9441641785878
 20
217.8639141884473
 30
0.0
 11
164.5880822530476
 21
217.8639141884472
 31
0.0
  0
LINE
  5
170
330
1F
100
AcDbEntity
  8
用紙-作図レイヤ
  6
Continuous
 62
     3
370
    35
100
AcDbLine
 10
176.9441641785878
 20
218.8639135390941
 30
0.0
 11
164.5880822530476
 21
218.8639135390941
 31
0.0
  0
LINE
  5
171
330
1F
100
AcDbEntity
  8
用紙-作図レイヤ
  6
Continuous
 62
     3
370
    35
100
AcDbLine
 10
163.2643680946661
 20
218.8639135390941
 30
0.0
 11
163.8430943754178
 21
218.8639135390941
 31
0.0
  0
LINE
  5
172
330
1F
100
AcDbEntity
  8
用紙-作図レイヤ
  6
Continuous
 62
     7
370
    13
100
AcDbLine
 10
160.0570531235067
 20
217.8714524327013
 30
0.0
 11
158.8244206193563
 21
217.3531021263061
 31
0.0
  0
LINE
  5
173
330
1F
100
AcDbEntity
  8
用紙-作図レイヤ
  6
Continuous
 62
     7
370
    13
100
AcDbLine
 10
160.1511136897929
 20
217.6904791641434
 30
0.0
 11
158.9142232433628
 21
216.9938916302799
 31
0.0
  0
LINE
  5
174
330
1F
100
AcDbEntity
  8
用紙-作図レイヤ
  6
Continuous
 62
     7
370
    13
100
AcDbLine
 10
160.266615480605
 20
217.4682528111365
 30
0.0
 11
159.1772166422392
 21
216.6218521879671
 31
0.0
  0
ARC
  5
175
330
1F
100
AcDbEntity
  8
用紙-作図レイヤ
  6
Continuous
 62
     3
370
    35
100
AcDbCircle
 10
163.2643472255085
 20
236.5270518370356
 30
0.0
 40
6.163129856350173
100
AcDbArc
 50
242.536107679254
 51
270.000037447937
  0
LINE
  5
176
330
1F
100
AcDbEntity
  8
用紙-作図レイヤ
  6
Continuous
 62
     3
370
    35
100
AcDbLine
 10
160.4219803071958
 20
231.0584980634495
 30
0.0
 11
159.9608064324923
 21
230.1711959051293
 31
0.0
  0
ARC
  5
177
330
1F
100
AcDbEntity
  8
用紙-作図レイヤ
  6
Continuous
 62
     3
370
    35
100
AcDbCircle
 10
163.264367355457
 20
236.5270518370356
 30
0.0
 40
7.163125960231111
100
AcDbArc
 50
242.5361076792541
 51
269.999980152157
  0
ARC
  5
178
330
1F
100
AcDbEntity
  8
用紙-作図レイヤ
  6
Continuous
 62
     7
370
    13
100
AcDbCircle
 10
165.0210989731337
 20
229.6139263429888
 30
0.0
 40
0.5000045454722619
100
AcDbArc
 50
150.0000187239633
 51
210.0000187239706
  0
ARC
  5
179
330
1F
100
AcDbEntity
  8
用紙-作図レイヤ
  6
Continuous
 62
     7
370
    13
100
AcDbCircle
 10
165.0210988097347
 20
230.1139308884612
 30
0.0
 40
0.5000045454722619
100
AcDbArc
 50
150.000018723971
 51
210.0000187239669
  0
ARC
  5
17A
330
1F
100
AcDbEntity
  8
用紙-作図レイヤ
  6
Continuous
 62
     7
370
    13
100
AcDbCircle
 10
164.1550655329614
 20
230.1139306054457
 30
0.0
 40
0.5000045454722619
100
AcDbArc
 50
-29.99998127604026
 51
30.0000187239613
  0
ARC
  5
17B
330
1F
100
AcDbEntity
  8
用紙-作図レイヤ
  6
Continuous
 62
     7
370
    13
100
AcDbCircle
 10
163.4100813145195
 20
230.113912249547
 30
0.0
 40
0.5000012987063653
100
AcDbArc
 50
-30.00034489855489
 51
29.99965510144102
  0
ARC
  5
17C
330
1F
100
AcDbEntity
  8
用紙-作図レイヤ
  6
Continuous
 62
     7
370
    13
100
AcDbCircle
 10
163.410078304704
 20
229.6139109508497
 30
0.0
 40
0.5000012987063653
100
AcDbArc
 50
-30.00034489856136
 51
29.99965510144102
  0
ARC
  5
17D
330
1F
100
AcDbEntity
  8
用紙-作図レイヤ
  6
Continuous
 62
     7
370
    13
100
AcDbCircle
 10
164.2761059578982
 20
229.6139057376969
 30
0.0
 40
0.5000012987063653
100
AcDbArc
 50
149.9996551014564
 51
209.9996551014523
  0
LINE
  5
17E
330
1F
100
AcDbEntity
  8
用紙-作図レイヤ
  6
Continuous
 62
     3
370
    35
100
AcDbLine
 10
163.264367355457
 20
230.3639135390941
 30
0.0
 11
163.8430936362087
 21
230.3639135390941
 31
0.0
  0
LINE
  5
17F
330
1F
100
AcDbEntity
  8
用紙-作図レイヤ
  6
Continuous
 62
     3
370
    35
100
AcDbLine
 10
163.2643680946661
 20
229.3639141884474
 30
0.0
 11
163.8430943754178
 21
229.3639141884474
 31
0.0
  0
LINE
  5
180
330
1F
100
AcDbEntity
  8
用紙-作図レイヤ
  6
Continuous
 62
     3
370
    35
100
AcDbLine
 10
176.9441641785878
 20
230.3639135390942
 30
0.0
 11
164.5880822530476
 21
230.3639135390941
 31
0.0
  0
LINE
  5
181
330
1F
100
AcDbEntity
  8
用紙-作図レイヤ
  6
Continuous
 62
     3
370
    35
100
AcDbLine
 10
176.9441641785878
 20
229.3639141884474
 30
0.0
 11
164.5880822530475
 21
229.3639141884474
 31
0.0
  0
LINE
  5
182
330
1F
100
AcDbEntity
  8
用紙-作図レイヤ
  6
Continuous
 62
     7
370
    13
100
AcDbLine
 10
160.0570531235066
 20
230.3563752948402
 30
0.0
 11
158.8244206193563
 21
230.8747256012353
 31
0.0
  0
LINE
  5
183
330
1F
100
AcDbEntity
  8
用紙-作図レイヤ
  6
Continuous
 62
     7
370
    13
100
AcDbLine
 10
160.1511136897928
 20
230.537348563398
 30
0.0
 11
158.9142232433628
 21
231.2339360972615
 31
0.0
  0
LINE
  5
184
330
1F
100
AcDbEntity
  8
用紙-作図レイヤ
  6
Continuous
 62
     7
370
    13
100
AcDbLine
 10
160.2666154806049
 20
230.759574916405
 30
0.0
 11
159.1772166422391
 21
231.6059755395744
 31
0.0
  0
LINE
  5
185
330
1F
100
AcDbEntity
  8
用紙-作図レイヤ
  6
Continuous
 62
     3
370
    35
100
AcDbLine
 10
259.9832744421082
 20
158.7894736842106
 30
0.0
 11
259.9832744421082
 21
155.2894736842106
 31
0.0
  0
LINE
  5
186
330
1F
100
AcDbEntity
  8
用紙-作図レイヤ
  6
Continuous
 62
     3
370
    35
100
AcDbLine
 10
253.3832744421082
 20
154.7894736842106
 30
0.0
 11
252.9832744421082
 21
154.7894736842106
 31
0.0
  0
LINE
  5
187
330
1F
100
AcDbEntity
  8
用紙-作図レイヤ
  6
Continuous
 62
     3
370
    35
100
AcDbLine
 10
259.9832744421082
 20
158.7894736842106
 30
0.0
 11
252.9832744421081
 21
158.7894736842106
 31
0.0
  0
LINE
  5
188
330
1F
100
AcDbEntity
  8
用紙-作図レイヤ
  6
Continuous
 62
     3
370
    35
100
AcDbLine
 10
248.5832744421082
 20
167.7894736842106
 30
0.0
 11
229.8832744421082
 21
167.7894736842105
 31
0.0
  0
LINE
  5
189
330
1F
100
AcDbEntity
  8
用紙-作図レイヤ
  6
Continuous
 62
     3
370
    35
100
AcDbLine
 10
248.5832744421081
 20
145.7894736842106
 30
0.0
 11
229.8832744421082
 21
145.7894736842105
 31
0.0
  0
LINE
  5
18A
330
1F
100
AcDbEntity
  8
用紙-作図レイヤ
  6
Continuous
 62
     3
370
    35
100
AcDbLine
 10
259.9832744421082
 20
155.2894736842106
 30
0.0
 11
253.3832744421082
 21
155.2894736842106
 31
0.0
  0
LINE
  5
18B
330
1F
100
AcDbEntity
  8
用紙-作図レイヤ
  6
Continuous
 62
     3
370
    35
100
AcDbLine
 10
253.3832744421082
 20
155.2894736842106
 30
0.0
 11
253.3832744421082
 21
154.7894736842106
 31
0.0
  0
LINE
  5
18C
330
1F
100
AcDbEntity
  8
用紙-作図レイヤ
  6
Continuous
 62
     3
370
    35
100
AcDbLine
 10
252.9832744421081
 20
160.2894736842105
 30
0.0
 11
252.9832744421082
 21
153.2894736842106
 31
0.0
  0
LINE
  5
18D
330
1F
100
AcDbEntity
  8
用紙-作図レイヤ
  6
Continuous
 62
     3
370
    35
100
AcDbLine
 10
249.3832744421081
 20
163.7894736842106
 30
0.0
 11
249.3832744421081
 21
149.7894736842106
 31
0.0
  0
LINE
  5
18E
330
1F
100
AcDbEntity
  8
用紙-作図レイヤ
  6
Continuous
 62
     3
370
    35
100
AcDbLine
 10
248.5832744421082
 20
167.7894736842106
 30
0.0
 11
248.5832744421081
 21
145.7894736842106
 31
0.0
  0
LINE
  5
18F
330
1F
100
AcDbEntity
  8
用紙-作図レイヤ
  6
Continuous
 62
     3
370
    35
100
AcDbLine
 10
248.5832744421081
 20
149.7894736842106
 30
0.0
 11
249.3832744421081
 21
149.7894736842106
 31
0.0
  0
LINE
  5
190
330
1F
100
AcDbEntity
  8
用紙-作図レイヤ
  6
Continuous
 62
     3
370
    35
100
AcDbLine
 10
248.5832744421082
 20
163.7894736842106
 30
0.0
 11
249.3832744421081
 21
163.7894736842106
 31
0.0
  0
LINE
  5
191
330
1F
100
AcDbEntity
  8
用紙-作図レイヤ
  6
Continuous
 62
     3
370
    35
100
AcDbLine
 10
252.4832744421081
 20
160.7894736842105
 30
0.0
 11
249.3832744421081
 21
160.7894736842106
 31
0.0
  0
LINE
  5
192
330
1F
100
AcDbEntity
  8
用紙-作図レイヤ
  6
Continuous
 62
     3
370
    35
100
AcDbLine
 10
252.4832744421082
 20
152.7894736842106
 30
0.0
 11
249.3832744421081
 21
152.7894736842106
 31
0.0
  0
LINE
  5
193
330
1F
100
AcDbEntity
  8
用紙-作図レイヤ
  6
Continuous
 62
     3
370
    35
100
AcDbLine
 10
229.8832744421082
 20
167.7894736842105
 30
0.0
 11
229.8832744421082
 21
145.7894736842105
 31
0.0
  0
LINE
  5
194
330
1F
100
AcDbEntity
  8
用紙-作図レイヤ
  6
Continuous
 62
     3
370
    35
100
AcDbLine
 10
231.8832744421082
 20
167.7894736842105
 30
0.0
 11
231.8832744421081
 21
145.7894736842105
 31
0.0
  0
LINE
  5
195
330
1F
100
AcDbEntity
  8
用紙-作図レイヤ
  6
Continuous
 62
     3
370
    35
100
AcDbLine
 10
246.5832744421078
 20
150.5551579761947
 30
0.0
 11
246.5832744421081
 21
147.7267308514484
 31
0.0
  0
LINE
  5
196
330
1F
100
AcDbEntity
  8
用紙-作図レイヤ
  6
Continuous
 62
     3
370
    35
100
AcDbLine
 10
248.5832744421081
 20
147.7267308514485
 30
0.0
 11
246.5832744421081
 21
147.7267308514484
 31
0.0
  0
LINE
  5
197
330
1F
100
AcDbEntity
  8
用紙-作図レイヤ
  6
Continuous
 62
     3
370
    35
100
AcDbLine
 10
248.5832744421078
 20
150.5551579761947
 30
0.0
 11
246.5832744421078
 21
150.5551579761947
 31
0.0
  0
ARC
  5
198
330
1F
100
AcDbEntity
  8
用紙-作図レイヤ
  6
Continuous
 62
     3
370
    35
100
AcDbCircle
 10
246.5832744421079
 20
149.7267308514484
 30
0.0
 40
1.494533180569571
100
AcDbArc
 50
-89.99999999999562
 51
33.66285410056983
  0
LINE
  5
199
330
1F
100
AcDbEntity
  8
用紙-作図レイヤ
  6
Continuous
 62
     3
370
    35
100
AcDbLine
 10
252.4832744421082
 20
152.7894736842106
 30
0.0
 11
252.9832744421082
 21
153.2894736842106
 31
0.0
  0
LINE
  5
19A
330
1F
100
AcDbEntity
  8
用紙-作図レイヤ
  6
Continuous
 62
     3
370
    35
100
AcDbLine
 10
252.4832744421081
 20
160.7894736842105
 30
0.0
 11
252.9832744421081
 21
160.2894736842105
 31
0.0
  0
LINE
  5
19B
330
1F
100
AcDbEntity
  8
用紙-作図レイヤ
  6
Continuous
 62
     3
370
    35
100
AcDbLine
 10
252.4832744421082
 20
152.7894736842106
 30
0.0
 11
252.4832744421081
 21
160.7894736842106
 31
0.0
  0
LINE
  5
19C
330
1F
100
AcDbEntity
  8
用紙-作図レイヤ
  6
Continuous
 62
     3
370
    35
100
AcDbLine
 10
229.3832744421081
 20
144.2894736842105
 30
0.0
 11
182.7832744421081
 21
144.2894736842106
 31
0.0
  0
LINE
  5
19D
330
1F
100
AcDbEntity
  8
用紙-作図レイヤ
  6
Continuous
 62
     3
370
    35
100
AcDbLine
 10
229.3832744421082
 20
169.2894736842105
 30
0.0
 11
182.7832744421081
 21
169.2894736842105
 31
0.0
  0
LINE
  5
19E
330
1F
100
AcDbEntity
  8
用紙-作図レイヤ
  6
Continuous
 62
     3
370
    35
100
AcDbLine
 10
229.8832744421082
 20
168.7894736842105
 30
0.0
 11
229.8832744421081
 21
144.7894736842105
 31
0.0
  0
LINE
  5
19F
330
1F
100
AcDbEntity
  8
用紙-作図レイヤ
  6
Continuous
 62
     3
370
    35
100
AcDbLine
 10
229.8832744421082
 20
168.7894736842105
 30
0.0
 11
229.3832744421082
 21
169.2894736842105
 31
0.0
  0
LINE
  5
1A0
330
1F
100
AcDbEntity
  8
用紙-作図レイヤ
  6
Continuous
 62
     3
370
    35
100
AcDbLine
 10
229.8832744421081
 20
144.7894736842105
 30
0.0
 11
229.3832744421081
 21
144.2894736842105
 31
0.0
  0
LINE
  5
1A1
330
1F
100
AcDbEntity
  8
用紙-作図レイヤ
  6
Continuous
 62
     3
370
    35
100
AcDbLine
 10
229.3832744421082
 20
169.2894736842105
 30
0.0
 11
229.3832744421081
 21
144.2894736842105
 31
0.0
  0
LINE
  5
1A2
330
1F
100
AcDbEntity
  8
用紙-作図レイヤ
  6
Continuous
 62
     3
370
    35
100
AcDbLine
 10
227.3832744421082
 20
169.2894736842106
 30
0.0
 11
227.3832744421081
 21
144.2894736842105
 31
0.0
  0
TEXT
  5
1A3
330
1F
100
AcDbEntity
  8
用紙-作図レイヤ
  6
Continuous
 62
     7
370
    13
100
AcDbText
 10
207.8605499267578
 20
151.5394744873047
 30
0.0
 40
3.5
  1
N P
 50
90.0
 51
10.0
  7
FX_VECTOR
100
AcDbText
  0
LINE
  5
1A4
330
1F
100
AcDbEntity
  8
用紙-作図レイヤ
  6
Continuous
 62
     7
370
    13
100
AcDbLine
 10
222.0832744421081
 20
169.2894736842105
 30
0.0
 11
222.0832744421081
 21
144.2894736842105
 31
0.0
  0
LINE
  5
1A5
330
1F
100
AcDbEntity
  8
用紙-作図レイヤ
  6
Continuous
 62
     7
370
    13
100
AcDbLine
 10
190.0832744421081
 20
169.2894736842105
 30
0.0
 11
190.0832744421081
 21
144.2894736842106
 31
0.0
  0
LINE
  5
1A6
330
1F
100
AcDbEntity
  8
用紙-作図レイヤ
  6
Continuous
 62
     3
370
    35
100
AcDbLine
 10
178.3832744421081
 20
161.7894736842105
 30
0.0
 11
176.8832744421081
 21
161.7894736842105
 31
0.0
  0
LINE
  5
1A7
330
1F
100
AcDbEntity
  8
用紙-作図レイヤ
  6
Continuous
 62
     3
370
    35
100
AcDbLine
 10
176.8832744421081
 20
161.7894736842105
 30
0.0
 11
176.8832744421081
 21
151.7894736842105
 31
0.0
  0
LINE
  5
1A8
330
1F
100
AcDbEntity
  8
用紙-作図レイヤ
  6
Continuous
 62
     3
370
    35
100
AcDbLine
 10
177.0229571438263
 20
151.7894736842105
 30
0.0
 11
176.8832744421081
 21
151.7894736842105
 31
0.0
  0
LINE
  5
1A9
330
1F
100
AcDbEntity
  8
用紙-作図レイヤ
  6
Continuous
 62
     3
370
    35
100
AcDbLine
 10
182.7832744421081
 20
169.2894736842105
 30
0.0
 11
182.7832744421081
 21
144.2894736842105
 31
0.0
  0
LINE
  5
1AA
330
1F
100
AcDbEntity
  8
用紙-作図レイヤ
  6
Continuous
 62
     3
370
    35
100
AcDbLine
 10
178.3832744421081
 20
168.7894736842105
 30
0.0
 11
178.3832744421081
 21
144.7894736842106
 31
0.0
  0
LINE
  5
1AB
330
1F
100
AcDbEntity
  8
用紙-作図レイヤ
  6
Continuous
 62
     3
370
    35
100
AcDbLine
 10
178.8832744421081
 20
169.2894736842105
 30
0.0
 11
178.3832744421081
 21
168.7894736842105
 31
0.0
  0
LINE
  5
1AC
330
1F
100
AcDbEntity
  8
用紙-作図レイヤ
  6
Continuous
 62
     3
370
    35
100
AcDbLine
 10
178.3832744421081
 20
144.7894736842106
 30
0.0
 11
178.8832744421081
 21
144.2894736842106
 31
0.0
  0
LINE
  5
1AD
330
1F
100
AcDbEntity
  8
用紙-作図レイヤ
  6
Continuous
 62
     3
370
    35
100
AcDbLine
 10
178.8832744421081
 20
169.2894736842105
 30
0.0
 11
178.8832744421081
 21
144.2894736842106
 31
0.0
  0
LINE
  5
1AE
330
1F
100
AcDbEntity
  8
用紙-作図レイヤ
  6
Continuous
 62
     3
370
    35
100
AcDbLine
 10
182.7832744421081
 20
169.2894736842105
 30
0.0
 11
178.8832744421081
 21
169.2894736842105
 31
0.0
  0
LINE
  5
1AF
330
1F
100
AcDbEntity
  8
用紙-作図レイヤ
  6
Continuous
 62
     3
370
    35
100
AcDbLine
 10
182.7832744421081
 20
144.2894736842105
 30
0.0
 11
178.8832744421081
 21
144.2894736842106
 31
0.0
  0
ARC
  5
1B0
330
1F
100
AcDbEntity
  8
用紙-作図レイヤ
  6
Continuous
 62
     3
370
    35
100
AcDbCircle
 10
163.2643472255085
 20
169.2026116574754
 30
0.0
 40
6.163129856350173
100
AcDbArc
 50
242.536107679254
 51
270.000037447937
  0
LINE
  5
1B1
330
1F
100
AcDbEntity
  8
用紙-作図レイヤ
  6
Continuous
 62
     3
370
    35
100
AcDbLine
 10
160.4219803071958
 20
163.7340578838893
 30
0.0
 11
159.9608064324923
 21
162.8467557255692
 31
0.0
  0
ARC
  5
1B2
330
1F
100
AcDbEntity
  8
用紙-作図レイヤ
  6
Continuous
 62
     3
370
    35
100
AcDbCircle
 10
163.264367355457
 20
169.2026116574754
 30
0.0
 40
7.163125960231111
100
AcDbArc
 50
242.5361076792541
 51
269.999980152157
  0
ARC
  5
1B3
330
1F
100
AcDbEntity
  8
用紙-作図レイヤ
  6
Continuous
 62
     7
370
    13
100
AcDbCircle
 10
165.0210989731337
 20
162.2894861634287
 30
0.0
 40
0.5000045454722619
100
AcDbArc
 50
150.000018723969
 51
210.0000187239692
  0
ARC
  5
1B4
330
1F
100
AcDbEntity
  8
用紙-作図レイヤ
  6
Continuous
 62
     7
370
    13
100
AcDbCircle
 10
165.0210988097347
 20
162.789490708901
 30
0.0
 40
0.5000045454722619
100
AcDbArc
 50
150.0000187239668
 51
210.0000187239669
  0
ARC
  5
1B5
330
1F
100
AcDbEntity
  8
用紙-作図レイヤ
  6
Continuous
 62
     7
370
    13
100
AcDbCircle
 10
164.1550655329614
 20
162.7894904258855
 30
0.0
 40
0.5000045454722619
100
AcDbArc
 50
-29.99998127603324
 51
30.00001872396695
  0
ARC
  5
1B6
330
1F
100
AcDbEntity
  8
用紙-作図レイヤ
  6
Continuous
 62
     7
370
    13
100
AcDbCircle
 10
163.4100813145195
 20
162.7894720699868
 30
0.0
 40
0.5000012987063653
100
AcDbArc
 50
-30.00034489855067
 51
29.99965510144804
  0
ARC
  5
1B7
330
1F
100
AcDbEntity
  8
用紙-作図レイヤ
  6
Continuous
 62
     7
370
    13
100
AcDbCircle
 10
163.410078304704
 20
162.2894707712894
 30
0.0
 40
0.5000012987063653
100
AcDbArc
 50
-30.00034489855433
 51
29.99965510144804
  0
ARC
  5
1B8
330
1F
100
AcDbEntity
  8
用紙-作図レイヤ
  6
Continuous
 62
     7
370
    13
100
AcDbCircle
 10
164.2761059578982
 20
162.2894655581367
 30
0.0
 40
0.5000012987063653
100
AcDbArc
 50
149.9996551014493
 51
209.9996551014481
  0
LINE
  5
1B9
330
1F
100
AcDbEntity
  8
用紙-作図レイヤ
  6
Continuous
 62
     3
370
    35
100
AcDbLine
 10
163.264367355457
 20
163.039473359534
 30
0.0
 11
163.8430936362087
 21
163.039473359534
 31
0.0
  0
LINE
  5
1BA
330
1F
100
AcDbEntity
  8
用紙-作図レイヤ
  6
Continuous
 62
     3
370
    35
100
AcDbLine
 10
163.2643680946661
 20
162.0394740088871
 30
0.0
 11
163.8430943754178
 21
162.0394740088871
 31
0.0
  0
LINE
  5
1BB
330
1F
100
AcDbEntity
  8
用紙-作図レイヤ
  6
Continuous
 62
     3
370
    35
100
AcDbLine
 10
176.9441641785878
 20
163.039473359534
 30
0.0
 11
164.5880822530476
 21
163.039473359534
 31
0.0
  0
LINE
  5
1BC
330
1F
100
AcDbEntity
  8
用紙-作図レイヤ
  6
Continuous
 62
     3
370
    35
100
AcDbLine
 10
176.9441641785878
 20
162.0394740088871
 30
0.0
 11
164.5880822530475
 21
162.0394740088871
 31
0.0
  0
LINE
  5
1BD
330
1F
100
AcDbEntity
  8
用紙-作図レイヤ
  6
Continuous
 62
     7
370
    13
100
AcDbLine
 10
160.0570531235066
 20
163.03193511528
 30
0.0
 11
158.8244206193563
 21
163.5502854216751
 31
0.0
  0
LINE
  5
1BE
330
1F
100
AcDbEntity
  8
用紙-作図レイヤ
  6
Continuous
 62
     7
370
    13
100
AcDbLine
 10
160.1511136897928
 20
163.2129083838379
 30
0.0
 11
158.9142232433628
 21
163.9094959177013
 31
0.0
  0
LINE
  5
1BF
330
1F
100
AcDbEntity
  8
用紙-作図レイヤ
  6
Continuous
 62
     7
370
    13
100
AcDbLine
 10
160.2666154806049
 20
163.4351347368448
 30
0.0
 11
159.1772166422391
 21
164.2815353600142
 31
0.0
  0
ARC
  5
1C0
330
1F
100
AcDbEntity
  8
用紙-作図レイヤ
  6
Continuous
 62
     3
370
    35
100
AcDbCircle
 10
163.2643472255085
 20
144.3763357109456
 30
0.0
 40
6.163129856350173
100
AcDbArc
 50
89.99996255206301
 51
117.463892320746
  0
LINE
  5
1C1
330
1F
100
AcDbEntity
  8
用紙-作図レイヤ
  6
Continuous
 62
     3
370
    35
100
AcDbLine
 10
160.4219803071958
 20
149.8448894845318
 30
0.0
 11
159.9608064324924
 21
150.7321916428519
 31
0.0
  0
ARC
  5
1C2
330
1F
100
AcDbEntity
  8
用紙-作図レイヤ
  6
Continuous
 62
     3
370
    35
100
AcDbCircle
 10
163.2643673554571
 20
144.3763357109456
 30
0.0
 40
7.163125960231111
100
AcDbArc
 50
90.00001984784299
 51
117.463892320746
  0
ARC
  5
1C3
330
1F
100
AcDbEntity
  8
用紙-作図レイヤ
  6
Continuous
 62
     7
370
    13
100
AcDbCircle
 10
165.0210989731337
 20
151.2894612049924
 30
0.0
 40
0.5000045454722619
100
AcDbArc
 50
149.999981276031
 51
209.999981276031
  0
ARC
  5
1C4
330
1F
100
AcDbEntity
  8
用紙-作図レイヤ
  6
Continuous
 62
     7
370
    13
100
AcDbCircle
 10
165.0210988097348
 20
150.7894566595201
 30
0.0
 40
0.5000045454722619
100
AcDbArc
 50
149.999981276033
 51
209.999981276033
  0
ARC
  5
1C5
330
1F
100
AcDbEntity
  8
用紙-作図レイヤ
  6
Continuous
 62
     7
370
    13
100
AcDbCircle
 10
164.1550655329615
 20
150.7894569425355
 30
0.0
 40
0.5000045454722619
100
AcDbArc
 50
-30.0000187239669
 51
29.99998127603298
  0
ARC
  5
1C6
330
1F
100
AcDbEntity
  8
用紙-作図レイヤ
  6
Continuous
 62
     7
370
    13
100
AcDbCircle
 10
163.4100813145195
 20
150.7894752984343
 30
0.0
 40
0.5000012987063653
100
AcDbArc
 50
-29.9996551014487
 51
30.00034489855102
  0
ARC
  5
1C7
330
1F
100
AcDbEntity
  8
用紙-作図レイヤ
  6
Continuous
 62
     7
370
    13
100
AcDbCircle
 10
163.410078304704
 20
151.2894765971316
 30
0.0
 40
0.5000012987063653
100
AcDbArc
 50
-29.99965510144789
 51
30.00034489855398
  0
ARC
  5
1C8
330
1F
100
AcDbEntity
  8
用紙-作図レイヤ
  6
Continuous
 62
     7
370
    13
100
AcDbCircle
 10
164.2761059578982
 20
151.2894818102843
 30
0.0
 40
0.5000012987063653
100
AcDbArc
 50
150.000344898551
 51
210.000344898551
  0
LINE
  5
1C9
330
1F
100
AcDbEntity
  8
用紙-作図レイヤ
  6
Continuous
 62
     3
370
    35
100
AcDbLine
 10
163.2643673554571
 20
150.5394740088871
 30
0.0
 11
163.8430936362088
 21
150.5394740088871
 31
0.0
  0
LINE
  5
1CA
330
1F
100
AcDbEntity
  8
用紙-作図レイヤ
  6
Continuous
 62
     3
370
    35
100
AcDbLine
 10
176.9441641785878
 20
150.5394740088871
 30
0.0
 11
164.5880822530476
 21
150.5394740088871
 31
0.0
  0
LINE
  5
1CB
330
1F
100
AcDbEntity
  8
用紙-作図レイヤ
  6
Continuous
 62
     3
370
    35
100
AcDbLine
 10
176.9441641785878
 20
151.539473359534
 30
0.0
 11
164.5880822530476
 21
151.5394733595339
 31
0.0
  0
LINE
  5
1CC
330
1F
100
AcDbEntity
  8
用紙-作図レイヤ
  6
Continuous
 62
     3
370
    35
100
AcDbLine
 10
163.2643680946661
 20
151.5394733595339
 30
0.0
 11
163.8430943754178
 21
151.5394733595339
 31
0.0
  0
LINE
  5
1CD
330
1F
100
AcDbEntity
  8
用紙-作図レイヤ
  6
Continuous
 62
     7
370
    13
100
AcDbLine
 10
160.0570531235067
 20
150.5470122531411
 30
0.0
 11
158.8244206193563
 21
150.028661946746
 31
0.0
  0
LINE
  5
1CE
330
1F
100
AcDbEntity
  8
用紙-作図レイヤ
  6
Continuous
 62
     7
370
    13
100
AcDbLine
 10
160.1511136897929
 20
150.3660389845832
 30
0.0
 11
158.9142232433628
 21
149.6694514507198
 31
0.0
  0
LINE
  5
1CF
330
1F
100
AcDbEntity
  8
用紙-作図レイヤ
  6
Continuous
 62
     7
370
    13
100
AcDbLine
 10
160.266615480605
 20
150.1438126315763
 30
0.0
 11
159.1772166422392
 21
149.2974120084069
 31
0.0
  0
LINE
  5
1D0
330
1F
100
AcDbEntity
  8
用紙-作図レイヤ
  6
Continuous
 62
     7
370
    13
100
AcDbLine
 10
234.8832744421081
 20
163.7894736842106
 30
0.0
 11
234.8832744421081
 21
149.7894736842105
 31
0.0
  0
LINE
  5
1D1
330
1F
100
AcDbEntity
  8
用紙-作図レイヤ
  6
Continuous
 62
     7
370
    13
100
AcDbLine
 10
244.8832744421081
 20
163.7894736842106
 30
0.0
 11
244.8832744421081
 21
149.7894736842105
 31
0.0
  0
LINE
  5
1D2
330
1F
100
AcDbEntity
  8
用紙-作図レイヤ
  6
Continuous
 62
     7
370
    13
100
AcDbLine
 10
243.8832744421081
 20
164.7894736842106
 30
0.0
 11
235.8832744421081
 21
164.7894736842106
 31
0.0
  0
LINE
  5
1D3
330
1F
100
AcDbEntity
  8
用紙-作図レイヤ
  6
Continuous
 62
     7
370
    13
100
AcDbLine
 10
243.8832744421082
 20
148.7894736842105
 30
0.0
 11
235.8832744421081
 21
148.7894736842105
 31
0.0
  0
ARC
  5
1D4
330
1F
100
AcDbEntity
  8
用紙-作図レイヤ
  6
Continuous
 62
     7
370
    13
100
AcDbCircle
 10
243.8832744421081
 20
163.7894736842106
 30
0.0
 40
1.0
100
AcDbArc
 50
0.0
 51
90.0
  0
ARC
  5
1D5
330
1F
100
AcDbEntity
  8
用紙-作図レイヤ
  6
Continuous
 62
     7
370
    13
100
AcDbCircle
 10
235.8832744421081
 20
163.7894736842106
 30
0.0
 40
1.0
100
AcDbArc
 50
90.0
 51
180.0
  0
ARC
  5
1D6
330
1F
100
AcDbEntity
  8
用紙-作図レイヤ
  6
Continuous
 62
     7
370
    13
100
AcDbCircle
 10
235.8832744421081
 20
149.7894736842105
 30
0.0
 40
1.0
100
AcDbArc
 50
180.0
 51
270.0
  0
ARC
  5
1D7
330
1F
100
AcDbEntity
  8
用紙-作図レイヤ
  6
Continuous
 62
     7
370
    13
100
AcDbCircle
 10
243.8832744421082
 20
149.7894736842105
 30
0.0
 40
1.0
100
AcDbArc
 50
270.0
 51
360.0
  0
TEXT
  5
1D8
330
1F
100
AcDbEntity
  8
用紙-作図レイヤ
  6
Continuous
 62
     7
370
    13
100
AcDbText
 10
241.2972564697266
 20
151.5394744873047
 30
0.0
 40
3.5
  1
N P
 50
90.0
 51
10.0
  7
FX_VECTOR
100
AcDbText
  0
LINE
  5
1D9
330
1F
100
AcDbEntity
  8
用紙-作図レイヤ
  6
Continuous
 62
     3
370
    35
100
AcDbLine
 10
293.774002646492
 20
157.7199926674224
 30
0.0
 11
293.3752901621992
 21
157.5548405489409
 31
0.0
  0
LINE
  5
1DA
330
1F
100
AcDbEntity
  8
用紙-作図レイヤ
  6
Continuous
 62
     3
370
    35
100
AcDbLine
 10
289.6595770365408
 20
158.0974291984977
 30
0.0
 11
288.6604989421653
 21
158.7969912114396
 31
0.0
  0
LINE
  5
1DB
330
1F
100
AcDbEntity
  8
用紙-作図レイヤ
  6
Continuous
 62
     3
370
    35
100
AcDbLine
 10
289.6595770365406
 20
155.481518169924
 30
0.0
 11
288.6604989421651
 21
154.7819561569821
 31
0.0
  0
ARC
  5
1DC
330
1F
100
AcDbEntity
  8
用紙-作図レイヤ
  6
Continuous
 62
     3
370
    35
100
AcDbCircle
 10
289.8316499674459
 20
155.2357725566373
 30
0.0
 40
0.3
100
AcDbArc
 50
42.4947174539231
 51
125.0000000000021
  0
ARC
  5
1DD
330
1F
100
AcDbEntity
  8
用紙-作図レイヤ
  6
Continuous
 62
     3
370
    35
100
AcDbCircle
 10
289.8316499674461
 20
158.3431748117843
 30
0.0
 40
0.3
100
AcDbArc
 50
235.0000000000023
 51
317.5052825460692
  0
ARC
  5
1DE
330
1F
100
AcDbEntity
  8
用紙-作図レイヤ
  6
Continuous
 62
     3
370
    35
100
AcDbCircle
 10
291.5275310971766
 20
156.7894736842107
 30
0.0
 40
3.5
100
AcDbArc
 50
-145.0000000000014
 51
144.9999999999966
  0
ARC
  5
1DF
330
1F
100
AcDbEntity
  8
用紙-作図レイヤ
  6
Continuous
 62
     3
370
    35
100
AcDbCircle
 10
291.5275310971766
 20
156.7894736842109
 30
0.0
 40
2.750000000000037
100
AcDbArc
 50
29.53346131537279
 51
82.96653868461891
  0
ARC
  5
1E0
330
1F
100
AcDbEntity
  8
用紙-作図レイヤ
  6
Continuous
 62
     3
370
    35
100
AcDbCircle
 10
293.6591976167824
 20
157.9971565271758
 30
0.0
 40
0.3
100
AcDbArc
 50
-67.49999999999702
 51
29.53346131537216
  0
ARC
  5
1E1
330
1F
100
AcDbEntity
  8
用紙-作図レイヤ
  6
Continuous
 62
     3
370
    35
100
AcDbCircle
 10
291.8275310971767
 20
159.2210369673686
 30
0.0
 40
0.3
100
AcDbArc
 50
82.96653868461641
 51
180.0
  0
LINE
  5
1E2
330
1F
100
AcDbEntity
  8
用紙-作図レイヤ
  6
Continuous
 62
     3
370
    35
100
AcDbLine
 10
293.774002646492
 20
155.858954700999
 30
0.0
 11
293.3752901621992
 21
156.0241068194806
 31
0.0
  0
ARC
  5
1E3
330
1F
100
AcDbEntity
  8
用紙-作図レイヤ
  6
Continuous
 62
     3
370
    35
100
AcDbCircle
 10
291.5275310971766
 20
156.7894736842105
 30
0.0
 40
2.750000000000037
100
AcDbArc
 50
277.0334613153814
 51
330.4665386846273
  0
ARC
  5
1E4
330
1F
100
AcDbEntity
  8
用紙-作図レイヤ
  6
Continuous
 62
     3
370
    35
100
AcDbCircle
 10
293.6591976167824
 20
155.5817908412456
 30
0.0
 40
0.3
100
AcDbArc
 50
-29.53346131537216
 51
67.49999999999702
  0
ARC
  5
1E5
330
1F
100
AcDbEntity
  8
用紙-作図レイヤ
  6
Continuous
 62
     3
370
    35
100
AcDbCircle
 10
291.8275310971767
 20
154.3579104010529
 30
0.0
 40
0.3
100
AcDbArc
 50
180.0
 51
277.0334613153839
  0
LINE
  5
1E6
330
1F
100
AcDbEntity
  8
用紙-作図レイヤ
  6
Continuous
 62
     3
370
    35
100
AcDbLine
 10
291.5275310971767
 20
159.2210369673686
 30
0.0
 11
291.5275310971767
 21
158.7894736842107
 31
0.0
  0
ARC
  5
1E7
330
1F
100
AcDbEntity
  8
用紙-作図レイヤ
  6
Continuous
 62
     3
370
    35
100
AcDbCircle
 10
291.5275310971765
 20
156.7894736842107
 30
0.0
 40
2.99999999999994
100
AcDbArc
 50
144.9999999999952
 51
214.9999999999986
  0
LINE
  5
1E8
330
1F
100
AcDbEntity
  8
用紙-作図レイヤ
  6
Continuous
 62
     3
370
    35
100
AcDbLine
 10
291.5275310971767
 20
154.3579104010529
 30
0.0
 11
291.5275310971767
 21
154.7894736842107
 31
0.0
  0
LINE
  5
1E9
330
1F
100
AcDbEntity
  8
用紙-作図レイヤ
  6
DASHDOT
 62
     7
370
    13
100
AcDbLine
 10
307.0275310971766
 20
156.7894736842107
 30
0.0
 11
276.0275310971766
 21
156.7894736842107
 31
0.0
  0
LINE
  5
1EA
330
1F
100
AcDbEntity
  8
用紙-作図レイヤ
  6
DASHDOT
 62
     7
370
    13
100
AcDbLine
 10
291.5275310971766
 20
141.2894736842107
 30
0.0
 11
291.5275310971766
 21
172.2894736842107
 31
0.0
  0
CIRCLE
  5
1EB
330
1F
100
AcDbEntity
  8
用紙-作図レイヤ
  6
Continuous
 62
     3
370
    35
100
AcDbCircle
 10
285.1635700664978
 20
163.1534347148896
 30
0.0
 40
1.0
  0
CIRCLE
  5
1EC
330
1F
100
AcDbEntity
  8
用紙-作図レイヤ
  6
Continuous
 62
     3
370
    35
100
AcDbCircle
 10
297.8914921278555
 20
150.4255126535318
 30
0.0
 40
1.0
  0
CIRCLE
  5
1ED
330
1F
100
AcDbEntity
  8
用紙-作図レイヤ
  6
Continuous
 62
     3
370
    35
100
AcDbCircle
 10
291.5275310971766
 20
156.7894736842107
 30
0.0
 40
11.0
  0
CIRCLE
  5
1EE
330
1F
100
AcDbEntity
  8
用紙-作図レイヤ
  6
Continuous
 62
     3
370
    35
100
AcDbCircle
 10
291.5275310971766
 20
156.7894736842107
 30
0.0
 40
7.0
  0
CIRCLE
  5
1EF
330
1F
100
AcDbEntity
  8
用紙-作図レイヤ
  6
DASHDOT
 62
     7
370
    13
100
AcDbCircle
 10
291.5275310971766
 20
156.7894736842107
 30
0.0
 40
9.0
  0
LINE
  5
1F0
330
1F
100
AcDbEntity
  8
用紙-作図レイヤ
  6
DASHDOT
 62
     7
370
    13
100
AcDbLine
 10
282.9458235360058
 20
148.2077661230398
 30
0.0
 11
287.3813165969898
 21
152.6432591840237
 31
0.0
  0
LINE
  5
1F1
330
1F
100
AcDbEntity
  8
用紙-作図レイヤ
  6
DASHDOT
 62
     7
370
    13
100
AcDbLine
 10
295.6737455973634
 20
160.9356881843978
 30
0.0
 11
300.1092386583474
 21
165.3711812453818
 31
0.0
  0
LINE
  5
1F2
330
1F
100
AcDbEntity
  8
用紙-作図レイヤ
  6
DASHDOT
 62
     7
370
    13
100
AcDbLine
 10
287.3813165969898
 20
160.9356881843978
 30
0.0
 11
282.9458235360058
 21
165.3711812453817
 31
0.0
  0
LINE
  5
1F3
330
1F
100
AcDbEntity
  8
用紙-作図レイヤ
  6
DASHDOT
 62
     7
370
    13
100
AcDbLine
 10
300.1092386583474
 20
148.2077661230397
 30
0.0
 11
295.6737455973634
 21
152.6432591840237
 31
0.0
  0
LINE
  5
1F4
330
1F
100
AcDbEntity
  8
用紙-作図レイヤ
  6
Continuous
 62
     3
370
    35
100
AcDbLine
 10
300.590273929939
 20
163.023789392227
 30
0.0
 11
299.3057056902287
 21
161.7392211525167
 31
0.0
  0
LINE
  5
1F5
330
1F
100
AcDbEntity
  8
用紙-作図レイヤ
  6
Continuous
 62
     3
370
    35
100
AcDbLine
 10
297.7618468051928
 20
165.8522165169731
 30
0.0
 11
296.4772785654826
 21
164.5676482772629
 31
0.0
  0
ARC
  5
1F6
330
1F
100
AcDbEntity
  8
用紙-作図レイヤ
  6
Continuous
 62
     3
370
    35
100
AcDbCircle
 10
297.8914921278557
 20
163.1534347148899
 30
0.0
 40
1.999999999999986
100
AcDbArc
 50
135.0000000000005
 51
314.9999999999995
  0
LINE
  5
1F7
330
1F
100
AcDbEntity
  8
用紙-作図レイヤ
  6
Continuous
 62
     3
370
    35
100
AcDbLine
 10
282.4647882644144
 20
150.5551579761949
 30
0.0
 11
283.7493565041248
 21
151.8397262159051
 31
0.0
  0
LINE
  5
1F8
330
1F
100
AcDbEntity
  8
用紙-作図レイヤ
  6
Continuous
 62
     3
370
    35
100
AcDbLine
 10
285.2932153891608
 20
147.7267308514487
 30
0.0
 11
286.577783628871
 21
149.011299091159
 31
0.0
  0
ARC
  5
1F9
330
1F
100
AcDbEntity
  8
用紙-作図レイヤ
  6
Continuous
 62
     3
370
    35
100
AcDbCircle
 10
285.1635700664979
 20
150.4255126535321
 30
0.0
 40
1.999999999999986
100
AcDbArc
 50
-44.99999999999955
 51
134.9999999999995
  0
CIRCLE
  5
1FA
330
1F
100
AcDbEntity
  8
用紙-作図レイヤ
  6
Continuous
 62
     7
370
    13
100
AcDbCircle
 10
300.5275310971766
 20
156.7894736842108
 30
0.0
 40
1.0
  0
CIRCLE
  5
1FB
330
1F
100
AcDbEntity
  8
用紙-作図レイヤ
  6
Continuous
 62
     3
370
    35
100
AcDbCircle
 10
300.5275310971766
 20
156.7894736842108
 30
0.0
 40
0.8
  0
CIRCLE
  5
1FC
330
1F
100
AcDbEntity
  8
用紙-作図レイヤ
  6
Continuous
 62
     7
370
    13
100
AcDbCircle
 10
282.5275310971766
 20
156.7894736842108
 30
0.0
 40
1.0
  0
CIRCLE
  5
1FD
330
1F
100
AcDbEntity
  8
用紙-作図レイヤ
  6
Continuous
 62
     3
370
    35
100
AcDbCircle
 10
282.5275310971766
 20
156.7894736842108
 30
0.0
 40
0.8
  0
CIRCLE
  5
1FE
330
1F
100
AcDbEntity
  8
用紙-作図レイヤ
  6
Continuous
 62
     7
370
    13
100
AcDbCircle
 10
291.5275310971766
 20
147.7894736842109
 30
0.0
 40
1.0
  0
CIRCLE
  5
1FF
330
1F
100
AcDbEntity
  8
用紙-作図レイヤ
  6
Continuous
 62
     3
370
    35
100
AcDbCircle
 10
291.5275310971766
 20
147.7894736842109
 30
0.0
 40
0.8
  0
CIRCLE
  5
200
330
1F
100
AcDbEntity
  8
用紙-作図レイヤ
  6
Continuous
 62
     7
370
    13
100
AcDbCircle
 10
291.5275310971766
 20
165.7894736842108
 30
0.0
 40
1.0
  0
CIRCLE
  5
201
330
1F
100
AcDbEntity
  8
用紙-作図レイヤ
  6
Continuous
 62
     3
370
    35
100
AcDbCircle
 10
291.5275310971766
 20
165.7894736842108
 30
0.0
 40
0.8
  0
CIRCLE
  5
202
330
1F
100
AcDbEntity
  8
用紙-作図レイヤ
  6
Continuous
 62
     3
370
    35
100
AcDbCircle
 10
291.5275310971767
 20
156.7894736842107
 30
0.0
 40
2.000000000000004
  0
LINE
  5
203
330
1F
100
AcDbEntity
  8
用紙-作図レイヤ
  6
Continuous
 62
     3
370
    35
100
AcDbLine
 10
290.2046554416445
 20
155.2894736842106
 30
0.0
 11
292.8504067527089
 21
155.2894736842106
 31
0.0
  0
ARC
  5
204
330
1F
100
AcDbEntity
  8
用紙-作図レイヤ
  6
Continuous
 62
     3
370
    35
100
AcDbCircle
 10
134.6089895940136
 20
156.7894736842105
 30
0.0
 40
12.5
100
AcDbArc
 50
163.696848859483
 51
239.8098011809757
  0
CIRCLE
  5
205
330
1F
100
AcDbEntity
  8
用紙-作図レイヤ
  6
Continuous
 62
     3
370
    35
100
AcDbCircle
 10
134.6089895940136
 20
156.7894736842105
 30
0.0
 40
5.0
  0
CIRCLE
  5
206
330
1F
100
AcDbEntity
  8
用紙-作図レイヤ
  6
Continuous
 62
     3
370
    35
100
AcDbCircle
 10
134.6089895940136
 20
156.7894736842105
 30
0.0
 40
3.05
  0
LINE
  5
207
330
1F
100
AcDbEntity
  8
用紙-作図レイヤ
  6
Continuous
 62
     3
370
    35
100
AcDbLine
 10
144.1089895940136
 20
159.2894736842105
 30
0.0
 11
146.8564383079295
 21
159.2894736842105
 31
0.0
  0
LINE
  5
208
330
1F
100
AcDbEntity
  8
用紙-作図レイヤ
  6
Continuous
 62
     3
370
    35
100
AcDbLine
 10
144.1089895940136
 20
154.2894736842105
 30
0.0
 11
146.8564383079295
 21
154.2894736842105
 31
0.0
  0
ARC
  5
209
330
1F
100
AcDbEntity
  8
用紙-作図レイヤ
  6
Continuous
 62
     3
370
    35
100
AcDbCircle
 10
144.1089895940136
 20
156.7894736842105
 30
0.0
 40
2.5
100
AcDbArc
 50
90.0
 51
270.0
  0
LINE
  5
20A
330
1F
100
AcDbEntity
  8
用紙-作図レイヤ
  6
Continuous
 62
     3
370
    35
100
AcDbLine
 10
125.1089895940136
 20
159.2894736842105
 30
0.0
 11
122.3615408800977
 21
159.2894736842105
 31
0.0
  0
LINE
  5
20B
330
1F
100
AcDbEntity
  8
用紙-作図レイヤ
  6
Continuous
 62
     3
370
    35
100
AcDbLine
 10
125.1089895940136
 20
154.2894736842105
 30
0.0
 11
122.3615408800977
 21
154.2894736842105
 31
0.0
  0
ARC
  5
20C
330
1F
100
AcDbEntity
  8
用紙-作図レイヤ
  6
Continuous
 62
     3
370
    35
100
AcDbCircle
 10
125.1089895940136
 20
156.7894736842105
 30
0.0
 40
2.5
100
AcDbArc
 50
-90.0
 51
90.0
  0
ARC
  5
20D
330
1F
100
AcDbEntity
  8
用紙-作図レイヤ
  6
Continuous
 62
     3
370
    35
100
AcDbCircle
 10
134.6089895940136
 20
156.7894736842105
 30
0.0
 40
12.5
100
AcDbArc
 50
-114.9472336029962
 51
158.605871232211
  0
CIRCLE
  5
20E
330
1F
100
AcDbEntity
  8
用紙-作図レイヤ
  6
Continuous
 62
     7
370
    13
100
AcDbCircle
 10
132.1089895940136
 20
165.7894736842105
 30
0.0
 40
1.5
  0
LINE
  5
20F
330
1F
100
AcDbEntity
  8
用紙-作図レイヤ
  6
Continuous
 62
     7
370
    13
100
AcDbLine
 10
131.8589895940136
 20
164.7894736842105
 30
0.0
 11
131.8589895940136
 21
166.7894736842105
 31
0.0
  0
LINE
  5
210
330
1F
100
AcDbEntity
  8
用紙-作図レイヤ
  6
Continuous
 62
     7
370
    13
100
AcDbLine
 10
132.3589895940136
 20
164.7894736842105
 30
0.0
 11
132.3589895940136
 21
166.7894736842105
 31
0.0
  0
LINE
  5
211
330
1F
100
AcDbEntity
  8
用紙-作図レイヤ
  6
Continuous
 62
     7
370
    13
100
AcDbLine
 10
131.8589895940136
 20
164.7894736842105
 30
0.0
 11
132.3589895940136
 21
164.7894736842105
 31
0.0
  0
LINE
  5
212
330
1F
100
AcDbEntity
  8
用紙-作図レイヤ
  6
Continuous
 62
     7
370
    13
100
AcDbLine
 10
131.8589895940136
 20
166.7894736842105
 30
0.0
 11
132.3589895940136
 21
166.7894736842105
 31
0.0
  0
CIRCLE
  5
213
330
1F
100
AcDbEntity
  8
用紙-作図レイヤ
  6
Continuous
 62
     3
370
    35
100
AcDbCircle
 10
129.6089895940136
 20
151.0394736842105
 30
0.0
 40
0.9
  0
LINE
  5
214
330
1F
100
AcDbEntity
  8
用紙-作図レイヤ
  6
Continuous
 62
     3
370
    35
100
AcDbLine
 10
128.7965857535499
 20
152.5894736842105
 30
0.0
 11
130.4213934344772
 21
152.5894736842105
 31
0.0
  0
LINE
  5
215
330
1F
100
AcDbEntity
  8
用紙-作図レイヤ
  6
Continuous
 62
     3
370
    35
100
AcDbLine
 10
128.79658575355
 20
149.4894736842105
 30
0.0
 11
130.4213934344772
 21
149.4894736842105
 31
0.0
  0
LINE
  5
216
330
1F
100
AcDbEntity
  8
用紙-作図レイヤ
  6
Continuous
 62
     3
370
    35
100
AcDbLine
 10
128.79658575355
 20
149.4894736842105
 30
0.0
 11
127.8589895940136
 21
151.0394736842105
 31
0.0
  0
LINE
  5
217
330
1F
100
AcDbEntity
  8
用紙-作図レイヤ
  6
Continuous
 62
     3
370
    35
100
AcDbLine
 10
127.8589895940136
 20
151.0394736842105
 30
0.0
 11
128.79658575355
 21
152.5894736842105
 31
0.0
  0
LINE
  5
218
330
1F
100
AcDbEntity
  8
用紙-作図レイヤ
  6
Continuous
 62
     3
370
    35
100
AcDbLine
 10
130.4213934344772
 20
152.5894736842105
 30
0.0
 11
131.3589895940136
 21
151.0394736842105
 31
0.0
  0
LINE
  5
219
330
1F
100
AcDbEntity
  8
用紙-作図レイヤ
  6
Continuous
 62
     3
370
    35
100
AcDbLine
 10
131.3589895940136
 20
151.0394736842105
 30
0.0
 11
130.4213934344772
 21
149.4894736842105
 31
0.0
  0
CIRCLE
  5
21A
330
1F
100
AcDbEntity
  8
用紙-作図レイヤ
  6
Continuous
 62
     3
370
    35
100
AcDbCircle
 10
139.6089895940136
 20
162.5394736842105
 30
0.0
 40
0.9
  0
LINE
  5
21B
330
1F
100
AcDbEntity
  8
用紙-作図レイヤ
  6
Continuous
 62
     3
370
    35
100
AcDbLine
 10
140.4213934344772
 20
160.9894736842105
 30
0.0
 11
138.79658575355
 21
160.9894736842105
 31
0.0
  0
LINE
  5
21C
330
1F
100
AcDbEntity
  8
用紙-作図レイヤ
  6
Continuous
 62
     3
370
    35
100
AcDbLine
 10
140.4213934344772
 20
164.0894736842105
 30
0.0
 11
138.79658575355
 21
164.0894736842105
 31
0.0
  0
LINE
  5
21D
330
1F
100
AcDbEntity
  8
用紙-作図レイヤ
  6
Continuous
 62
     3
370
    35
100
AcDbLine
 10
140.4213934344772
 20
164.0894736842105
 30
0.0
 11
141.3589895940136
 21
162.5394736842105
 31
0.0
  0
LINE
  5
21E
330
1F
100
AcDbEntity
  8
用紙-作図レイヤ
  6
Continuous
 62
     3
370
    35
100
AcDbLine
 10
141.3589895940136
 20
162.5394736842105
 30
0.0
 11
140.4213934344772
 21
160.9894736842105
 31
0.0
  0
LINE
  5
21F
330
1F
100
AcDbEntity
  8
用紙-作図レイヤ
  6
Continuous
 62
     3
370
    35
100
AcDbLine
 10
138.79658575355
 20
160.9894736842105
 30
0.0
 11
137.8589895940136
 21
162.5394736842105
 31
0.0
  0
LINE
  5
220
330
1F
100
AcDbEntity
  8
用紙-作図レイヤ
  6
Continuous
 62
     3
370
    35
100
AcDbLine
 10
137.8589895940136
 20
162.5394736842105
 30
0.0
 11
138.79658575355
 21
164.0894736842105
 31
0.0
  0
CIRCLE
  5
221
330
1F
100
AcDbEntity
  8
用紙-作図レイヤ
  6
Continuous
 62
     7
370
    13
100
AcDbCircle
 10
137.1089895940136
 20
147.7894736842105
 30
0.0
 40
1.5
  0
LINE
  5
222
330
1F
100
AcDbEntity
  8
用紙-作図レイヤ
  6
Continuous
 62
     7
370
    13
100
AcDbLine
 10
136.8589895940136
 20
148.7894736842105
 30
0.0
 11
136.8589895940136
 21
148.0394736842105
 31
0.0
  0
LINE
  5
223
330
1F
100
AcDbEntity
  8
用紙-作図レイヤ
  6
Continuous
 62
     7
370
    13
100
AcDbLine
 10
137.3589895940136
 20
148.7894736842105
 30
0.0
 11
137.3589895940136
 21
148.0394736842105
 31
0.0
  0
LINE
  5
224
330
1F
100
AcDbEntity
  8
用紙-作図レイヤ
  6
Continuous
 62
     7
370
    13
100
AcDbLine
 10
136.1089895940136
 20
148.0394736842105
 30
0.0
 11
136.8589895940136
 21
148.0394736842105
 31
0.0
  0
LINE
  5
225
330
1F
100
AcDbEntity
  8
用紙-作図レイヤ
  6
Continuous
 62
     7
370
    13
100
AcDbLine
 10
136.1089895940136
 20
147.5394736842105
 30
0.0
 11
136.8589895940136
 21
147.5394736842105
 31
0.0
  0
LINE
  5
226
330
1F
100
AcDbEntity
  8
用紙-作図レイヤ
  6
Continuous
 62
     7
370
    13
100
AcDbLine
 10
136.8589895940136
 20
148.7894736842105
 30
0.0
 11
137.3589895940136
 21
148.7894736842105
 31
0.0
  0
LINE
  5
227
330
1F
100
AcDbEntity
  8
用紙-作図レイヤ
  6
Continuous
 62
     7
370
    13
100
AcDbLine
 10
136.8589895940136
 20
146.7894736842105
 30
0.0
 11
137.3589895940136
 21
146.7894736842105
 31
0.0
  0
LINE
  5
228
330
1F
100
AcDbEntity
  8
用紙-作図レイヤ
  6
Continuous
 62
     7
370
    13
100
AcDbLine
 10
136.1089895940136
 20
148.0394736842105
 30
0.0
 11
136.1089895940136
 21
147.5394736842105
 31
0.0
  0
LINE
  5
229
330
1F
100
AcDbEntity
  8
用紙-作図レイヤ
  6
Continuous
 62
     7
370
    13
100
AcDbLine
 10
138.1089895940136
 20
148.0394736842105
 30
0.0
 11
138.1089895940136
 21
147.5394736842105
 31
0.0
  0
LINE
  5
22A
330
1F
100
AcDbEntity
  8
用紙-作図レイヤ
  6
Continuous
 62
     7
370
    13
100
AcDbLine
 10
137.3589895940136
 20
148.0394736842105
 30
0.0
 11
138.1089895940136
 21
148.0394736842105
 31
0.0
  0
LINE
  5
22B
330
1F
100
AcDbEntity
  8
用紙-作図レイヤ
  6
Continuous
 62
     7
370
    13
100
AcDbLine
 10
137.3589895940136
 20
147.5394736842105
 30
0.0
 11
138.1089895940136
 21
147.5394736842105
 31
0.0
  0
LINE
  5
22C
330
1F
100
AcDbEntity
  8
用紙-作図レイヤ
  6
Continuous
 62
     7
370
    13
100
AcDbLine
 10
137.3589895940136
 20
147.5394736842105
 30
0.0
 11
137.3589895940136
 21
146.7894736842105
 31
0.0
  0
LINE
  5
22D
330
1F
100
AcDbEntity
  8
用紙-作図レイヤ
  6
Continuous
 62
     7
370
    13
100
AcDbLine
 10
136.8589895940136
 20
147.5394736842105
 30
0.0
 11
136.8589895940136
 21
146.7894736842105
 31
0.0
  0
ARC
  5
22E
330
1F
100
AcDbEntity
  8
用紙-作図レイヤ
  6
Continuous
 62
     3
370
    35
100
AcDbCircle
 10
117.7232136001646
 20
176.9835545982382
 30
0.0
 40
16.92056653932165
100
AcDbArc
 50
254.0094803320945
 51
271.8540113933063
  0
ARC
  5
22F
330
1F
100
AcDbEntity
  8
用紙-作図レイヤ
  6
Continuous
 62
     3
370
    35
100
AcDbCircle
 10
118.1033024236407
 20
179.3636675249838
 30
0.0
 40
18.2993240190719
100
AcDbArc
 50
254.93817235221
 51
270.8512483248317
  0
ARC
  5
230
330
1F
100
AcDbEntity
  8
用紙-作図レイヤ
  6
Continuous
 62
     7
370
    13
100
AcDbCircle
 10
117.8661362086792
 20
160.3657283944265
 30
0.0
 40
0.5000011379103714
100
AcDbArc
 50
-35.99964999070015
 51
24.00034484876009
  0
ARC
  5
231
330
1F
100
AcDbEntity
  8
用紙-作図レイヤ
  6
Continuous
 62
     7
370
    13
100
AcDbCircle
 10
117.918393633097
 20
160.8629909293332
 30
0.0
 40
0.5000011379103714
100
AcDbArc
 50
-35.99964999070015
 51
24.00034484876009
  0
ARC
  5
232
330
1F
100
AcDbEntity
  8
用紙-作図レイヤ
  6
Continuous
 62
     7
370
    13
100
AcDbCircle
 10
118.7796791264007
 20
160.7724714067432
 30
0.0
 40
0.5000011379103714
100
AcDbArc
 50
144.00036184845
 51
204.0003498577199
  0
LINE
  5
233
330
1F
100
AcDbEntity
  8
用紙-作図レイヤ
  6
Continuous
 62
     7
370
    13
100
AcDbLine
 10
113.2471693348907
 20
161.3491369701384
 30
0.0
 11
111.9419248856549
 21
162.1463654266278
 31
0.0
  0
LINE
  5
234
330
1F
100
AcDbEntity
  8
用紙-作図レイヤ
  6
Continuous
 62
     7
370
    13
100
AcDbLine
 10
113.1735834488743
 20
161.0982478776967
 30
0.0
 11
111.6649780384157
 21
161.7525171105749
 31
0.0
  0
LINE
  5
235
330
1F
100
AcDbEntity
  8
用紙-作図レイヤ
  6
Continuous
 62
     7
370
    13
100
AcDbLine
 10
113.1179560401529
 20
160.9085877289301
 30
0.0
 11
111.6762555100544
 21
161.2182080817884
 31
0.0
  0
LINE
  5
236
330
1F
100
AcDbEntity
  8
用紙-作図レイヤ
  6
Continuous
 62
     3
370
    35
100
AcDbLine
 10
113.3480255675671
 20
161.6930035735475
 30
0.0
 11
113.0619667959699
 21
160.7176939119219
 31
0.0
  0
ARC
  5
237
330
1F
100
AcDbEntity
  8
用紙-作図レイヤ
  6
Continuous
 62
     3
370
    35
100
AcDbCircle
 10
118.7380853811324
 20
189.5144335893147
 30
0.0
 40
28.48139620038855
100
AcDbArc
 50
271.0969674014717
 51
288.1516273964635
  0
ARC
  5
238
330
1F
100
AcDbEntity
  8
用紙-作図レイヤ
  6
Continuous
 62
     3
370
    35
100
AcDbCircle
 10
118.7368401080766
 20
188.4513368938917
 30
0.0
 40
28.41826795014395
100
AcDbArc
 50
271.1883168923735
 51
288.7577251625323
  0
ARC
  5
239
330
1F
100
AcDbEntity
  8
用紙-作図レイヤ
  6
Continuous
 62
     7
370
    13
100
AcDbCircle
 10
118.8614440327803
 20
160.7699327095052
 30
0.0
 40
0.5000011379103714
100
AcDbArc
 50
-27.54399055585416
 51
32.45600428360618
  0
ARC
  5
23A
330
1F
100
AcDbEntity
  8
用紙-作図レイヤ
  6
Continuous
 62
     7
370
    13
100
AcDbCircle
 10
118.8828663097343
 20
160.2703909664259
 30
0.0
 40
0.5000011379103714
100
AcDbArc
 50
-27.5439905558536
 51
32.45600428360598
  0
ARC
  5
23B
330
1F
100
AcDbEntity
  8
用紙-作図レイヤ
  6
Continuous
 62
     7
370
    13
100
AcDbCircle
 10
119.748099937674
 20
160.3075023397147
 30
0.0
 40
0.5000011379103714
100
AcDbArc
 50
152.4560044351857
 51
212.4559924444538
  0
ARC
  5
23C
330
1F
100
AcDbEntity
  8
用紙-作図レイヤ
  6
Continuous
 62
     3
370
    35
100
AcDbCircle
 10
132.5675229467842
 20
136.7276452308609
 30
0.0
 40
9.961904378359792
100
AcDbArc
 50
125.3676537813681
 51
148.6404813721698
  0
ARC
  5
23D
330
1F
100
AcDbEntity
  8
用紙-作図レイヤ
  6
Continuous
 62
     3
370
    35
100
AcDbCircle
 10
133.7776240846397
 20
135.6749531201604
 30
0.0
 40
10.53246454871295
100
AcDbArc
 50
126.6986611347679
 51
147.6863599073067
  0
ARC
  5
23E
330
1F
100
AcDbEntity
  8
用紙-作図レイヤ
  6
Continuous
 62
     7
370
    13
100
AcDbCircle
 10
126.6551731441009
 20
144.3729831005539
 30
0.0
 40
0.5000011379103714
100
AcDbArc
 50
12.99965515124001
 51
72.99964999069996
  0
ARC
  5
23F
330
1F
100
AcDbEntity
  8
用紙-作図レイヤ
  6
Continuous
 62
     7
370
    13
100
AcDbCircle
 10
126.9961678428621
 20
144.0073008854471
 30
0.0
 40
0.5000011379103714
100
AcDbArc
 50
12.99965515124001
 51
72.99964999069996
  0
ARC
  5
240
330
1F
100
AcDbEntity
  8
用紙-作図レイヤ
  6
Continuous
 62
     7
370
    13
100
AcDbCircle
 10
127.6295450135198
 20
144.597927539633
 30
0.0
 40
0.5000011379103714
100
AcDbArc
 50
192.9996501422796
 51
252.9996381515498
  0
LINE
  5
241
330
1F
100
AcDbEntity
  8
用紙-作図レイヤ
  6
Continuous
 62
     7
370
    13
100
AcDbLine
 10
124.5887914456255
 20
141.5190478697938
 30
0.0
 11
124.0261609411733
 21
140.0968371963853
 31
0.0
  0
LINE
  5
242
330
1F
100
AcDbEntity
  8
用紙-作図レイヤ
  6
Continuous
 62
     7
370
    13
100
AcDbLine
 10
124.3790343190381
 20
141.6751317164048
 30
0.0
 11
123.5679575211287
 21
140.2447076738743
 31
0.0
  0
LINE
  5
243
330
1F
100
AcDbEntity
  8
用紙-作図レイヤ
  6
Continuous
 62
     7
370
    13
100
AcDbLine
 10
124.2204679682803
 20
141.793123635783
 30
0.0
 11
123.2554089099134
 21
140.6782127894575
 31
0.0
  0
LINE
  5
244
330
1F
100
AcDbEntity
  8
用紙-作図レイヤ
  6
Continuous
 62
     3
370
    35
100
AcDbLine
 10
124.8762829023423
 20
141.3051205855952
 30
0.0
 11
124.0608702027926
 21
141.91188304841
 31
0.0
  0
ARC
  5
245
330
1F
100
AcDbEntity
  8
用紙-作図レイヤ
  6
Continuous
 62
     3
370
    35
100
AcDbCircle
 10
155.9504649805745
 20
104.4890432663004
 30
0.0
 40
48.85248232729937
100
AcDbArc
 50
111.6087894761271
 51
124.6258527460979
  0
ARC
  5
246
330
1F
100
AcDbEntity
  8
用紙-作図レイヤ
  6
Continuous
 62
     3
370
    35
100
AcDbCircle
 10
154.9333668802342
 20
105.9012871660143
 30
0.0
 40
48.11245166825535
100
AcDbArc
 50
111.0856001842823
 51
124.5830838876525
  0
ARC
  5
247
330
1F
100
AcDbEntity
  8
用紙-作図レイヤ
  6
Continuous
 62
     7
370
    13
100
AcDbCircle
 10
127.6933175450932
 20
144.6491623824226
 30
0.0
 40
0.5000011379103714
100
AcDbArc
 50
4.54399571639334
 51
64.54399055585456
  0
ARC
  5
248
330
1F
100
AcDbEntity
  8
用紙-作図レイヤ
  6
Continuous
 62
     7
370
    13
100
AcDbCircle
 10
127.409794410498
 20
145.0610064052976
 30
0.0
 40
0.5000011379103714
100
AcDbArc
 50
4.543995716394704
 51
64.54399055585381
  0
ARC
  5
249
330
1F
100
AcDbEntity
  8
用紙-作図レイヤ
  6
Continuous
 62
     7
370
    13
100
AcDbCircle
 10
128.1231348922327
 20
145.552078540593
 30
0.0
 40
0.5000011379103714
100
AcDbArc
 50
184.5440075555456
 51
244.5439955648148
  0
LINE
  5
24A
330
1F
100
AcDbEntity
  8
用紙-作図レイヤ
  6
Continuous
 62
     3
370
    35
100
AcDbLine
 10
229.3832744421081
 20
76.96503350465039
 30
0.0
 11
182.7832744421081
 21
76.96503350465045
 31
0.0
  0
LINE
  5
24B
330
1F
100
AcDbEntity
  8
用紙-作図レイヤ
  6
Continuous
 62
     3
370
    35
100
AcDbLine
 10
229.3832744421082
 20
101.9650335046504
 30
0.0
 11
182.7832744421081
 21
101.9650335046504
 31
0.0
  0
LINE
  5
24C
330
1F
100
AcDbEntity
  8
用紙-作図レイヤ
  6
Continuous
 62
     3
370
    35
100
AcDbLine
 10
229.8832744421082
 20
101.4650335046504
 30
0.0
 11
229.8832744421081
 21
77.46503350465039
 31
0.0
  0
LINE
  5
24D
330
1F
100
AcDbEntity
  8
用紙-作図レイヤ
  6
Continuous
 62
     3
370
    35
100
AcDbLine
 10
229.8832744421082
 20
101.4650335046504
 30
0.0
 11
229.3832744421082
 21
101.9650335046504
 31
0.0
  0
LINE
  5
24E
330
1F
100
AcDbEntity
  8
用紙-作図レイヤ
  6
Continuous
 62
     3
370
    35
100
AcDbLine
 10
229.8832744421081
 20
77.46503350465039
 30
0.0
 11
229.3832744421081
 21
76.96503350465039
 31
0.0
  0
LINE
  5
24F
330
1F
100
AcDbEntity
  8
用紙-作図レイヤ
  6
Continuous
 62
     3
370
    35
100
AcDbLine
 10
229.3832744421082
 20
101.9650335046504
 30
0.0
 11
229.3832744421081
 21
76.96503350465039
 31
0.0
  0
LINE
  5
250
330
1F
100
AcDbEntity
  8
用紙-作図レイヤ
  6
Continuous
 62
     3
370
    35
100
AcDbLine
 10
227.3832744421082
 20
101.9650335046504
 30
0.0
 11
227.3832744421081
 21
76.96503350465039
 31
0.0
  0
ARC
  5
251
330
1F
100
AcDbEntity
  8
用紙-作図レイヤ
  6
Continuous
 62
     3
370
    35
100
AcDbCircle
 10
163.2643472255085
 20
77.0518955313855
 30
0.0
 40
6.163129856350173
100
AcDbArc
 50
89.99996255206304
 51
117.463892320746
  0
LINE
  5
252
330
1F
100
AcDbEntity
  8
用紙-作図レイヤ
  6
Continuous
 62
     3
370
    35
100
AcDbLine
 10
160.4219803071958
 20
82.5204493049716
 30
0.0
 11
159.9608064324923
 21
83.40775146329176
 31
0.0
  0
ARC
  5
253
330
1F
100
AcDbEntity
  8
用紙-作図レイヤ
  6
Continuous
 62
     3
370
    35
100
AcDbCircle
 10
163.264367355457
 20
77.0518955313855
 30
0.0
 40
7.163125960231111
100
AcDbArc
 50
90.00001984784299
 51
117.463892320746
  0
ARC
  5
254
330
1F
100
AcDbEntity
  8
用紙-作図レイヤ
  6
Continuous
 62
     7
370
    13
100
AcDbCircle
 10
165.0210989731337
 20
83.96502102543226
 30
0.0
 40
0.5000045454722619
100
AcDbArc
 50
149.9999812760308
 51
209.999981276031
  0
ARC
  5
255
330
1F
100
AcDbEntity
  8
用紙-作図レイヤ
  6
Continuous
 62
     7
370
    13
100
AcDbCircle
 10
165.0210988097347
 20
83.46501647995998
 30
0.0
 40
0.5000045454722619
100
AcDbArc
 50
149.9999812760331
 51
209.9999812760332
  0
ARC
  5
256
330
1F
100
AcDbEntity
  8
用紙-作図レイヤ
  6
Continuous
 62
     7
370
    13
100
AcDbCircle
 10
164.1550655329614
 20
83.46501676297541
 30
0.0
 40
0.5000045454722619
100
AcDbArc
 50
-30.00001872396695
 51
29.99998127603324
  0
ARC
  5
257
330
1F
100
AcDbEntity
  8
用紙-作図レイヤ
  6
Continuous
 62
     7
370
    13
100
AcDbCircle
 10
163.4100813145195
 20
83.46503511887417
 30
0.0
 40
0.5000012987063653
100
AcDbArc
 50
-29.99965510144804
 51
30.00034489855067
  0
ARC
  5
258
330
1F
100
AcDbEntity
  8
用紙-作図レイヤ
  6
Continuous
 62
     7
370
    13
100
AcDbCircle
 10
163.410078304704
 20
83.9650364175715
 30
0.0
 40
0.5000012987063653
100
AcDbArc
 50
-29.99965510144804
 51
30.00034489855433
  0
ARC
  5
259
330
1F
100
AcDbEntity
  8
用紙-作図レイヤ
  6
Continuous
 62
     7
370
    13
100
AcDbCircle
 10
164.2761059578982
 20
83.96504163072424
 30
0.0
 40
0.5000012987063653
100
AcDbArc
 50
150.0003448985519
 51
210.0003448985507
  0
LINE
  5
25A
330
1F
100
AcDbEntity
  8
用紙-作図レイヤ
  6
Continuous
 62
     3
370
    35
100
AcDbLine
 10
163.264367355457
 20
83.21503382932698
 30
0.0
 11
163.8430936362087
 21
83.21503382932698
 31
0.0
  0
LINE
  5
25B
330
1F
100
AcDbEntity
  8
用紙-作図レイヤ
  6
Continuous
 62
     3
370
    35
100
AcDbLine
 10
163.2643680946661
 20
84.2150331799738
 30
0.0
 11
163.8430943754178
 21
84.2150331799738
 31
0.0
  0
LINE
  5
25C
330
1F
100
AcDbEntity
  8
用紙-作図レイヤ
  6
Continuous
 62
     3
370
    35
100
AcDbLine
 10
176.9441641785878
 20
83.21503382932693
 30
0.0
 11
164.5880822530476
 21
83.21503382932698
 31
0.0
  0
LINE
  5
25D
330
1F
100
AcDbEntity
  8
用紙-作図レイヤ
  6
Continuous
 62
     3
370
    35
100
AcDbLine
 10
176.9441641785878
 20
84.2150331799738
 30
0.0
 11
164.5880822530475
 21
84.2150331799738
 31
0.0
  0
LINE
  5
25E
330
1F
100
AcDbEntity
  8
用紙-作図レイヤ
  6
Continuous
 62
     7
370
    13
100
AcDbLine
 10
160.0570531235066
 20
83.22257207358095
 30
0.0
 11
158.8244206193563
 21
82.70422176718583
 31
0.0
  0
LINE
  5
25F
330
1F
100
AcDbEntity
  8
用紙-作図レイヤ
  6
Continuous
 62
     7
370
    13
100
AcDbLine
 10
160.1511136897928
 20
83.04159880502309
 30
0.0
 11
158.9142232433628
 21
82.34501127115962
 31
0.0
  0
LINE
  5
260
330
1F
100
AcDbEntity
  8
用紙-作図レイヤ
  6
Continuous
 62
     7
370
    13
100
AcDbLine
 10
160.2666154806049
 20
82.81937245201615
 30
0.0
 11
159.1772166422391
 21
81.97297182884674
 31
0.0
  0
ARC
  5
261
330
1F
100
AcDbEntity
  8
用紙-作図レイヤ
  6
Continuous
 62
     3
370
    35
100
AcDbCircle
 10
163.2643472255085
 20
101.8781714779153
 30
0.0
 40
6.163129856350173
100
AcDbArc
 50
242.536107679254
 51
270.000037447937
  0
LINE
  5
262
330
1F
100
AcDbEntity
  8
用紙-作図レイヤ
  6
Continuous
 62
     3
370
    35
100
AcDbLine
 10
160.4219803071958
 20
96.40961770432918
 30
0.0
 11
159.9608064324924
 21
95.52231554600908
 31
0.0
  0
ARC
  5
263
330
1F
100
AcDbEntity
  8
用紙-作図レイヤ
  6
Continuous
 62
     3
370
    35
100
AcDbCircle
 10
163.2643673554571
 20
101.8781714779153
 30
0.0
 40
7.163125960231111
100
AcDbArc
 50
242.536107679254
 51
269.999980152157
  0
ARC
  5
264
330
1F
100
AcDbEntity
  8
用紙-作図レイヤ
  6
Continuous
 62
     7
370
    13
100
AcDbCircle
 10
165.0210989731337
 20
94.96504598386858
 30
0.0
 40
0.5000045454722619
100
AcDbArc
 50
150.000018723969
 51
210.0000187239692
  0
ARC
  5
265
330
1F
100
AcDbEntity
  8
用紙-作図レイヤ
  6
Continuous
 62
     7
370
    13
100
AcDbCircle
 10
165.0210988097348
 20
95.4650505293408
 30
0.0
 40
0.5000045454722619
100
AcDbArc
 50
150.0000187239668
 51
210.0000187239669
  0
ARC
  5
266
330
1F
100
AcDbEntity
  8
用紙-作図レイヤ
  6
Continuous
 62
     7
370
    13
100
AcDbCircle
 10
164.1550655329615
 20
95.46505024632543
 30
0.0
 40
0.5000045454722619
100
AcDbArc
 50
-29.99998127603324
 51
30.00001872396695
  0
ARC
  5
267
330
1F
100
AcDbEntity
  8
用紙-作図レイヤ
  6
Continuous
 62
     7
370
    13
100
AcDbCircle
 10
163.4100813145195
 20
95.46503189042662
 30
0.0
 40
0.5000012987063653
100
AcDbArc
 50
-30.00034489855067
 51
29.99965510144804
  0
ARC
  5
268
330
1F
100
AcDbEntity
  8
用紙-作図レイヤ
  6
Continuous
 62
     7
370
    13
100
AcDbCircle
 10
163.410078304704
 20
94.96503059172935
 30
0.0
 40
0.5000012987063653
100
AcDbArc
 50
-30.00034489855433
 51
29.99965510144804
  0
ARC
  5
269
330
1F
100
AcDbEntity
  8
用紙-作図レイヤ
  6
Continuous
 62
     7
370
    13
100
AcDbCircle
 10
164.2761059578982
 20
94.9650253785766
 30
0.0
 40
0.5000012987063653
100
AcDbArc
 50
149.9996551014493
 51
209.9996551014481
  0
LINE
  5
26A
330
1F
100
AcDbEntity
  8
用紙-作図レイヤ
  6
Continuous
 62
     3
370
    35
100
AcDbLine
 10
163.2643673554571
 20
95.71503317997386
 30
0.0
 11
163.8430936362088
 21
95.71503317997386
 31
0.0
  0
LINE
  5
26B
330
1F
100
AcDbEntity
  8
用紙-作図レイヤ
  6
Continuous
 62
     3
370
    35
100
AcDbLine
 10
176.9441641785878
 20
95.7150331799738
 30
0.0
 11
164.5880822530476
 21
95.71503317997386
 31
0.0
  0
LINE
  5
26C
330
1F
100
AcDbEntity
  8
用紙-作図レイヤ
  6
Continuous
 62
     3
370
    35
100
AcDbLine
 10
176.9441641785878
 20
94.71503382932698
 30
0.0
 11
164.5880822530476
 21
94.71503382932704
 31
0.0
  0
LINE
  5
26D
330
1F
100
AcDbEntity
  8
用紙-作図レイヤ
  6
Continuous
 62
     3
370
    35
100
AcDbLine
 10
163.2643680946661
 20
94.71503382932704
 30
0.0
 11
163.8430943754178
 21
94.71503382932704
 31
0.0
  0
LINE
  5
26E
330
1F
100
AcDbEntity
  8
用紙-作図レイヤ
  6
Continuous
 62
     7
370
    13
100
AcDbLine
 10
160.0570531235067
 20
95.70749493571984
 30
0.0
 11
158.8244206193563
 21
96.22584524211496
 31
0.0
  0
LINE
  5
26F
330
1F
100
AcDbEntity
  8
用紙-作図レイヤ
  6
Continuous
 62
     7
370
    13
100
AcDbLine
 10
160.1511136897929
 20
95.8884682042777
 30
0.0
 11
158.9142232433628
 21
96.58505573814116
 31
0.0
  0
LINE
  5
270
330
1F
100
AcDbEntity
  8
用紙-作図レイヤ
  6
Continuous
 62
     7
370
    13
100
AcDbLine
 10
160.266615480605
 20
96.11069455728463
 30
0.0
 11
159.1772166422392
 21
96.95709518045405
 31
0.0
  0
LINE
  5
271
330
1F
100
AcDbEntity
  8
用紙-作図レイヤ
  6
Continuous
 62
     3
370
    35
100
AcDbLine
 10
253.3832744421082
 20
90.78790916018238
 30
0.0
 11
253.3832744421082
 21
88.14215784911804
 31
0.0
  0
LINE
  5
272
330
1F
100
AcDbEntity
  8
用紙-作図レイヤ
  6
Continuous
 62
     3
370
    35
100
AcDbLine
 10
259.9832744421083
 20
90.78790916018238
 30
0.0
 11
253.3832744421082
 21
90.78790916018238
 31
0.0
  0
LINE
  5
273
330
1F
100
AcDbEntity
  8
用紙-作図レイヤ
  6
Continuous
 62
     3
370
    35
100
AcDbLine
 10
259.9832744421083
 20
88.14215784911805
 30
0.0
 11
253.3832744421082
 21
88.14215784911804
 31
0.0
  0
LINE
  5
274
330
1F
100
AcDbEntity
  8
用紙-作図レイヤ
  6
Continuous
 62
     7
370
    13
100
AcDbLine
 10
253.3832744421082
 20
88.14215784911804
 30
0.0
 11
259.9832744421083
 21
90.78790916018237
 31
0.0
  0
LINE
  5
275
330
1F
100
AcDbEntity
  8
用紙-作図レイヤ
  6
Continuous
 62
     7
370
    13
100
AcDbLine
 10
253.3832744421082
 20
90.78790916018237
 30
0.0
 11
259.9832744421083
 21
88.14215784911805
 31
0.0
  0
ENDSEC
  0
SECTION
  2
OBJECTS
  0
DICTIONARY
  5
C
330
0
100
AcDbDictionary
281
     1
  3
ACAD_GROUP
350
D
  3
ACAD_LAYOUT
350
1A
  3
ACAD_MLINESTYLE
350
17
  3
ACAD_PLOTSETTINGS
350
19
  3
ACAD_PLOTSTYLENAME
350
E
  0
DICTIONARY
  5
D
102
{ACAD_REACTORS
330
C
102
}
330
C
100
AcDbDictionary
281
     1
  0
DICTIONARY
  5
1A
102
{ACAD_REACTORS
330
C
102
}
330
C
100
AcDbDictionary
281
     1
  3
Layout1
350
1E
  3
Layout2
350
26
  3
Model
350
22
  0
DICTIONARY
  5
17
102
{ACAD_REACTORS
330
C
102
}
330
C
100
AcDbDictionary
281
     1
  3
Standard
350
18
  0
DICTIONARY
  5
19
102
{ACAD_REACTORS
330
C
102
}
330
C
100
AcDbDictionary
281
     1
  0
ACDBDICTIONARYWDFLT
  5
E
102
{ACAD_REACTORS
330
C
102
}
330
C
100
AcDbDictionary
281
     1
  3
Normal
350
F
100
AcDbDictionaryWithDefault
340
F
  0
LAYOUT
  5
1E
102
{ACAD_REACTORS
330
1A
102
}
330
1A
100
AcDbPlotSettings
  1

  2

  4

  6

 40
0.0
 41
0.0
 42
0.0
 43
0.0
 44
0.0
 45
0.0
 46
0.0
 47
0.0
 48
0.0
 49
0.0
140
0.0
141
0.0
142
1.0
143
1.0
 70
   688
 72
     0
 73
     0
 74
     5
  7

 75
    16
147
1.0
148
0.0
149
0.0
100
AcDbLayout
  1
Layout1
 70
     1
 71
     1
 10
0.0
 20
0.0
 11
12.0
 21
9.0
 12
0.0
 22
0.0
 32
0.0
 14
1.000000000000000E+20
 24
1.000000000000000E+20
 34
1.000000000000000E+20
 15
-1.000000000000000E+20
 25
-1.000000000000000E+20
 35
-1.000000000000000E+20
146
0.0
 13
0.0
 23
0.0
 33
0.0
 16
1.0
 26
0.0
 36
0.0
 17
0.0
 27
1.0
 37
0.0
 76
     0
330
1B
  0
LAYOUT
  5
26
102
{ACAD_REACTORS
330
1A
102
}
330
1A
100
AcDbPlotSettings
  1

  2

  4

  6

 40
0.0
 41
0.0
 42
0.0
 43
0.0
 44
0.0
 45
0.0
 46
0.0
 47
0.0
 48
0.0
 49
0.0
140
0.0
141
0.0
142
1.0
143
1.0
 70
   688
 72
     0
 73
     0
 74
     5
  7

 75
    16
147
1.0
148
0.0
149
0.0
100
AcDbLayout
  1
Layout2
 70
     1
 71
     2
 10
0.0
 20
0.0
 11
0.0
 21
0.0
 12
0.0
 22
0.0
 32
0.0
 14
0.0
 24
0.0
 34
0.0
 15
0.0
 25
0.0
 35
0.0
146
0.0
 13
0.0
 23
0.0
 33
0.0
 16
1.0
 26
0.0
 36
0.0
 17
0.0
 27
1.0
 37
0.0
 76
     0
330
23
  0
LAYOUT
  5
22
102
{ACAD_REACTORS
330
1A
102
}
330
1A
100
AcDbPlotSettings
  1

  2

  4

  6

 40
0.0
 41
0.0
 42
0.0
 43
0.0
 44
0.0
 45
0.0
 46
0.0
 47
0.0
 48
0.0
 49
0.0
140
0.0
141
0.0
142
1.0
143
1.0
 70
  1712
 72
     0
 73
     0
 74
     0
  7

 75
     0
147
1.0
148
0.0
149
0.0
100
AcDbLayout
  1
Model
 70
     1
 71
     0
 10
0.0
 20
0.0
 11
420.0
 21
297.0
 12
0.0
 22
0.0
 32
0.0
 14
0.0
 24
0.0
 34
0.0
 15
420.0
 25
297.0
 35
0.0
146
0.0
 13
0.0
 23
0.0
 33
0.0
 16
1.0
 26
0.0
 36
0.0
 17
0.0
 27
1.0
 37
0.0
 76
     0
330
1F
  0
MLINESTYLE
  5
18
102
{ACAD_REACTORS
330
17
102
}
330
17
100
AcDbMlineStyle
  2
Standard
 70
     0
  3

 62
   256
 51
90.0
 52
90.0
 71
     2
 49
0.5
 62
   256
  6
BYLAYER
 49
-0.5
 62
   256
  6
BYLAYER
  0
ACDBPLACEHOLDER
  5
F
102
{ACAD_REACTORS
330
E
102
}
330
E
  0
ENDSEC
  0
EOF
