  0
SECTION
  2
HEADER
  9
$ACADVER
  1
AC1006
  9
$INSBASE
 10
0.000000
 20
0.000000
 30
0.0
  9
$EXTMIN
 10
0.000000
 20
0.000000
  9
$EXTMAX
 10
210.000000
 20
297.000000
  9
$LIMMIN
 10
0.000000
 20
0.000000
  9
$LIMMAX
 10
210.000000
 20
297.000000
  9
$VIEWCTR
 10
105.000000
 20
148.500000
  9
$VIEWSIZE
 40
297.000000
  9
$SNAPMODE
 70
     0
  9
$SNAPUNIT
 10
1.0
 20
1.0
  9
$SNAPBASE
 10
0.0
 20
0.0
  9
$SNAPANG
 50
0.0
  9
$SNAPSTYLE
 70
     0
  9
$SNAPISOPAIR
 70
     0
  9
$GRIDMODE
 70
     0
  9
$GRIDUNIT
 10
0.0
 20
0.0
  9
$ORTHOMODE
 70
     0
  9
$REGENMODE
 70
     1
  9
$FILLMODE
 70
     1
  9
$QTEXTMODE
 70
     0
  9
$DRAGMODE
 70
     2
  9
$LTSCALE
 40
15.000000
  9
$OSMODE
 70
     0
  9
$ATTMODE
 70
     1
  9
$TEXTSIZE
 40
0.2
  9
$TRACEWID
 40
0.05
  9
$TEXTSTYLE
  7
STANDARD
  9
$CLAYER
  8
CSLAYER1
  9
$CELTYPE
  6
BYLAYER
  9
$CECOLOR
 62
   256
  9
$DIMSCALE
 40
1.0
  9
$DIMASZ
 40
0.18
  9
$DIMEXO
 40
0.0625
  9
$DIMDLI
 40
0.38
  9
$DIMRND
 40
0.0
  9
$DIMDLE
 40
0.0
  9
$DIMEXE
 40
0.18
  9
$DIMTP
 40
0.0
  9
$DIMTM
 40
0.0
  9
$DIMTXT
 40
0.18
  9
$DIMCEN
 40
0.09
  9
$DIMTSZ
 40
0.0
  9
$DIMTOL
 70
     0
  9
$DIMLIM
 70
     0
  9
$DIMTIH
 70
     1
  9
$DIMTOH
 70
     1
  9
$DIMSE1
 70
     0
  9
$DIMSE2
 70
     0
  9
$DIMTAD
 70
     0
  9
$DIMZIN
 70
     0
  9
$DIMBLK
  1

  9
$LUNITS
 70
     2
  9
$LUPREC
 70
     4
  9
$AXISMODE
 70
     0
  9
$AXISUNIT
 10
0.0
 20
0.0
  9
$SKETCHINC
 40
0.1
  9
$FILLETRAD
 40
0.0
  9
$AUNITS
 70
     0
  9
$AUPREC
 70
     0
  9
$MENU
  1
ACAD
  9
$ELEVATION
 40
0.0
  9
$THICKNESS
 40
0.0
  9
$VIEWDIR
 10
0.0
 20
0.0
 30
1.0
  9
$LIMCHECK
 70
     0
  9
$BLIPMODE
 70
     1
  9
$CHAMFERA
 40
0.0
  9
$CHAMFERB
 40
0.0
  9
$FASTZOOM
 70
     1
  9
$SKPOLY
 70
     0
  9
$TDCREATE
 40
0.000000
  9
$TDUPDATE
 40
0.000000
  9
$TDINDWG
 40
0.0
  9
$TDUSRTIMER
 40
0.0
  9
$USRTIMER
 70
     1
  9
$ANGBASE
 50
0.0
  9
$ANGDIR
 70
     0
  9
$PDMODE
 70
     0
  9
$PDSIZE
 40
0.0
  9
$PLINEWID
 40
0.0
  9
$COORDS
 70
     0
  9
$USERI1
 70
     0
  9
$USERI2
 70
     0
  9
$USERI3
 70
     0
  9
$USERI4
 70
     0
  9
$USERI5
 70
     0
  9
$USERR1
 40
0.0
  9
$USERR2
 40
0.0
  9
$USERR3
 40
0.0
  9
$USERR4
 40
0.0
  9
$USERR5
 40
0.0
  0
ENDSEC
  0
SECTION
  2
TABLES
  0
TABLE
  2
LTYPE
 70
     9
  0
LTYPE
  2
CONTINUOUS
 70
    64
  3
Solid line
 72
    65
 73
     0
 40
0.0
  0
LTYPE
  2
DASHED
 70
    64
  3
__ __ __ __ __ __ __ __ __ __ __ __ __ __ __
 72
    65
 73
     2
 40
0.75
 49
0.5
 49
-0.25
  0
LTYPE
  2
HIDDEN
 70
    64
  3
_ _ _ _ _ _ _ _ _ _ _ _ _ _ _ _ _ _ _ _ _ _ _
 72
    65
 73
     2
 40
0.375
 49
0.25
 49
-0.125
  0
LTYPE
  2
DOT
 70
    64
  3
...............................................
 72
    65
 73
     2
 40
0.25
 49
0.0
 49
-0.25
  0
LTYPE
  2
DASHDOT
 70
    64
  3
__ . __ . __ . __ . __ . __ . __ . __ . __ . __
 72
    65
 73
     4
 40
1.0
 49
0.5
 49
-0.25
 49
0.0
 49
-0.25
  0
LTYPE
  2
DIVIDE
 70
    64
  3
__ . . __ . . __ . . __ . . __ . . __ . . __
 72
    65
 73
     6
 40
1.25
 49
0.5
 49
-0.25
 49
0.0
 49
-0.25
 49
0.0
 49
-0.25
  0
LTYPE
  2
CENTER
 70
    64
  3
____ _ ____ _ ____ _ ____ _ ____ _ ____ _ ____ 
 72
    65
 73
     4
 40
2.0
 49
1.25
 49
-0.25
 49
0.25
 49
-0.25
  0
LTYPE
  2
PHANTOM
 70
    64
  3
______  __  __  ______  __  __  ______  __  __ 
 72
    65
 73
     6
 40
2.5
 49
1.25
 49
-0.25
 49
0.25
 49
-0.25
 49
0.25
 49
-0.25
  0
LTYPE
  2
BORDER
 70
    64
  3
__ __ . __ __ . __ __ . __ __ . __ __ . __ __ .
 72
    65
 73
     6
 40
1.75
 49
0.5
 49
-0.25
 49
0.5
 49
-0.25
 49
0.0
 49
-0.25
  0
ENDTAB
  0
TABLE
  2
LAYER
 70
    16
  0
LAYER
  2
CSLAYER1
 70
    64
 62
     7
  6
CONTINUOUS
  0
LAYER
  2
CSLAYER2
 70
    64
 62
     7
  6
CONTINUOUS
  0
LAYER
  2
CSLAYER3
 70
    64
 62
     7
  6
CONTINUOUS
  0
LAYER
  2
CSLAYER4
 70
    64
 62
     7
  6
CONTINUOUS
  0
LAYER
  2
CSLAYER5
 70
    64
 62
     7
  6
CONTINUOUS
  0
LAYER
  2
CSLAYER6
 70
    64
 62
     7
  6
CONTINUOUS
  0
LAYER
  2
CSLAYER7
 70
    64
 62
     7
  6
CONTINUOUS
  0
LAYER
  2
CSLAYER8
 70
    64
 62
     7
  6
CONTINUOUS
  0
LAYER
  2
CSLAYER9
 70
    64
 62
     7
  6
CONTINUOUS
  0
LAYER
  2
CSLAYER10
 70
    64
 62
     7
  6
CONTINUOUS
  0
LAYER
  2
CSLAYER11
 70
    64
 62
     7
  6
CONTINUOUS
  0
LAYER
  2
CSLAYER12
 70
    64
 62
     7
  6
CONTINUOUS
  0
LAYER
  2
CSLAYER13
 70
    64
 62
     7
  6
CONTINUOUS
  0
LAYER
  2
CSLAYER14
 70
    64
 62
     7
  6
CONTINUOUS
  0
LAYER
  2
CSLAYER15
 70
    64
 62
     7
  6
CONTINUOUS
  0
LAYER
  2
CSLAYER16
 70
    64
 62
     7
  6
CONTINUOUS
  0
ENDTAB
  0
TABLE
  2
STYLE
 70
     1
  0
STYLE
  2
JX_FONT
 70
     0
 40
1.0
 41
1.0
 50
0.0
 71
     0
 42
1.0
  3
monotxt
  4
bigfont
  0
ENDTAB
  0
TABLE
  2
VIEW
 70
     0
  0
ENDTAB
  0
ENDSEC
  0
SECTION
  2
BLOCKS
  0
ENDSEC
  0
SECTION
  2
ENTITIES
  0
LINE
  8
CSLAYER1
  6
CENTER
 62
     3
 10
148.058307
 20
160.321499
 11
78.258307
 21
160.321499
  0
LINE
  8
CSLAYER1
  6
CENTER
 62
     3
 10
54.083517
 20
156.785965
 11
47.719556
 21
150.422004
  0
LINE
  8
CSLAYER1
  6
CENTER
 62
     3
 10
53.942095
 20
163.008505
 11
49.628744
 21
158.695154
  0
LINE
  8
CSLAYER1
  6
CENTER
 62
     3
 10
49.487323
 20
163.149926
 11
54.083517
 21
158.553732
  0
LINE
  8
CSLAYER1
  6
CENTER
 62
     3
 10
42.557676
 20
170.079573
 11
46.871028
 21
165.766221
  0
LINE
  8
CSLAYER1
  6
CENTER
 62
     3
 10
47.012449
 20
170.220994
 11
42.416255
 21
165.624800
  0
LINE
  8
CSLAYER1
  6
CENTER
 62
     3
 10
45.810367
 20
150.563426
 11
41.497016
 21
154.876777
  0
LINE
  8
CSLAYER1
  6
CENTER
 62
     3
 10
41.355595
 20
150.422004
 11
45.951789
 21
155.018198
  0
LINE
  8
CSLAYER1
  6
CENTER
 62
     3
 10
34.425948
 20
157.634493
 11
38.739300
 21
161.947845
  0
LINE
  8
CSLAYER1
  6
CENTER
 62
     3
 10
38.880721
 20
157.493072
 11
34.284527
 21
162.089266
  0
CIRCLE
  8
CSLAYER1
  6
CONTINUOUS
 62
     6
 10
44.714352
 20
167.922897
 40
2.000000
  0
CIRCLE
  8
CSLAYER1
  6
CONTINUOUS
 62
     6
 10
43.653692
 20
152.720101
 40
2.000000
  0
ARC
  8
CSLAYER1
  6
CONTINUOUS
 62
     6
 10
83.241640
 20
167.922897
 40
2.083333
 50
106.260205
 51
253.739795
  0
LINE
  8
CSLAYER1
  6
CONTINUOUS
 62
     6
 10
145.058307
 20
158.821499
 11
135.058307
 21
158.821499
  0
LINE
  8
CSLAYER1
  6
CONTINUOUS
 62
     6
 10
145.058307
 20
161.821499
 11
135.058307
 21
161.821499
  0
LINE
  8
CSLAYER1
  6
CONTINUOUS
 62
     6
 10
145.058307
 20
161.821499
 11
145.058307
 21
158.821499
  0
LINE
  8
CSLAYER1
  6
CENTER
 62
     3
 10
155.058307
 20
160.321499
 11
186.058307
 21
160.321499
  0
LINE
  8
CSLAYER1
  6
CENTER
 62
     3
 10
170.558307
 20
175.821499
 11
170.558307
 21
144.821499
  0
CIRCLE
  8
CSLAYER1
  6
CONTINUOUS
 62
     6
 10
170.558307
 20
160.321499
 40
1.500000
  0
CIRCLE
  8
CSLAYER1
  6
CONTINUOUS
 62
     6
 10
170.558307
 20
160.321499
 40
12.500000
  0
CIRCLE
  8
CSLAYER1
  6
CONTINUOUS
 62
     6
 10
170.558307
 20
160.321499
 40
4.760000
  0
CIRCLE
  8
CSLAYER1
  6
CONTINUOUS
 62
     6
 10
170.558307
 20
160.321499
 40
5.750000
  0
LINE
  8
CSLAYER1
  6
CENTER
 62
     3
 10
59.684022
 20
160.321499
 11
28.684022
 21
160.321499
  0
LINE
  8
CSLAYER1
  6
CENTER
 62
     3
 10
44.184022
 20
175.821499
 11
44.184022
 21
144.821499
  0
LINE
  8
CSLAYER1
  6
CENTER
 62
     3
 10
54.083517
 20
150.422004
 11
47.719556
 21
156.785965
  0
LINE
  8
CSLAYER1
  6
CENTER
 62
     3
 10
40.648488
 20
170.220994
 11
34.284527
 21
163.857033
  0
LINE
  8
CSLAYER1
  6
CENTER
 62
     3
 10
34.284527
 20
170.220994
 11
40.648488
 21
163.857033
  0
ARC
  8
CSLAYER1
  6
CONTINUOUS
 62
     6
 10
83.241640
 20
152.720101
 40
2.083333
 50
106.260205
 51
253.739795
  0
LINE
  8
CSLAYER1
  6
CONTINUOUS
 62
     6
 10
82.658307
 20
165.321499
 11
81.058307
 21
165.321499
  0
LINE
  8
CSLAYER1
  6
CENTER
 62
     3
 10
167.501507
 20
151.321499
 11
173.615107
 21
151.321499
  0
LINE
  8
CSLAYER1
  6
CENTER
 62
     3
 10
167.501507
 20
169.321499
 11
173.615107
 21
169.321499
  0
LINE
  8
CSLAYER1
  6
CENTER
 62
     3
 10
148.058307
 20
215.321499
 11
78.258307
 21
215.321499
  0
LINE
  8
CSLAYER1
  6
CONTINUOUS
 62
     6
 10
145.058307
 20
213.821499
 11
135.058307
 21
213.821499
  0
LINE
  8
CSLAYER1
  6
CONTINUOUS
 62
     6
 10
145.058307
 20
216.821499
 11
135.058307
 21
216.821499
  0
LINE
  8
CSLAYER1
  6
CONTINUOUS
 62
     6
 10
145.058307
 20
216.821499
 11
145.058307
 21
213.821499
  0
LINE
  8
CSLAYER1
  6
CENTER
 62
     3
 10
148.058307
 20
105.321499
 11
78.258307
 21
105.321499
  0
LINE
  8
CSLAYER1
  6
CONTINUOUS
 62
     6
 10
145.058307
 20
103.821499
 11
135.058307
 21
103.821499
  0
LINE
  8
CSLAYER1
  6
CONTINUOUS
 62
     6
 10
145.058307
 20
106.821499
 11
135.058307
 21
106.821499
  0
LINE
  8
CSLAYER1
  6
CONTINUOUS
 62
     6
 10
145.058307
 20
106.821499
 11
145.058307
 21
103.821499
  0
LINE
  8
CSLAYER1
  6
CONTINUOUS
 62
     6
 10
82.658307
 20
110.321499
 11
81.058307
 21
110.321499
  0
ARC
  8
CSLAYER1
  6
CONTINUOUS
 62
     6
 10
83.241640
 20
105.321499
 40
2.083333
 50
106.260205
 51
253.739795
  0
LINE
  8
CSLAYER1
  6
CONTINUOUS
 62
     3
 10
92.558307
 20
222.321499
 11
122.558307
 21
222.321499
  0
ARC
  8
CSLAYER1
  6
CONTINUOUS
 62
     3
 10
92.558307
 20
221.321499
 40
1.000000
 50
90.000000
 51
180.000000
  0
LINE
  8
CSLAYER1
  6
CONTINUOUS
 62
     3
 10
92.558307
 20
98.321499
 11
122.558307
 21
98.321499
  0
ARC
  8
CSLAYER1
  6
CONTINUOUS
 62
     3
 10
92.558307
 20
99.321499
 40
1.000000
 50
180.000000
 51
270.000000
  0
ARC
  8
CSLAYER1
  6
CONTINUOUS
 62
     3
 10
122.558307
 20
99.321499
 40
1.000000
 50
270.000000
 51
360.000000
  0
TEXT
  8
CSLAYER1
 62
     3
 10
109.356148
 20
155.071487
 40
3.500000
 41
1.125000
  1
N P
 50
90.000000
 51
10.000000
  7
JX_FONT
 72
     5
 11
109.356148
 21
165.571487
  0
LINE
  8
CSLAYER1
  6
CONTINUOUS
 62
     3
 10
123.558307
 20
172.821499
 11
123.558307
 21
147.821499
  0
LINE
  8
CSLAYER1
  6
CONTINUOUS
 62
     3
 10
91.558307
 20
172.821499
 11
91.558307
 21
147.821499
  0
LINE
  8
CSLAYER1
  6
CONTINUOUS
 62
     6
 10
81.058307
 20
165.321499
 11
81.058307
 21
155.321499
  0
LINE
  8
CSLAYER1
  6
CONTINUOUS
 62
     6
 10
82.658307
 20
155.321499
 11
81.058307
 21
155.321499
  0
CIRCLE
  8
CSLAYER1
  6
CONTINUOUS
 62
     6
 10
51.785420
 20
160.851829
 40
0.900000
  0
LINE
  8
CSLAYER1
  6
CONTINUOUS
 62
     6
 10
51.263861
 20
159.181357
 11
50.114948
 21
160.330270
  0
LINE
  8
CSLAYER1
  6
CONTINUOUS
 62
     6
 10
53.455892
 20
161.373389
 11
52.306979
 21
162.522301
  0
LINE
  8
CSLAYER1
  6
CONTINUOUS
 62
     6
 10
53.455892
 20
161.373389
 11
53.022857
 21
159.614392
  0
LINE
  8
CSLAYER1
  6
CONTINUOUS
 62
     6
 10
53.022857
 20
159.614392
 11
51.263861
 21
159.181357
  0
LINE
  8
CSLAYER1
  6
CONTINUOUS
 62
     6
 10
50.114948
 20
160.330270
 11
50.547983
 21
162.089266
  0
LINE
  8
CSLAYER1
  6
CONTINUOUS
 62
     6
 10
50.547983
 20
162.089266
 11
52.306979
 21
162.522301
  0
CIRCLE
  8
CSLAYER1
  6
CONTINUOUS
 62
     6
 10
36.582624
 20
159.791169
 40
0.900000
  0
LINE
  8
CSLAYER1
  6
CONTINUOUS
 62
     6
 10
37.104183
 20
161.461641
 11
38.253096
 21
160.312728
  0
LINE
  8
CSLAYER1
  6
CONTINUOUS
 62
     6
 10
34.912152
 20
159.269610
 11
36.061065
 21
158.120697
  0
LINE
  8
CSLAYER1
  6
CONTINUOUS
 62
     6
 10
34.912152
 20
159.269610
 11
35.345187
 21
161.028606
  0
LINE
  8
CSLAYER1
  6
CONTINUOUS
 62
     6
 10
35.345187
 20
161.028606
 11
37.104183
 21
161.461641
  0
LINE
  8
CSLAYER1
  6
CONTINUOUS
 62
     6
 10
38.253096
 20
160.312728
 11
37.820061
 21
158.553732
  0
LINE
  8
CSLAYER1
  6
CONTINUOUS
 62
     6
 10
37.820061
 20
158.553732
 11
36.061065
 21
158.120697
  0
CIRCLE
  8
CSLAYER1
  6
CONTINUOUS
 62
     6
 10
50.901536
 20
153.603985
 40
2.000000
  0
ARC
  8
CSLAYER1
  6
CONTINUOUS
 62
     6
 10
50.901529
 20
153.603985
 40
1.111111
 50
163.398416
 51
196.601577
  0
ARC
  8
CSLAYER1
  6
CONTINUOUS
 62
     6
 10
50.901529
 20
153.603985
 40
1.111111
 50
253.398422
 51
286.601583
  0
ARC
  8
CSLAYER1
  6
CONTINUOUS
 62
     6
 10
50.901529
 20
153.603985
 40
1.111111
 50
-16.601562
 51
16.601572
  0
ARC
  8
CSLAYER1
  6
CONTINUOUS
 62
     6
 10
50.901529
 20
153.603985
 40
1.111111
 50
73.398406
 51
106.601595
  0
LINE
  8
CSLAYER1
  6
CONTINUOUS
 62
     6
 10
51.536457
 20
153.286521
 11
51.966318
 21
153.286521
  0
LINE
  8
CSLAYER1
  6
CONTINUOUS
 62
     6
 10
50.266600
 20
153.286521
 11
49.836740
 21
153.286521
  0
LINE
  8
CSLAYER1
  6
CONTINUOUS
 62
     6
 10
51.536457
 20
153.921449
 11
51.966318
 21
153.921449
  0
LINE
  8
CSLAYER1
  6
CONTINUOUS
 62
     6
 10
50.266600
 20
153.921449
 11
49.836740
 21
153.921449
  0
LINE
  8
CSLAYER1
  6
CONTINUOUS
 62
     6
 10
50.584065
 20
152.969073
 11
50.584065
 21
152.539179
  0
LINE
  8
CSLAYER1
  6
CONTINUOUS
 62
     6
 10
50.584065
 20
154.238897
 11
50.584065
 21
154.668791
  0
LINE
  8
CSLAYER1
  6
CONTINUOUS
 62
     6
 10
51.218993
 20
152.969073
 11
51.218993
 21
152.539179
  0
LINE
  8
CSLAYER1
  6
CONTINUOUS
 62
     6
 10
51.218993
 20
154.238897
 11
51.218993
 21
154.668791
  0
ARC
  8
CSLAYER1
  6
CONTINUOUS
 62
     6
 10
51.536457
 20
152.969073
 40
0.317460
 50
90.000001
 51
179.942691
  0
ARC
  8
CSLAYER1
  6
CONTINUOUS
 62
     6
 10
51.536457
 20
154.238897
 40
0.317460
 50
180.000010
 51
270.000016
  0
ARC
  8
CSLAYER1
  6
CONTINUOUS
 62
     6
 10
50.266600
 20
154.238897
 40
0.317460
 50
-89.999984
 51
0.000005
  0
ARC
  8
CSLAYER1
  6
CONTINUOUS
 62
     6
 10
50.266600
 20
152.969073
 40
0.317460
 50
0.000005
 51
89.942654
  0
CIRCLE
  8
CSLAYER1
  6
CONTINUOUS
 62
     6
 10
37.466507
 20
167.039014
 40
2.000000
  0
ARC
  8
CSLAYER1
  6
CONTINUOUS
 62
     6
 10
37.466515
 20
167.039014
 40
1.111111
 50
-16.601577
 51
16.601584
  0
ARC
  8
CSLAYER1
  6
CONTINUOUS
 62
     6
 10
37.466515
 20
167.039014
 40
1.111111
 50
253.398417
 51
286.601578
  0
ARC
  8
CSLAYER1
  6
CONTINUOUS
 62
     6
 10
37.466515
 20
167.039014
 40
1.111111
 50
163.398428
 51
196.601562
  0
ARC
  8
CSLAYER1
  6
CONTINUOUS
 62
     6
 10
37.466515
 20
167.039014
 40
1.111111
 50
73.398405
 51
106.601594
  0
LINE
  8
CSLAYER1
  6
CONTINUOUS
 62
     6
 10
36.831586
 20
166.721550
 11
36.401725
 21
166.721550
  0
LINE
  8
CSLAYER1
  6
CONTINUOUS
 62
     6
 10
38.101443
 20
166.721550
 11
38.531304
 21
166.721550
  0
LINE
  8
CSLAYER1
  6
CONTINUOUS
 62
     6
 10
36.831586
 20
167.356478
 11
36.401725
 21
167.356478
  0
LINE
  8
CSLAYER1
  6
CONTINUOUS
 62
     6
 10
38.101443
 20
167.356478
 11
38.531304
 21
167.356478
  0
LINE
  8
CSLAYER1
  6
CONTINUOUS
 62
     6
 10
37.783979
 20
166.404102
 11
37.783979
 21
165.974208
  0
LINE
  8
CSLAYER1
  6
CONTINUOUS
 62
     6
 10
37.783979
 20
167.673926
 11
37.783979
 21
168.103820
  0
LINE
  8
CSLAYER1
  6
CONTINUOUS
 62
     6
 10
37.149051
 20
166.404102
 11
37.149051
 21
165.974208
  0
LINE
  8
CSLAYER1
  6
CONTINUOUS
 62
     6
 10
37.149051
 20
167.673926
 11
37.149051
 21
168.103820
  0
ARC
  8
CSLAYER1
  6
CONTINUOUS
 62
     6
 10
36.831586
 20
166.404102
 40
0.317460
 50
0.057309
 51
89.999999
  0
ARC
  8
CSLAYER1
  6
CONTINUOUS
 62
     6
 10
36.831586
 20
167.673926
 40
0.317460
 50
269.999984
 51
359.999990
  0
ARC
  8
CSLAYER1
  6
CONTINUOUS
 62
     6
 10
38.101443
 20
167.673926
 40
0.317460
 50
179.999995
 51
269.999984
  0
ARC
  8
CSLAYER1
  6
CONTINUOUS
 62
     6
 10
38.101443
 20
166.404102
 40
0.317460
 50
90.057346
 51
179.999995
  0
CIRCLE
  8
CSLAYER1
  6
CONTINUOUS
 62
     3
 10
48.780216
 20
168.453227
 40
1.500000
  0
LINE
  8
CSLAYER1
  6
CONTINUOUS
 62
     3
 10
49.030216
 20
169.453227
 11
49.030216
 21
167.453227
  0
LINE
  8
CSLAYER1
  6
CONTINUOUS
 62
     3
 10
48.530216
 20
169.453227
 11
48.530216
 21
167.453227
  0
LINE
  8
CSLAYER1
  6
CONTINUOUS
 62
     3
 10
49.030216
 20
169.453227
 11
48.530216
 21
169.453227
  0
LINE
  8
CSLAYER1
  6
CONTINUOUS
 62
     3
 10
49.030216
 20
167.453227
 11
48.530216
 21
167.453227
  0
CIRCLE
  8
CSLAYER1
  6
CONTINUOUS
 62
     3
 10
39.587828
 20
152.189771
 40
1.500000
  0
LINE
  8
CSLAYER1
  6
CONTINUOUS
 62
     3
 10
40.587828
 20
152.439771
 11
39.837828
 21
152.439771
  0
LINE
  8
CSLAYER1
  6
CONTINUOUS
 62
     3
 10
40.587828
 20
151.939771
 11
39.837828
 21
151.939771
  0
LINE
  8
CSLAYER1
  6
CONTINUOUS
 62
     3
 10
39.837828
 20
153.189771
 11
39.837828
 21
152.439771
  0
LINE
  8
CSLAYER1
  6
CONTINUOUS
 62
     3
 10
39.337828
 20
153.189771
 11
39.337828
 21
152.439771
  0
LINE
  8
CSLAYER1
  6
CONTINUOUS
 62
     3
 10
40.587828
 20
152.439771
 11
40.587828
 21
151.939771
  0
LINE
  8
CSLAYER1
  6
CONTINUOUS
 62
     3
 10
38.587828
 20
152.439771
 11
38.587828
 21
151.939771
  0
LINE
  8
CSLAYER1
  6
CONTINUOUS
 62
     3
 10
39.837828
 20
153.189771
 11
39.337828
 21
153.189771
  0
LINE
  8
CSLAYER1
  6
CONTINUOUS
 62
     3
 10
39.837828
 20
151.189771
 11
39.337828
 21
151.189771
  0
LINE
  8
CSLAYER1
  6
CONTINUOUS
 62
     3
 10
39.837828
 20
151.939771
 11
39.837828
 21
151.189771
  0
LINE
  8
CSLAYER1
  6
CONTINUOUS
 62
     3
 10
39.337828
 20
151.939771
 11
39.337828
 21
151.189771
  0
LINE
  8
CSLAYER1
  6
CONTINUOUS
 62
     3
 10
39.337828
 20
151.939771
 11
38.587828
 21
151.939771
  0
LINE
  8
CSLAYER1
  6
CONTINUOUS
 62
     3
 10
39.337828
 20
152.439771
 11
38.587828
 21
152.439771
  0
CIRCLE
  8
CSLAYER1
  6
CONTINUOUS
 62
     6
 10
44.184022
 20
160.321499
 40
5.000000
  0
CIRCLE
  8
CSLAYER1
  6
CONTINUOUS
 62
     6
 10
44.184022
 20
160.321499
 40
3.050000
  0
LINE
  8
CSLAYER1
  6
CONTINUOUS
 62
     6
 10
52.669303
 20
155.371752
 11
54.612043
 21
153.429012
  0
LINE
  8
CSLAYER1
  6
CONTINUOUS
 62
     6
 10
49.133769
 20
151.836218
 11
51.076509
 21
149.893478
  0
ARC
  8
CSLAYER1
  6
CONTINUOUS
 62
     6
 10
50.901536
 20
153.603985
 40
2.500000
 50
45.000000
 51
225.000000
  0
LINE
  8
CSLAYER1
  6
CONTINUOUS
 62
     6
 10
39.234274
 20
168.806781
 11
37.291535
 21
170.749520
  0
LINE
  8
CSLAYER1
  6
CONTINUOUS
 62
     6
 10
35.698740
 20
165.271247
 11
33.756001
 21
167.213986
  0
ARC
  8
CSLAYER1
  6
CONTINUOUS
 62
     6
 10
37.466507
 20
167.039014
 40
2.500000
 50
-135.000000
 51
45.000000
  0
ARC
  8
CSLAYER1
  6
CONTINUOUS
 62
     6
 10
44.184022
 20
160.321499
 40
12.500000
 50
-157.773860
 51
107.759327
  0
ARC
  8
CSLAYER1
  6
CONTINUOUS
 62
     6
 10
44.184022
 20
160.321499
 40
12.500000
 50
112.715209
 51
196.993786
  0
CIRCLE
  8
CSLAYER1
  6
CONTINUOUS
 62
     3
 10
170.558307
 20
151.321499
 40
1.500000
  0
CIRCLE
  8
CSLAYER1
  6
CONTINUOUS
 62
     6
 10
170.558307
 20
151.321499
 40
1.200000
  0
CIRCLE
  8
CSLAYER1
  6
CONTINUOUS
 62
     3
 10
170.558307
 20
169.321499
 40
1.500000
  0
CIRCLE
  8
CSLAYER1
  6
CONTINUOUS
 62
     6
 10
170.558307
 20
169.321499
 40
1.200000
  0
LINE
  8
CSLAYER1
  6
CONTINUOUS
 62
     6
 10
131.558307
 20
172.821499
 11
131.558307
 21
147.821499
  0
LINE
  8
CSLAYER1
  6
CONTINUOUS
 62
     6
 10
135.058307
 20
166.071499
 11
135.058307
 21
154.571499
  0
LINE
  8
CSLAYER1
  6
CONTINUOUS
 62
     6
 10
135.058307
 20
154.571499
 11
134.058307
 21
154.571499
  0
LINE
  8
CSLAYER1
  6
CONTINUOUS
 62
     6
 10
135.058307
 20
166.071499
 11
134.058307
 21
166.071499
  0
LINE
  8
CSLAYER1
  6
CENTER
 62
     3
 10
161.896249
 20
155.548528
 11
165.785336
 21
151.659441
  0
LINE
  8
CSLAYER1
  6
CENTER
 62
     3
 10
161.896249
 20
151.659441
 11
165.785336
 21
155.548528
  0
LINE
  8
CSLAYER1
  6
CENTER
 62
     3
 10
175.331277
 20
168.983557
 11
179.220365
 21
165.094470
  0
LINE
  8
CSLAYER1
  6
CENTER
 62
     3
 10
179.220365
 20
168.983557
 11
175.331277
 21
165.094470
  0
ARC
  8
CSLAYER1
  6
CONTINUOUS
 62
     6
 10
49.728849
 20
185.943939
 40
16.920567
 50
199.009480
 51
216.854011
  0
ARC
  8
CSLAYER1
  6
CONTINUOUS
 62
     6
 10
51.896534
 20
186.997765
 40
18.299324
 50
199.938172
 51
215.851248
  0
ARC
  8
CSLAYER1
  6
CONTINUOUS
 62
     3
 10
36.198300
 20
176.295270
 40
0.500001
 50
269.000350
 51
329.000345
  0
ARC
  8
CSLAYER1
  6
CONTINUOUS
 62
     3
 10
36.635607
 20
176.537682
 40
0.500001
 50
269.000350
 51
329.000345
  0
ARC
  8
CSLAYER1
  6
CONTINUOUS
 62
     3
 10
37.055471
 20
175.780238
 40
0.500001
 50
89.000362
 51
149.000350
  0
LINE
  8
CSLAYER1
  6
CONTINUOUS
 62
     3
 10
34.354531
 20
180.642967
 11
34.258924
 21
182.169432
  0
LINE
  8
CSLAYER1
  6
CONTINUOUS
 62
     3
 10
34.106807
 20
180.559340
 11
33.777453
 21
182.170391
  0
LINE
  8
CSLAYER1
  6
CONTINUOUS
 62
     3
 10
33.919540
 20
180.496123
 11
33.346241
 21
181.854686
  0
LINE
  8
CSLAYER1
  6
CONTINUOUS
 62
     6
 10
34.694058
 20
180.757584
 11
33.731055
 21
180.432495
  0
ARC
  8
CSLAYER1
  6
CONTINUOUS
 62
     6
 10
60.575651
 20
192.300022
 40
28.481396
 50
216.096967
 51
233.151627
  0
ARC
  8
CSLAYER1
  6
CONTINUOUS
 62
     6
 10
59.704099
 20
191.691275
 40
28.418268
 50
216.188317
 51
233.757725
  0
ARC
  8
CSLAYER1
  6
CONTINUOUS
 62
     3
 10
37.100290
 20
175.711804
 40
0.500001
 50
277.456009
 51
337.456004
  0
ARC
  8
CSLAYER1
  6
CONTINUOUS
 62
     3
 10
36.703377
 20
175.407731
 40
0.500001
 50
277.456009
 51
337.456004
  0
ARC
  8
CSLAYER1
  6
CONTINUOUS
 62
     3
 10
37.230054
 20
174.720259
 40
0.500001
 50
97.456004
 51
157.455992
  0
ARC
  8
CSLAYER1
  6
CONTINUOUS
 62
     6
 10
27.640660
 20
140.197900
 40
16.920567
 50
80.599974
 51
98.444505
  0
ARC
  8
CSLAYER1
  6
CONTINUOUS
 62
     6
 10
27.704895
 20
137.788485
 40
18.299324
 50
81.602737
 51
97.515813
  0
ARC
  8
CSLAYER1
  6
CONTINUOUS
 62
     3
 10
29.964638
 20
156.653042
 40
0.500001
 50
-31.546360
 51
28.453635
  0
ARC
  8
CSLAYER1
  6
CONTINUOUS
 62
     3
 10
29.951141
 20
156.153223
 40
0.500001
 50
-31.546360
 51
28.453635
  0
ARC
  8
CSLAYER1
  6
CONTINUOUS
 62
     3
 10
30.816855
 20
156.129853
 40
0.500001
 50
148.453635
 51
208.453623
  0
LINE
  8
CSLAYER1
  6
CONTINUOUS
 62
     3
 10
25.256529
 20
156.284724
 11
23.857894
 21
155.665807
  0
LINE
  8
CSLAYER1
  6
CONTINUOUS
 62
     3
 10
25.216528
 20
156.543103
 11
23.635067
 21
156.092614
  0
LINE
  8
CSLAYER1
  6
CONTINUOUS
 62
     3
 10
25.186289
 20
156.738426
 11
23.716414
 21
156.620815
  0
LINE
  8
CSLAYER1
  6
CONTINUOUS
 62
     6
 10
25.311354
 20
155.930590
 11
25.155853
 21
156.935020
  0
ARC
  8
CSLAYER1
  6
CONTINUOUS
 62
     6
 10
24.868135
 20
110.164905
 40
46.083735
 50
68.597787
 51
82.000618
  0
ARC
  8
CSLAYER1
  6
CONTINUOUS
 62
     6
 10
25.067558
 20
111.809058
 40
45.427261
 50
68.025898
 51
81.917046
  0
ARC
  8
CSLAYER1
  6
CONTINUOUS
 62
     3
 10
30.898245
 20
156.121632
 40
0.500001
 50
-40.002019
 51
19.997976
  0
ARC
  8
CSLAYER1
  6
CONTINUOUS
 62
     3
 10
30.985083
 20
156.614034
 40
0.500001
 50
-40.002019
 51
19.997976
  0
ARC
  8
CSLAYER1
  6
CONTINUOUS
 62
     3
 10
31.837950
 20
156.463620
 40
0.500001
 50
139.997993
 51
199.997981
  0
LINE
  8
CSLAYER1
  6
CONTINUOUS
 62
     3
 10
123.558307
 20
221.321499
 11
123.558307
 21
202.821499
  0
LINE
  8
CSLAYER1
  6
CONTINUOUS
 62
     3
 10
91.558307
 20
221.321499
 11
91.558307
 21
202.821499
  0
ARC
  8
CSLAYER1
  6
CONTINUOUS
 62
     3
 10
122.558307
 20
221.321499
 40
1.000000
 50
0.000000
 51
90.000000
  0
LINE
  8
CSLAYER1
  6
CONTINUOUS
 62
     6
 10
131.558307
 20
227.821499
 11
131.558307
 21
202.821499
  0
LINE
  8
CSLAYER1
  6
CONTINUOUS
 62
     6
 10
135.058307
 20
221.071499
 11
135.058307
 21
209.571499
  0
LINE
  8
CSLAYER1
  6
CONTINUOUS
 62
     6
 10
135.058307
 20
209.571499
 11
134.058307
 21
209.571499
  0
LINE
  8
CSLAYER1
  6
CONTINUOUS
 62
     6
 10
135.058307
 20
221.071499
 11
134.058307
 21
221.071499
  0
LINE
  8
CSLAYER1
  6
CONTINUOUS
 62
     3
 10
123.558307
 20
117.821499
 11
123.558307
 21
99.321499
  0
LINE
  8
CSLAYER1
  6
CONTINUOUS
 62
     3
 10
91.558307
 20
117.821499
 11
91.558307
 21
99.321499
  0
LINE
  8
CSLAYER1
  6
CONTINUOUS
 62
     6
 10
82.658307
 20
100.321499
 11
81.058307
 21
100.321499
  0
LINE
  8
CSLAYER1
  6
CONTINUOUS
 62
     6
 10
81.058307
 20
110.321499
 11
81.058307
 21
102.671400
  0
LINE
  8
CSLAYER1
  6
CONTINUOUS
 62
     6
 10
131.558307
 20
117.821499
 11
131.558307
 21
92.821499
  0
LINE
  8
CSLAYER1
  6
CONTINUOUS
 62
     6
 10
135.058307
 20
111.071499
 11
135.058307
 21
99.571499
  0
LINE
  8
CSLAYER1
  6
CONTINUOUS
 62
     6
 10
135.058307
 20
99.571499
 11
134.058307
 21
99.571499
  0
LINE
  8
CSLAYER1
  6
CONTINUOUS
 62
     6
 10
135.058307
 20
111.071499
 11
134.058307
 21
111.071499
  0
LINE
  8
CSLAYER1
  6
CONTINUOUS
 62
     6
 10
87.058307
 20
172.821499
 11
87.058307
 21
147.821499
  0
LINE
  8
CSLAYER1
  6
CONTINUOUS
 62
     6
 10
82.658307
 20
172.321499
 11
82.658307
 21
148.321499
  0
LINE
  8
CSLAYER1
  6
CONTINUOUS
 62
     6
 10
83.158307
 20
172.821499
 11
82.658307
 21
172.321499
  0
LINE
  8
CSLAYER1
  6
CONTINUOUS
 62
     6
 10
82.658307
 20
148.321499
 11
83.158307
 21
147.821499
  0
LINE
  8
CSLAYER1
  6
CONTINUOUS
 62
     6
 10
83.158307
 20
172.821499
 11
83.158307
 21
147.821499
  0
LINE
  8
CSLAYER1
  6
CONTINUOUS
 62
     6
 10
83.158307
 20
172.821499
 11
131.558307
 21
172.821499
  0
LINE
  8
CSLAYER1
  6
CONTINUOUS
 62
     6
 10
83.158307
 20
147.821499
 11
131.558307
 21
147.821499
  0
LINE
  8
CSLAYER1
  6
CONTINUOUS
 62
     6
 10
134.058307
 20
172.771499
 11
134.058307
 21
147.871499
  0
LINE
  8
CSLAYER1
  6
CONTINUOUS
 62
     6
 10
134.058307
 20
147.871499
 11
131.558307
 21
147.871499
  0
LINE
  8
CSLAYER1
  6
CONTINUOUS
 62
     6
 10
134.058307
 20
172.771499
 11
131.558307
 21
172.771499
  0
CIRCLE
  8
CSLAYER1
  6
CONTINUOUS
 62
     3
 10
163.840792
 20
153.603985
 40
1.250000
  0
CIRCLE
  8
CSLAYER1
  6
CONTINUOUS
 62
     6
 10
163.840792
 20
153.603985
 40
1.000000
  0
CIRCLE
  8
CSLAYER1
  6
CONTINUOUS
 62
     3
 10
177.275821
 20
167.039014
 40
1.250000
  0
CIRCLE
  8
CSLAYER1
  6
CONTINUOUS
 62
     6
 10
177.275821
 20
167.039014
 40
1.000000
  0
LINE
  8
CSLAYER1
  6
CONTINUOUS
 62
     6
 10
87.058307
 20
227.821499
 11
87.058307
 21
202.821499
  0
LINE
  8
CSLAYER1
  6
CONTINUOUS
 62
     6
 10
82.658307
 20
227.321499
 11
82.658307
 21
203.321499
  0
LINE
  8
CSLAYER1
  6
CONTINUOUS
 62
     6
 10
83.158307
 20
227.821499
 11
82.658307
 21
227.321499
  0
LINE
  8
CSLAYER1
  6
CONTINUOUS
 62
     6
 10
82.658307
 20
203.321499
 11
83.158307
 21
202.821499
  0
LINE
  8
CSLAYER1
  6
CONTINUOUS
 62
     6
 10
83.158307
 20
227.821499
 11
83.158307
 21
202.821499
  0
LINE
  8
CSLAYER1
  6
CONTINUOUS
 62
     6
 10
83.158307
 20
227.821499
 11
131.558307
 21
227.821499
  0
LINE
  8
CSLAYER1
  6
CONTINUOUS
 62
     6
 10
83.158307
 20
202.821499
 11
131.558307
 21
202.821499
  0
LINE
  8
CSLAYER1
  6
CONTINUOUS
 62
     6
 10
134.058307
 20
227.771499
 11
134.058307
 21
202.871499
  0
LINE
  8
CSLAYER1
  6
CONTINUOUS
 62
     6
 10
134.058307
 20
202.871499
 11
131.558307
 21
202.871499
  0
LINE
  8
CSLAYER1
  6
CONTINUOUS
 62
     6
 10
134.058307
 20
227.771499
 11
131.558307
 21
227.771499
  0
LINE
  8
CSLAYER1
  6
CONTINUOUS
 62
     6
 10
87.058307
 20
117.821499
 11
87.058307
 21
92.821499
  0
LINE
  8
CSLAYER1
  6
CONTINUOUS
 62
     6
 10
82.658307
 20
117.321499
 11
82.658307
 21
93.321499
  0
LINE
  8
CSLAYER1
  6
CONTINUOUS
 62
     6
 10
83.158307
 20
117.821499
 11
82.658307
 21
117.321499
  0
LINE
  8
CSLAYER1
  6
CONTINUOUS
 62
     6
 10
82.658307
 20
93.321499
 11
83.158307
 21
92.821499
  0
LINE
  8
CSLAYER1
  6
CONTINUOUS
 62
     6
 10
83.158307
 20
117.821499
 11
83.158307
 21
92.821499
  0
LINE
  8
CSLAYER1
  6
CONTINUOUS
 62
     6
 10
83.158307
 20
117.821499
 11
131.558307
 21
117.821499
  0
LINE
  8
CSLAYER1
  6
CONTINUOUS
 62
     6
 10
83.158307
 20
92.821499
 11
131.558307
 21
92.821499
  0
LINE
  8
CSLAYER1
  6
CONTINUOUS
 62
     6
 10
134.058307
 20
117.771499
 11
134.058307
 21
92.871499
  0
LINE
  8
CSLAYER1
  6
CONTINUOUS
 62
     6
 10
134.058307
 20
92.871499
 11
131.558307
 21
92.871499
  0
LINE
  8
CSLAYER1
  6
CONTINUOUS
 62
     6
 10
134.058307
 20
117.771499
 11
131.558307
 21
117.771499
  0
ARC
  8
CSLAYER1
  6
CONTINUOUS
 62
     6
 10
62.480850
 20
102.853110
 40
16.920567
 50
306.555495
 51
324.400026
  0
ARC
  8
CSLAYER1
  6
CONTINUOUS
 62
     6
 10
60.822558
 20
104.602244
 40
18.299324
 50
307.484187
 51
323.397263
  0
ARC
  8
CSLAYER1
  6
CONTINUOUS
 62
     3
 10
75.759693
 20
92.860867
 40
0.500001
 50
16.546365
 51
76.546360
  0
ARC
  8
CSLAYER1
  6
CONTINUOUS
 62
     3
 10
75.396724
 20
93.204749
 40
0.500001
 50
16.546365
 51
76.546360
  0
ARC
  8
CSLAYER1
  6
CONTINUOUS
 62
     3
 10
75.992351
 20
93.833426
 40
0.500001
 50
196.546377
 51
256.546365
  0
LINE
  8
CSLAYER1
  6
CONTINUOUS
 62
     3
 10
72.170117
 20
89.792172
 11
70.743493
 21
89.240828
  0
LINE
  8
CSLAYER1
  6
CONTINUOUS
 62
     3
 10
72.324534
 20
89.581185
 11
70.887728
 21
88.781467
  0
LINE
  8
CSLAYER1
  6
CONTINUOUS
 62
     3
 10
72.441266
 20
89.421688
 11
71.318743
 21
88.465494
  0
LINE
  8
CSLAYER1
  6
CONTINUOUS
 62
     6
 10
71.958474
 20
90.081349
 11
72.558757
 21
89.261155
  0
ARC
  8
CSLAYER1
  6
CONTINUOUS
 62
     6
 10
39.283844
 20
122.129172
 40
46.083735
 50
322.999382
 51
336.811712
  0
ARC
  8
CSLAYER1
  6
CONTINUOUS
 62
     6
 10
40.587449
 20
121.107594
 40
45.427261
 50
323.082954
 51
337.065351
  0
ARC
  8
CSLAYER1
  6
CONTINUOUS
 62
     3
 10
76.044089
 20
93.896791
 40
0.500001
 50
25.002024
 51
85.002019
  0
ARC
  8
CSLAYER1
  6
CONTINUOUS
 62
     3
 10
76.453674
 20
93.610013
 40
0.500001
 50
25.002024
 51
85.002019
  0
ARC
  8
CSLAYER1
  6
CONTINUOUS
 62
     3
 10
76.950383
 20
94.319441
 40
0.500001
 50
205.002019
 51
265.002007
  0
LINE
  8
CSLAYER1
  6
CONTINUOUS
 62
     6
 10
81.058307
 20
100.473987
 11
81.058307
 21
100.321499
  0
LINE
  8
CSLAYER1
  6
CONTINUOUS
 62
     6
 10
82.658307
 20
210.321499
 11
81.058307
 21
210.321499
  0
ARC
  8
CSLAYER1
  6
CONTINUOUS
 62
     6
 10
83.241640
 20
215.321499
 40
2.083333
 50
106.260205
 51
253.739795
  0
LINE
  8
CSLAYER1
  6
CONTINUOUS
 62
     6
 10
82.658307
 20
220.321499
 11
81.058307
 21
220.321499
  0
LINE
  8
CSLAYER1
  6
CONTINUOUS
 62
     6
 10
81.058307
 20
210.321499
 11
81.058307
 21
217.971599
  0
ARC
  8
CSLAYER1
  6
CONTINUOUS
 62
     6
 10
62.480850
 20
217.789889
 40
16.920567
 50
35.599974
 51
53.444505
  0
ARC
  8
CSLAYER1
  6
CONTINUOUS
 62
     6
 10
60.822558
 20
216.040754
 40
18.299324
 50
36.602737
 51
52.515813
  0
ARC
  8
CSLAYER1
  6
CONTINUOUS
 62
     3
 10
75.759693
 20
227.782131
 40
0.500001
 50
283.453640
 51
343.453635
  0
ARC
  8
CSLAYER1
  6
CONTINUOUS
 62
     3
 10
75.396724
 20
227.438250
 40
0.500001
 50
283.453640
 51
343.453635
  0
ARC
  8
CSLAYER1
  6
CONTINUOUS
 62
     3
 10
75.992351
 20
226.809572
 40
0.500001
 50
103.453635
 51
163.453623
  0
LINE
  8
CSLAYER1
  6
CONTINUOUS
 62
     3
 10
72.170117
 20
230.850826
 11
70.743493
 21
231.402170
  0
LINE
  8
CSLAYER1
  6
CONTINUOUS
 62
     3
 10
72.324534
 20
231.061814
 11
70.887728
 21
231.861531
  0
LINE
  8
CSLAYER1
  6
CONTINUOUS
 62
     3
 10
72.441266
 20
231.221310
 11
71.318743
 21
232.177505
  0
LINE
  8
CSLAYER1
  6
CONTINUOUS
 62
     6
 10
71.958474
 20
230.561649
 11
72.558757
 21
231.381844
  0
ARC
  8
CSLAYER1
  6
CONTINUOUS
 62
     6
 10
39.283844
 20
198.513826
 40
46.083735
 50
23.188288
 51
37.000618
  0
ARC
  8
CSLAYER1
  6
CONTINUOUS
 62
     6
 10
40.587449
 20
199.535404
 40
45.427261
 50
22.934649
 51
36.917046
  0
ARC
  8
CSLAYER1
  6
CONTINUOUS
 62
     3
 10
76.044089
 20
226.746207
 40
0.500001
 50
274.997981
 51
334.997976
  0
ARC
  8
CSLAYER1
  6
CONTINUOUS
 62
     3
 10
76.453674
 20
227.032985
 40
0.500001
 50
274.997981
 51
334.997976
  0
ARC
  8
CSLAYER1
  6
CONTINUOUS
 62
     3
 10
76.950383
 20
226.323558
 40
0.500001
 50
94.997993
 51
154.997981
  0
LINE
  8
CSLAYER1
  6
CONTINUOUS
 62
     6
 10
81.058307
 20
220.169011
 11
81.058307
 21
220.321499
  0
ARC
  8
CSLAYER1
  6
CONTINUOUS
 62
     6
 10
62.529514
 20
212.483470
 40
16.920567
 50
50.599974
 51
68.444505
  0
ARC
  8
CSLAYER1
  6
CONTINUOUS
 62
     6
 10
61.380436
 20
210.364738
 40
18.299324
 50
51.602737
 51
67.515813
  0
ARC
  8
CSLAYER1
  6
CONTINUOUS
 62
     3
 10
72.769709
 20
225.572053
 40
0.500001
 50
298.453640
 51
358.453635
  0
ARC
  8
CSLAYER1
  6
CONTINUOUS
 62
     3
 10
72.508111
 20
225.145945
 40
0.500001
 50
298.453640
 51
358.453635
  0
ARC
  8
CSLAYER1
  6
CONTINUOUS
 62
     3
 10
73.246156
 20
224.692849
 40
0.500001
 50
118.453635
 51
178.453623
  0
LINE
  8
CSLAYER1
  6
CONTINUOUS
 62
     3
 10
68.508208
 20
227.607134
 11
66.987496
 21
227.770454
  0
LINE
  8
CSLAYER1
  6
CONTINUOUS
 62
     3
 10
68.602755
 20
227.850898
 11
67.007926
 21
228.251493
  0
LINE
  8
CSLAYER1
  6
CONTINUOUS
 62
     3
 10
68.674229
 20
228.035172
 11
67.342474
 21
228.668255
  0
LINE
  8
CSLAYER1
  6
CONTINUOUS
 62
     6
 10
68.378621
 20
227.273033
 11
68.746168
 21
228.220645
  0
ARC
  8
CSLAYER1
  6
CONTINUOUS
 62
     6
 10
45.111939
 20
187.860397
 40
46.083735
 50
38.737329
 51
52.000618
  0
ARC
  8
CSLAYER1
  6
CONTINUOUS
 62
     6
 10
46.106721
 20
189.184563
 40
45.427261
 50
40.193846
 51
51.917046
  0
ARC
  8
CSLAYER1
  6
CONTINUOUS
 62
     3
 10
73.312531
 20
224.645034
 40
0.500001
 50
289.997981
 51
349.997976
  0
ARC
  8
CSLAYER1
  6
CONTINUOUS
 62
     3
 10
73.633936
 20
225.028049
 40
0.500001
 50
289.997981
 51
349.997976
  0
ARC
  8
CSLAYER1
  6
CONTINUOUS
 62
     3
 10
74.297333
 20
224.471352
 40
0.500001
 50
109.997993
 51
169.997981
  0
ARC
  8
CSLAYER1
  6
CONTINUOUS
 62
     6
 10
62.529514
 20
108.159528
 40
16.920567
 50
291.555495
 51
309.400026
  0
ARC
  8
CSLAYER1
  6
CONTINUOUS
 62
     6
 10
61.380436
 20
110.278260
 40
18.299324
 50
292.484187
 51
308.397263
  0
ARC
  8
CSLAYER1
  6
CONTINUOUS
 62
     3
 10
72.769709
 20
95.070946
 40
0.500001
 50
1.546365
 51
61.546360
  0
ARC
  8
CSLAYER1
  6
CONTINUOUS
 62
     3
 10
72.508111
 20
95.497053
 40
0.500001
 50
1.546365
 51
61.546360
  0
ARC
  8
CSLAYER1
  6
CONTINUOUS
 62
     3
 10
73.246156
 20
95.950149
 40
0.500001
 50
181.546377
 51
241.546365
  0
LINE
  8
CSLAYER1
  6
CONTINUOUS
 62
     3
 10
68.508208
 20
93.035864
 11
66.987496
 21
92.872544
  0
LINE
  8
CSLAYER1
  6
CONTINUOUS
 62
     3
 10
68.602755
 20
92.792100
 11
67.007926
 21
92.391505
  0
LINE
  8
CSLAYER1
  6
CONTINUOUS
 62
     3
 10
68.674229
 20
92.607826
 11
67.342474
 21
91.974743
  0
LINE
  8
CSLAYER1
  6
CONTINUOUS
 62
     6
 10
68.378621
 20
93.369965
 11
68.746168
 21
92.422354
  0
ARC
  8
CSLAYER1
  6
CONTINUOUS
 62
     6
 10
45.111939
 20
132.782602
 40
46.083735
 50
307.999382
 51
321.262671
  0
ARC
  8
CSLAYER1
  6
CONTINUOUS
 62
     6
 10
46.106721
 20
131.458435
 40
45.427261
 50
308.082954
 51
319.806154
  0
ARC
  8
CSLAYER1
  6
CONTINUOUS
 62
     3
 10
73.312531
 20
95.997964
 40
0.500001
 50
10.002024
 51
70.002019
  0
ARC
  8
CSLAYER1
  6
CONTINUOUS
 62
     3
 10
73.633936
 20
95.614950
 40
0.500001
 50
10.002024
 51
70.002019
  0
ARC
  8
CSLAYER1
  6
CONTINUOUS
 62
     3
 10
74.297333
 20
96.171646
 40
0.500001
 50
190.002019
 51
250.002007
  0
ARC
  8
CSLAYER1
  6
CONTINUOUS
 62
     6
 10
78.573801
 20
186.036826
 40
16.920567
 50
229.009480
 51
246.854011
  0
ARC
  8
CSLAYER1
  6
CONTINUOUS
 62
     6
 10
79.924158
 20
188.033308
 40
18.299324
 50
229.938172
 51
245.851248
  0
ARC
  8
CSLAYER1
  6
CONTINUOUS
 62
     3
 10
71.680336
 20
170.915559
 40
0.500001
 50
299.000350
 51
359.000345
  0
ARC
  8
CSLAYER1
  6
CONTINUOUS
 62
     3
 10
71.937850
 20
171.344147
 40
0.500001
 50
299.000350
 51
359.000345
  0
ARC
  8
CSLAYER1
  6
CONTINUOUS
 62
     3
 10
72.680184
 20
170.898114
 40
0.500001
 50
119.000362
 51
179.000350
  0
LINE
  8
CSLAYER1
  6
CONTINUOUS
 62
     3
 10
67.909737
 20
173.758890
 11
67.063707
 21
175.033044
  0
LINE
  8
CSLAYER1
  6
CONTINUOUS
 62
     3
 10
67.737015
 20
173.562606
 11
66.646260
 21
174.793139
  0
LINE
  8
CSLAYER1
  6
CONTINUOUS
 62
     3
 10
67.606446
 20
173.414224
 11
66.430673
 21
174.304125
  0
LINE
  8
CSLAYER1
  6
CONTINUOUS
 62
     6
 10
68.146468
 20
174.027915
 11
67.475027
 21
173.264878
  0
ARC
  8
CSLAYER1
  6
CONTINUOUS
 62
     6
 10
84.789366
 20
196.964756
 40
28.481396
 50
246.096967
 51
262.977916
  0
ARC
  8
CSLAYER1
  6
CONTINUOUS
 62
     6
 10
84.338953
 20
196.001789
 40
28.418268
 50
246.188317
 51
263.586567
  0
ARC
  8
CSLAYER1
  6
CONTINUOUS
 62
     3
 10
72.753215
 20
170.861257
 40
0.500001
 50
-52.543991
 51
7.456004
  0
ARC
  8
CSLAYER1
  6
CONTINUOUS
 62
     3
 10
72.561515
 20
170.399465
 40
0.500001
 50
-52.543991
 51
7.456004
  0
ARC
  8
CSLAYER1
  6
CONTINUOUS
 62
     3
 10
73.361367
 20
170.067436
 40
0.500001
 50
127.456004
 51
187.455992
  0
ARC
  8
CSLAYER1
  6
CONTINUOUS
 62
     6
 10
72.477158
 20
135.476302
 40
16.920567
 50
100.599974
 51
118.444505
  0
ARC
  8
CSLAYER1
  6
CONTINUOUS
 62
     6
 10
73.361587
 20
133.234162
 40
18.299324
 50
101.602737
 51
117.515813
  0
ARC
  8
CSLAYER1
  6
CONTINUOUS
 62
     3
 10
69.032992
 20
151.733924
 40
0.500001
 50
-11.546360
 51
48.453635
  0
ARC
  8
CSLAYER1
  6
CONTINUOUS
 62
     3
 10
69.191257
 20
151.259632
 40
0.500001
 50
-11.546360
 51
48.453635
  0
ARC
  8
CSLAYER1
  6
CONTINUOUS
 62
     3
 10
70.012755
 20
151.533763
 40
0.500001
 50
168.453635
 51
228.453623
  0
LINE
  8
CSLAYER1
  6
CONTINUOUS
 62
     3
 10
64.734789
 20
149.777550
 11
63.632185
 21
148.717598
  0
LINE
  8
CSLAYER1
  6
CONTINUOUS
 62
     3
 10
64.608829
 20
150.006667
 11
63.276819
 21
149.042454
  0
LINE
  8
CSLAYER1
  6
CONTINUOUS
 62
     3
 10
64.513610
 20
150.179868
 11
63.172604
 21
149.566622
  0
LINE
  8
CSLAYER1
  6
CONTINUOUS
 62
     6
 10
64.907429
 20
149.463525
 11
64.417771
 21
150.354195
  0
ARC
  8
CSLAYER1
  6
CONTINUOUS
 62
     6
 10
80.143725
 20
106.306258
 40
46.083735
 50
88.703342
 51
102.000618
  0
ARC
  8
CSLAYER1
  6
CONTINUOUS
 62
     6
 10
79.768788
 20
107.919463
 40
45.427261
 50
88.134817
 51
101.917046
  0
ARC
  8
CSLAYER1
  6
CONTINUOUS
 62
     3
 10
70.092049
 20
151.553875
 40
0.500001
 50
-20.002019
 51
39.997976
  0
ARC
  8
CSLAYER1
  6
CONTINUOUS
 62
     3
 10
70.005238
 20
152.046282
 40
0.500001
 50
-20.002019
 51
39.997976
  0
ARC
  8
CSLAYER1
  6
CONTINUOUS
 62
     3
 10
70.858116
 20
152.196636
 40
0.500001
 50
159.997993
 51
219.997981
  0
ENDSEC
  0
EOF
