  0
SECTION
  2
HEADER
  9
$ACADVER
  1
AC1006
  9
$INSBASE
 10
0.000000
 20
0.000000
 30
0.0
  9
$EXTMIN
 10
0.000000
 20
0.000000
  9
$EXTMAX
 10
420.000000
 20
297.000000
  9
$LIMMIN
 10
0.000000
 20
0.000000
  9
$LIMMAX
 10
420.000000
 20
297.000000
  9
$VIEWCTR
 10
210.000000
 20
148.500000
  9
$VIEWSIZE
 40
297.000000
  9
$SNAPMODE
 70
     0
  9
$SNAPUNIT
 10
1.0
 20
1.0
  9
$SNAPBASE
 10
0.0
 20
0.0
  9
$SNAPANG
 50
0.0
  9
$SNAPSTYLE
 70
     0
  9
$SNAPISOPAIR
 70
     0
  9
$GRIDMODE
 70
     0
  9
$GRIDUNIT
 10
0.0
 20
0.0
  9
$ORTHOMODE
 70
     0
  9
$REGENMODE
 70
     1
  9
$FILLMODE
 70
     1
  9
$QTEXTMODE
 70
     0
  9
$DRAGMODE
 70
     2
  9
$LTSCALE
 40
15.000000
  9
$OSMODE
 70
     0
  9
$ATTMODE
 70
     1
  9
$TEXTSIZE
 40
0.2
  9
$TRACEWID
 40
0.05
  9
$TEXTSTYLE
  7
STANDARD
  9
$CLAYER
  8
CSLAYER1
  9
$CELTYPE
  6
BYLAYER
  9
$CECOLOR
 62
   256
  9
$DIMSCALE
 40
1.0
  9
$DIMASZ
 40
0.18
  9
$DIMEXO
 40
0.0625
  9
$DIMDLI
 40
0.38
  9
$DIMRND
 40
0.0
  9
$DIMDLE
 40
0.0
  9
$DIMEXE
 40
0.18
  9
$DIMTP
 40
0.0
  9
$DIMTM
 40
0.0
  9
$DIMTXT
 40
0.18
  9
$DIMCEN
 40
0.09
  9
$DIMTSZ
 40
0.0
  9
$DIMTOL
 70
     0
  9
$DIMLIM
 70
     0
  9
$DIMTIH
 70
     1
  9
$DIMTOH
 70
     1
  9
$DIMSE1
 70
     0
  9
$DIMSE2
 70
     0
  9
$DIMTAD
 70
     0
  9
$DIMZIN
 70
     0
  9
$DIMBLK
  1

  9
$LUNITS
 70
     2
  9
$LUPREC
 70
     4
  9
$AXISMODE
 70
     0
  9
$AXISUNIT
 10
0.0
 20
0.0
  9
$SKETCHINC
 40
0.1
  9
$FILLETRAD
 40
0.0
  9
$AUNITS
 70
     0
  9
$AUPREC
 70
     0
  9
$MENU
  1
ACAD
  9
$ELEVATION
 40
0.0
  9
$THICKNESS
 40
0.0
  9
$VIEWDIR
 10
0.0
 20
0.0
 30
1.0
  9
$LIMCHECK
 70
     0
  9
$BLIPMODE
 70
     1
  9
$CHAMFERA
 40
0.0
  9
$CHAMFERB
 40
0.0
  9
$FASTZOOM
 70
     1
  9
$SKPOLY
 70
     0
  9
$TDCREATE
 40
0.000000
  9
$TDUPDATE
 40
0.000000
  9
$TDINDWG
 40
0.0
  9
$TDUSRTIMER
 40
0.0
  9
$USRTIMER
 70
     1
  9
$ANGBASE
 50
0.0
  9
$ANGDIR
 70
     0
  9
$PDMODE
 70
     0
  9
$PDSIZE
 40
0.0
  9
$PLINEWID
 40
0.0
  9
$COORDS
 70
     0
  9
$USERI1
 70
     0
  9
$USERI2
 70
     0
  9
$USERI3
 70
     0
  9
$USERI4
 70
     0
  9
$USERI5
 70
     0
  9
$USERR1
 40
0.0
  9
$USERR2
 40
0.0
  9
$USERR3
 40
0.0
  9
$USERR4
 40
0.0
  9
$USERR5
 40
0.0
  0
ENDSEC
  0
SECTION
  2
TABLES
  0
TABLE
  2
LTYPE
 70
     9
  0
LTYPE
  2
CONTINUOUS
 70
    64
  3
Solid line
 72
    65
 73
     0
 40
0.0
  0
LTYPE
  2
DASHED
 70
    64
  3
__ __ __ __ __ __ __ __ __ __ __ __ __ __ __
 72
    65
 73
     2
 40
0.75
 49
0.5
 49
-0.25
  0
LTYPE
  2
HIDDEN
 70
    64
  3
_ _ _ _ _ _ _ _ _ _ _ _ _ _ _ _ _ _ _ _ _ _ _
 72
    65
 73
     2
 40
0.375
 49
0.25
 49
-0.125
  0
LTYPE
  2
DOT
 70
    64
  3
...............................................
 72
    65
 73
     2
 40
0.25
 49
0.0
 49
-0.25
  0
LTYPE
  2
DASHDOT
 70
    64
  3
__ . __ . __ . __ . __ . __ . __ . __ . __ . __
 72
    65
 73
     4
 40
1.0
 49
0.5
 49
-0.25
 49
0.0
 49
-0.25
  0
LTYPE
  2
DIVIDE
 70
    64
  3
__ . . __ . . __ . . __ . . __ . . __ . . __
 72
    65
 73
     6
 40
1.25
 49
0.5
 49
-0.25
 49
0.0
 49
-0.25
 49
0.0
 49
-0.25
  0
LTYPE
  2
CENTER
 70
    64
  3
____ _ ____ _ ____ _ ____ _ ____ _ ____ _ ____ 
 72
    65
 73
     4
 40
2.0
 49
1.25
 49
-0.25
 49
0.25
 49
-0.25
  0
LTYPE
  2
PHANTOM
 70
    64
  3
______  __  __  ______  __  __  ______  __  __ 
 72
    65
 73
     6
 40
2.5
 49
1.25
 49
-0.25
 49
0.25
 49
-0.25
 49
0.25
 49
-0.25
  0
LTYPE
  2
BORDER
 70
    64
  3
__ __ . __ __ . __ __ . __ __ . __ __ . __ __ .
 72
    65
 73
     6
 40
1.75
 49
0.5
 49
-0.25
 49
0.5
 49
-0.25
 49
0.0
 49
-0.25
  0
ENDTAB
  0
TABLE
  2
LAYER
 70
    16
  0
LAYER
  2
CSLAYER1
 70
    64
 62
     7
  6
CONTINUOUS
  0
LAYER
  2
CSLAYER2
 70
    64
 62
     7
  6
CONTINUOUS
  0
LAYER
  2
CSLAYER3
 70
    64
 62
     7
  6
CONTINUOUS
  0
LAYER
  2
CSLAYER4
 70
    64
 62
     7
  6
CONTINUOUS
  0
LAYER
  2
CSLAYER5
 70
    64
 62
     7
  6
CONTINUOUS
  0
LAYER
  2
CSLAYER6
 70
    64
 62
     7
  6
CONTINUOUS
  0
LAYER
  2
CSLAYER7
 70
    64
 62
     7
  6
CONTINUOUS
  0
LAYER
  2
CSLAYER8
 70
    64
 62
     7
  6
CONTINUOUS
  0
LAYER
  2
CSLAYER9
 70
    64
 62
     7
  6
CONTINUOUS
  0
LAYER
  2
CSLAYER10
 70
    64
 62
     7
  6
CONTINUOUS
  0
LAYER
  2
CSLAYER11
 70
    64
 62
     7
  6
CONTINUOUS
  0
LAYER
  2
CSLAYER12
 70
    64
 62
     7
  6
CONTINUOUS
  0
LAYER
  2
CSLAYER13
 70
    64
 62
     7
  6
CONTINUOUS
  0
LAYER
  2
CSLAYER14
 70
    64
 62
     7
  6
CONTINUOUS
  0
LAYER
  2
CSLAYER15
 70
    64
 62
     7
  6
CONTINUOUS
  0
LAYER
  2
CSLAYER16
 70
    64
 62
     7
  6
CONTINUOUS
  0
ENDTAB
  0
TABLE
  2
STYLE
 70
     1
  0
STYLE
  2
JX_FONT
 70
     0
 40
1.0
 41
1.0
 50
0.0
 71
     0
 42
1.0
  3
monotxt
  4
bigfont
  0
ENDTAB
  0
TABLE
  2
VIEW
 70
     0
  0
ENDTAB
  0
ENDSEC
  0
SECTION
  2
BLOCKS
  0
ENDSEC
  0
SECTION
  2
ENTITIES
  0
LINE
  8
CSLAYER1
  6
CONTINUOUS
 62
     6
 10
216.094109
 20
269.275833
 11
181.048607
 21
269.275833
  0
LINE
  8
CSLAYER1
  6
CONTINUOUS
 62
     6
 10
216.094110
 20
229.275833
 11
181.048607
 21
229.275833
  0
LINE
  8
CSLAYER1
  6
CONTINUOUS
 62
     6
 10
181.048607
 20
229.275833
 11
180.048607
 21
230.275833
  0
LINE
  8
CSLAYER1
  6
CONTINUOUS
 62
     6
 10
181.048607
 20
269.275833
 11
180.048607
 21
268.275833
  0
LINE
  8
CSLAYER1
  6
CONTINUOUS
 62
     6
 10
181.048607
 20
229.275833
 11
181.048607
 21
269.275833
  0
LINE
  8
CSLAYER1
  6
CENTER
 62
     3
 10
265.548607
 20
249.275833
 11
158.048607
 21
249.275833
  0
LINE
  8
CSLAYER1
  6
CENTER
 62
     3
 10
265.548607
 20
51.522358
 11
158.048637
 21
51.522328
  0
LINE
  8
CSLAYER1
  6
CONTINUOUS
 62
     6
 10
219.048607
 20
77.522347
 11
219.048607
 21
25.522343
  0
LINE
  8
CSLAYER1
  6
CONTINUOUS
 62
     6
 10
225.048607
 20
78.522347
 11
225.048607
 21
24.522347
  0
LINE
  8
CSLAYER1
  6
CONTINUOUS
 62
     6
 10
225.048607
 20
78.522347
 11
220.048607
 21
78.522347
  0
ARC
  8
CSLAYER1
  6
CONTINUOUS
 62
     6
 10
220.048607
 20
77.522347
 40
1.000000
 50
90.000000
 51
180.000000
  0
LINE
  8
CSLAYER1
  6
CONTINUOUS
 62
     6
 10
253.048606
 20
78.522355
 11
225.048607
 21
78.522347
  0
LINE
  8
CSLAYER1
  6
CENTER
 62
     3
 10
234.548607
 20
73.522349
 11
212.849372
 21
73.522343
  0
LINE
  8
CSLAYER1
  6
CENTER
 62
     3
 10
234.548607
 20
29.522349
 11
212.849372
 21
29.522343
  0
LINE
  8
CSLAYER1
  6
CONTINUOUS
 62
     6
 10
225.048622
 20
24.522347
 11
220.048622
 21
24.522344
  0
ARC
  8
CSLAYER1
  6
CONTINUOUS
 62
     6
 10
220.048621
 20
25.522344
 40
1.000000
 50
180.000032
 51
270.000032
  0
LINE
  8
CSLAYER1
  6
CONTINUOUS
 62
     6
 10
231.048607
 20
24.522348
 11
225.048622
 21
24.522347
  0
LINE
  8
CSLAYER1
  6
CONTINUOUS
 62
     6
 10
233.048607
 20
76.522348
 11
233.048607
 21
66.522349
  0
LINE
  8
CSLAYER1
  6
CONTINUOUS
 62
     6
 10
254.048607
 20
77.522355
 11
254.048607
 21
67.846910
  0
ARC
  8
CSLAYER1
  6
CONTINUOUS
 62
     6
 10
231.048607
 20
76.522348
 40
2.000000
 50
0.000000
 51
90.000016
  0
ARC
  8
CSLAYER1
  6
CONTINUOUS
 62
     6
 10
231.048607
 20
26.522348
 40
2.000000
 50
270.000016
 51
360.000000
  0
ARC
  8
CSLAYER1
  6
CONTINUOUS
 62
     6
 10
253.048607
 20
77.522355
 40
1.000000
 50
0.000000
 51
90.000016
  0
LINE
  8
CSLAYER1
  6
CONTINUOUS
 62
     6
 10
228.048607
 20
54.522348
 11
228.048607
 21
48.522348
  0
LINE
  8
CSLAYER1
  6
CONTINUOUS
 62
     6
 10
253.048605
 20
66.522355
 11
230.048605
 21
66.522348
  0
LINE
  8
CSLAYER1
  6
CONTINUOUS
 62
     6
 10
253.048608
 20
36.522355
 11
230.048608
 21
36.522348
  0
LINE
  8
CSLAYER1
  6
CONTINUOUS
 62
     6
 10
233.048607
 20
36.522349
 11
233.048607
 21
26.522348
  0
LINE
  8
CSLAYER1
  6
CONTINUOUS
 62
     6
 10
258.048607
 20
61.522355
 11
258.048607
 21
41.522355
  0
ARC
  8
CSLAYER1
  6
CONTINUOUS
 62
     6
 10
230.048607
 20
61.522348
 40
5.000000
 50
90.000016
 51
180.000000
  0
ARC
  8
CSLAYER1
  6
CONTINUOUS
 62
     6
 10
230.048607
 20
41.522348
 40
5.000000
 50
180.000000
 51
270.000016
  0
ARC
  8
CSLAYER1
  6
CONTINUOUS
 62
     6
 10
253.048607
 20
61.522355
 40
5.000000
 50
0.000000
 51
90.000016
  0
ARC
  8
CSLAYER1
  6
CONTINUOUS
 62
     6
 10
253.048607
 20
41.522355
 40
5.000000
 50
270.000016
 51
360.000000
  0
LINE
  8
CSLAYER1
  6
CONTINUOUS
 62
     6
 10
255.048607
 20
54.522355
 11
255.048607
 21
48.522355
  0
LINE
  8
CSLAYER1
  6
CONTINUOUS
 62
     6
 10
254.048607
 20
35.197799
 11
254.048607
 21
28.522355
  0
LINE
  8
CSLAYER1
  6
CENTER
 62
     3
 10
244.048622
 20
24.522352
 11
244.048575
 21
108.522352
  0
LINE
  8
CSLAYER1
  6
CONTINUOUS
 62
     6
 10
246.048606
 20
63.522353
 11
237.048606
 21
63.522350
  0
LINE
  8
CSLAYER1
  6
CONTINUOUS
 62
     6
 10
246.048607
 20
39.522353
 11
237.048607
 21
39.522350
  0
LINE
  8
CSLAYER1
  6
CONTINUOUS
 62
     6
 10
253.048607
 20
27.522355
 11
234.780658
 21
27.522350
  0
ARC
  8
CSLAYER1
  6
CONTINUOUS
 62
     6
 10
253.048607
 20
28.522355
 40
1.000000
 50
270.000016
 51
360.000000
  0
ARC
  8
CSLAYER1
  6
CONTINUOUS
 62
     6
 10
230.048607
 20
61.522348
 40
5.000000
 50
-90.000000
 51
0.000016
  0
ARC
  8
CSLAYER1
  6
CONTINUOUS
 62
     6
 10
237.048607
 20
61.522350
 40
2.000000
 50
90.000016
 51
180.000016
  0
ARC
  8
CSLAYER1
  6
CONTINUOUS
 62
     6
 10
230.048607
 20
54.522348
 40
2.000000
 50
90.000000
 51
180.000000
  0
ARC
  8
CSLAYER1
  6
CONTINUOUS
 62
     6
 10
253.048607
 20
61.522355
 40
5.000000
 50
180.000016
 51
270.000000
  0
ARC
  8
CSLAYER1
  6
CONTINUOUS
 62
     6
 10
253.048607
 20
41.522355
 40
5.000000
 50
90.000000
 51
180.000016
  0
ARC
  8
CSLAYER1
  6
CONTINUOUS
 62
     6
 10
230.048607
 20
41.522348
 40
5.000000
 50
0.000016
 51
90.000000
  0
ARC
  8
CSLAYER1
  6
CONTINUOUS
 62
     6
 10
230.048607
 20
48.522348
 40
2.000000
 50
180.000000
 51
270.000000
  0
ARC
  8
CSLAYER1
  6
CONTINUOUS
 62
     6
 10
237.048607
 20
41.522350
 40
2.000000
 50
180.000016
 51
270.000016
  0
ARC
  8
CSLAYER1
  6
CONTINUOUS
 62
     6
 10
246.048607
 20
41.522353
 40
2.000000
 50
-89.999984
 51
0.000016
  0
ARC
  8
CSLAYER1
  6
CONTINUOUS
 62
     6
 10
253.048607
 20
48.522355
 40
2.000000
 50
270.000000
 51
360.000000
  0
ARC
  8
CSLAYER1
  6
CONTINUOUS
 62
     6
 10
253.048607
 20
54.522355
 40
2.000000
 50
0.000000
 51
90.000000
  0
ARC
  8
CSLAYER1
  6
CONTINUOUS
 62
     6
 10
246.048607
 20
61.522353
 40
2.000000
 50
0.000016
 51
90.000016
  0
LINE
  8
CSLAYER1
  6
CONTINUOUS
 62
     6
 10
262.548607
 20
59.522356
 11
262.548607
 21
43.522356
  0
ARC
  8
CSLAYER1
  6
CONTINUOUS
 62
     6
 10
257.548607
 20
59.522356
 40
5.000000
 50
0.000000
 51
86.631648
  0
ARC
  8
CSLAYER1
  6
CONTINUOUS
 62
     6
 10
257.548607
 20
43.522356
 40
5.000000
 50
273.368421
 51
360.000000
  0
ARC
  8
CSLAYER1
  6
CONTINUOUS
 62
     6
 10
234.780658
 20
25.522350
 40
2.000000
 50
90.000016
 51
150.000037
  0
LINE
  8
CSLAYER1
  6
CONTINUOUS
 62
     6
 10
248.013591
 20
78.522353
 11
248.013576
 21
105.522353
  0
LINE
  8
CSLAYER1
  6
CONTINUOUS
 62
     6
 10
240.083591
 20
78.522351
 11
240.083576
 21
105.522351
  0
LINE
  8
CSLAYER1
  6
CONTINUOUS
 62
     6
 10
248.013576
 20
105.522353
 11
240.083576
 21
105.522351
  0
LINE
  8
CSLAYER1
  6
CONTINUOUS
 62
     6
 10
245.976024
 20
80.522352
 11
242.121157
 21
80.522351
  0
LINE
  8
CSLAYER1
  6
CONTINUOUS
 62
     6
 10
242.121143
 20
105.522351
 11
242.121157
 21
80.522351
  0
LINE
  8
CSLAYER1
  6
CONTINUOUS
 62
     6
 10
245.976010
 20
105.522352
 11
245.976024
 21
80.522352
  0
LINE
  8
CSLAYER1
  6
CONTINUOUS
 62
     3
 10
242.121157
 20
80.522351
 11
245.976010
 21
105.522352
  0
LINE
  8
CSLAYER1
  6
CONTINUOUS
 62
     3
 10
245.976024
 20
80.522352
 11
242.121143
 21
105.522351
  0
ARC
  8
CSLAYER1
  6
CONTINUOUS
 62
     6
 10
257.959900
 20
36.534449
 40
2.000000
 50
93.368421
 51
134.556584
  0
ARC
  8
CSLAYER1
  6
CONTINUOUS
 62
     6
 10
256.048607
 20
35.197799
 40
2.000000
 50
115.376934
 51
180.000000
  0
ARC
  8
CSLAYER1
  6
CONTINUOUS
 62
     6
 10
257.959891
 20
66.510263
 40
2.000000
 50
225.443448
 51
266.631612
  0
ARC
  8
CSLAYER1
  6
CONTINUOUS
 62
     6
 10
256.048597
 20
67.846912
 40
2.000000
 50
180.000032
 51
244.623099
  0
LINE
  8
CSLAYER1
  6
CONTINUOUS
 62
     6
 10
216.094110
 20
71.522337
 11
181.048607
 21
71.522337
  0
LINE
  8
CSLAYER1
  6
CONTINUOUS
 62
     6
 10
216.094110
 20
31.522337
 11
181.048607
 21
31.522337
  0
LINE
  8
CSLAYER1
  6
CONTINUOUS
 62
     6
 10
181.048607
 20
31.522337
 11
180.048607
 21
32.522337
  0
LINE
  8
CSLAYER1
  6
CONTINUOUS
 62
     6
 10
181.048607
 20
71.522337
 11
180.048607
 21
70.522337
  0
LINE
  8
CSLAYER1
  6
CONTINUOUS
 62
     6
 10
181.048607
 20
31.522337
 11
181.048607
 21
71.522337
  0
LINE
  8
CSLAYER1
  6
CENTER
 62
     3
 10
261.048607
 20
155.319010
 11
158.048607
 21
155.319040
  0
LINE
  8
CSLAYER1
  6
CONTINUOUS
 62
     6
 10
219.048607
 20
129.319020
 11
219.048607
 21
181.319024
  0
LINE
  8
CSLAYER1
  6
CONTINUOUS
 62
     6
 10
225.048607
 20
182.319020
 11
225.048607
 21
120.319020
  0
LINE
  8
CSLAYER1
  6
CONTINUOUS
 62
     6
 10
225.048607
 20
128.319020
 11
220.048607
 21
128.319020
  0
ARC
  8
CSLAYER1
  6
CONTINUOUS
 62
     6
 10
220.048607
 20
129.319020
 40
1.000000
 50
180.000000
 51
270.000000
  0
LINE
  8
CSLAYER1
  6
CENTER
 62
     3
 10
230.048607
 20
133.319019
 11
212.849372
 21
133.319024
  0
LINE
  8
CSLAYER1
  6
CENTER
 62
     3
 10
236.048607
 20
177.319017
 11
212.849372
 21
177.319024
  0
LINE
  8
CSLAYER1
  6
CONTINUOUS
 62
     6
 10
225.048622
 20
182.319020
 11
220.048622
 21
182.319023
  0
ARC
  8
CSLAYER1
  6
CONTINUOUS
 62
     6
 10
220.048621
 20
181.319023
 40
1.000000
 50
89.999968
 51
179.999968
  0
LINE
  8
CSLAYER1
  6
CONTINUOUS
 62
     6
 10
231.048607
 20
182.319019
 11
225.048622
 21
182.319020
  0
ARC
  8
CSLAYER1
  6
CONTINUOUS
 62
     6
 10
231.048607
 20
180.319019
 40
2.000000
 50
0.000000
 51
89.999984
  0
LINE
  8
CSLAYER1
  6
CONTINUOUS
 62
     6
 10
233.048607
 20
130.319018
 11
233.048607
 21
180.319019
  0
LINE
  8
CSLAYER1
  6
CONTINUOUS
 62
     6
 10
231.048592
 20
128.319019
 11
225.048607
 21
128.319021
  0
ARC
  8
CSLAYER1
  6
CONTINUOUS
 62
     6
 10
231.048593
 20
130.319019
 40
2.000000
 50
269.999984
 51
359.999968
  0
LINE
  8
CSLAYER1
  6
CENTER
 62
     3
 10
244.048587
 20
158.319015
 11
244.048587
 21
117.319077
  0
LINE
  8
CSLAYER1
  6
CENTER
 62
     3
 10
265.548607
 20
140.319009
 11
230.048607
 21
140.319019
  0
CIRCLE
  8
CSLAYER1
  6
CONTINUOUS
 62
     6
 10
244.048587
 20
140.319015
 40
3.965000
  0
CIRCLE
  8
CSLAYER1
  6
CONTINUOUS
 62
     6
 10
244.048587
 20
140.319015
 40
5.500000
  0
LINE
  8
CSLAYER1
  6
CONTINUOUS
 62
     6
 10
244.048587
 20
130.319015
 11
233.048607
 21
130.319015
  0
LINE
  8
CSLAYER1
  6
CONTINUOUS
 62
     6
 10
244.048593
 20
150.319015
 11
235.048606
 21
150.319020
  0
LINE
  8
CSLAYER1
  6
CONTINUOUS
 62
     6
 10
225.048607
 20
120.319020
 11
258.048607
 21
120.319011
  0
LINE
  8
CSLAYER1
  6
CONTINUOUS
 62
     6
 10
256.048606
 20
130.319012
 11
256.048607
 21
130.319012
  0
LINE
  8
CSLAYER1
  6
CONTINUOUS
 62
     6
 10
258.048607
 20
120.319011
 11
258.048607
 21
128.319012
  0
ARC
  8
CSLAYER1
  6
CONTINUOUS
 62
     6
 10
256.048607
 20
128.319012
 40
2.000000
 50
-0.000000
 51
89.999984
  0
LINE
  8
CSLAYER1
  6
CONTINUOUS
 62
     6
 10
254.048607
 20
140.319012
 11
254.048607
 21
132.319012
  0
ARC
  8
CSLAYER1
  6
CONTINUOUS
 62
     6
 10
256.048607
 20
132.319012
 40
2.000000
 50
180.000000
 51
269.999984
  0
LINE
  8
CSLAYER1
  6
CONTINUOUS
 62
     6
 10
258.048607
 20
154.148338
 11
258.048607
 21
162.663416
  0
ARC
  8
CSLAYER1
  6
CONTINUOUS
 62
     6
 10
235.048607
 20
170.707327
 40
2.000000
 50
180.000000
 51
265.914373
  0
ARC
  8
CSLAYER1
  6
CONTINUOUS
 62
     6
 10
244.048587
 20
140.319015
 40
18.500019
 50
-36.049314
 51
36.049314
  0
ARC
  8
CSLAYER1
  6
CONTINUOUS
 62
     6
 10
263.048607
 20
154.148338
 40
5.000000
 50
180.000000
 51
216.049314
  0
ARC
  8
CSLAYER1
  6
CONTINUOUS
 62
     6
 10
263.048607
 20
126.489692
 40
5.000000
 50
143.950686
 51
180.000000
  0
ARC
  8
CSLAYER1
  6
CONTINUOUS
 62
     6
 10
253.048607
 20
162.663416
 40
5.000000
 50
0.000000
 51
85.914373
  0
LINE
  8
CSLAYER1
  6
CONTINUOUS
 62
     6
 10
253.404843
 20
167.650709
 11
234.906112
 21
168.712410
  0
LINE
  8
CSLAYER1
  6
CONTINUOUS
 62
     6
 10
166.048607
 20
137.319022
 11
166.048607
 21
152.819022
  0
LINE
  8
CSLAYER1
  6
CONTINUOUS
 62
     6
 10
216.094110
 20
175.319022
 11
181.048607
 21
175.319022
  0
LINE
  8
CSLAYER1
  6
CONTINUOUS
 62
     6
 10
216.094110
 20
135.319022
 11
181.048607
 21
135.319022
  0
LINE
  8
CSLAYER1
  6
CONTINUOUS
 62
     6
 10
180.048607
 20
136.319022
 11
180.048607
 21
174.319022
  0
LINE
  8
CSLAYER1
  6
CONTINUOUS
 62
     6
 10
181.048607
 20
135.319022
 11
180.048607
 21
136.319022
  0
LINE
  8
CSLAYER1
  6
CONTINUOUS
 62
     6
 10
181.048607
 20
175.319022
 11
180.048607
 21
174.319022
  0
LINE
  8
CSLAYER1
  6
CONTINUOUS
 62
     6
 10
181.048607
 20
135.319022
 11
181.048607
 21
175.319022
  0
ARC
  8
CSLAYER1
  6
CONTINUOUS
 62
     6
 10
167.048607
 20
137.319022
 40
1.000000
 50
180.000000
 51
270.000000
  0
ARC
  8
CSLAYER1
  6
CONTINUOUS
 62
     6
 10
167.048607
 20
173.319022
 40
1.000000
 50
90.000000
 51
180.000000
  0
LINE
  8
CSLAYER1
  6
CONTINUOUS
 62
     6
 10
180.048607
 20
174.319022
 11
167.048607
 21
174.319022
  0
LINE
  8
CSLAYER1
  6
CONTINUOUS
 62
     6
 10
180.048607
 20
136.319022
 11
167.048607
 21
136.319022
  0
LINE
  8
CSLAYER1
  6
CONTINUOUS
 62
     6
 10
180.048607
 20
161.319022
 11
168.048607
 21
161.319022
  0
LINE
  8
CSLAYER1
  6
CONTINUOUS
 62
     6
 10
168.048607
 20
161.319022
 11
168.048607
 21
149.319022
  0
LINE
  8
CSLAYER1
  6
CONTINUOUS
 62
     6
 10
168.048607
 20
160.319022
 11
180.048607
 21
160.319022
  0
LINE
  8
CSLAYER1
  6
CONTINUOUS
 62
     6
 10
178.048607
 20
158.319022
 11
167.048607
 21
158.319022
  0
LINE
  8
CSLAYER1
  6
CONTINUOUS
 62
     6
 10
180.048607
 20
149.319022
 11
168.048607
 21
149.319022
  0
LINE
  8
CSLAYER1
  6
CONTINUOUS
 62
     6
 10
168.048607
 20
150.319022
 11
180.048607
 21
150.319022
  0
LINE
  8
CSLAYER1
  6
CONTINUOUS
 62
     6
 10
178.048607
 20
152.319022
 11
167.048607
 21
152.319022
  0
LINE
  8
CSLAYER1
  6
CONTINUOUS
 62
     6
 10
161.048607
 20
163.319022
 11
161.048607
 21
147.319022
  0
LINE
  8
CSLAYER1
  6
CONTINUOUS
 62
     6
 10
166.048607
 20
157.819022
 11
166.048607
 21
173.319022
  0
LINE
  8
CSLAYER1
  6
CONTINUOUS
 62
     6
 10
167.048607
 20
157.819022
 11
161.048607
 21
157.819022
  0
LINE
  8
CSLAYER1
  6
CONTINUOUS
 62
     6
 10
167.048607
 20
152.819022
 11
161.048607
 21
152.819022
  0
LINE
  8
CSLAYER1
  6
CONTINUOUS
 62
     6
 10
167.048607
 20
158.319022
 11
167.048607
 21
157.819022
  0
LINE
  8
CSLAYER1
  6
CONTINUOUS
 62
     6
 10
167.048607
 20
152.819022
 11
167.048607
 21
152.319022
  0
LINE
  8
CSLAYER1
  6
CONTINUOUS
 62
     6
 10
168.048607
 20
160.319022
 11
166.048607
 21
162.319022
  0
LINE
  8
CSLAYER1
  6
CONTINUOUS
 62
     6
 10
168.048607
 20
150.319022
 11
166.048607
 21
148.319022
  0
CIRCLE
  8
CSLAYER1
  6
CONTINUOUS
 62
     3
 10
163.048607
 20
155.319022
 40
1.000000
  0
LINE
  8
CSLAYER1
  6
CENTER
 62
     3
 10
163.048607
 20
157.319022
 11
163.048607
 21
153.319022
  0
LINE
  8
CSLAYER1
  6
CONTINUOUS
 62
     6
 10
178.048607
 20
152.319022
 11
178.048607
 21
158.319022
  0
LINE
  8
CSLAYER1
  6
CONTINUOUS
 62
     6
 10
164.548607
 20
164.819022
 11
162.548607
 21
164.819022
  0
ARC
  8
CSLAYER1
  6
CONTINUOUS
 62
     6
 10
162.548607
 20
163.319022
 40
1.500000
 50
90.000000
 51
180.000000
  0
ARC
  8
CSLAYER1
  6
CONTINUOUS
 62
     6
 10
164.548607
 20
166.319022
 40
1.500000
 50
270.000000
 51
360.000000
  0
LINE
  8
CSLAYER1
  6
CONTINUOUS
 62
     6
 10
164.548607
 20
145.819022
 11
162.548607
 21
145.819022
  0
ARC
  8
CSLAYER1
  6
CONTINUOUS
 62
     6
 10
162.548607
 20
147.319022
 40
1.500000
 50
180.000000
 51
270.000000
  0
ARC
  8
CSLAYER1
  6
CONTINUOUS
 62
     6
 10
164.548607
 20
144.319022
 40
1.500000
 50
0.000000
 51
90.000000
  0
ARC
  8
CSLAYER1
  6
CONTINUOUS
 62
     6
 10
235.048607
 20
152.319020
 40
2.000000
 50
180.000000
 51
269.999968
  0
LINE
  8
CSLAYER1
  6
CENTER
 62
     3
 10
371.548604
 20
155.319073
 11
311.308202
 21
155.319073
  0
LINE
  8
CSLAYER1
  6
CENTER
 62
     3
 10
341.548604
 20
117.319073
 11
341.548604
 21
185.319073
  0
LINE
  8
CSLAYER1
  6
CENTER
 62
     3
 10
371.548604
 20
140.319073
 11
284.548606
 21
140.319073
  0
LINE
  8
CSLAYER1
  6
CONTINUOUS
 62
     6
 10
319.548604
 20
182.319073
 11
363.548604
 21
182.319073
  0
LINE
  8
CSLAYER1
  6
CONTINUOUS
 62
     6
 10
319.548604
 20
128.319073
 11
324.548604
 21
128.319073
  0
LINE
  8
CSLAYER1
  6
CONTINUOUS
 62
     6
 10
326.548604
 20
120.319073
 11
356.548604
 21
120.319073
  0
LINE
  8
CSLAYER1
  6
CONTINUOUS
 62
     6
 10
314.548604
 20
133.319073
 11
314.548604
 21
177.319073
  0
LINE
  8
CSLAYER1
  6
CONTINUOUS
 62
     6
 10
287.548607
 20
136.854073
 11
287.548607
 21
144.284073
  0
LINE
  8
CSLAYER1
  6
CONTINUOUS
 62
     6
 10
314.548604
 20
144.284073
 11
287.548608
 21
144.284073
  0
LINE
  8
CSLAYER1
  6
CONTINUOUS
 62
     6
 10
314.548604
 20
136.354073
 11
312.548607
 21
136.354073
  0
LINE
  8
CSLAYER1
  6
CONTINUOUS
 62
     6
 10
312.548607
 20
136.854073
 11
287.548606
 21
136.854073
  0
LINE
  8
CSLAYER1
  6
CONTINUOUS
 62
     6
 10
312.548607
 20
136.354073
 11
312.548607
 21
136.854073
  0
LINE
  8
CSLAYER1
  6
CONTINUOUS
 62
     6
 10
356.539971
 20
150.319073
 11
364.548602
 21
150.319073
  0
LINE
  8
CSLAYER1
  6
CONTINUOUS
 62
     6
 10
365.548602
 20
149.319073
 11
365.548607
 21
131.319073
  0
ARC
  8
CSLAYER1
  6
CONTINUOUS
 62
     6
 10
364.548602
 20
149.319073
 40
1.000000
 50
0.000016
 51
90.000000
  0
LINE
  8
CSLAYER1
  6
CONTINUOUS
 62
     6
 10
358.548604
 20
130.319073
 11
364.548602
 21
130.319073
  0
ARC
  8
CSLAYER1
  6
CONTINUOUS
 62
     6
 10
364.548602
 20
131.319073
 40
1.000000
 50
270.000000
 51
359.999984
  0
ARC
  8
CSLAYER1
  6
CONTINUOUS
 62
     6
 10
319.548604
 20
177.319073
 40
5.000000
 50
90.000000
 51
180.000000
  0
ARC
  8
CSLAYER1
  6
CONTINUOUS
 62
     6
 10
363.548604
 20
177.319073
 40
5.000000
 50
0.000000
 51
90.000000
  0
ARC
  8
CSLAYER1
  6
CONTINUOUS
 62
     6
 10
363.548604
 20
133.319073
 40
5.000000
 50
270.000000
 51
360.000000
  0
ARC
  8
CSLAYER1
  6
CONTINUOUS
 62
     6
 10
319.548604
 20
133.319073
 40
5.000000
 50
180.000000
 51
270.000000
  0
LINE
  8
CSLAYER1
  6
CONTINUOUS
 62
     6
 10
356.548604
 20
120.319073
 11
356.548604
 21
135.319073
  0
LINE
  8
CSLAYER1
  6
CONTINUOUS
 62
     6
 10
326.548604
 20
120.319073
 11
326.548604
 21
135.319073
  0
LINE
  8
CSLAYER1
  6
CONTINUOUS
 62
     6
 10
358.548604
 20
128.319073
 11
363.548604
 21
128.319073
  0
ARC
  8
CSLAYER1
  6
CONTINUOUS
 62
     6
 10
358.548604
 20
128.319073
 40
2.000000
 50
90.000000
 51
180.000000
  0
ARC
  8
CSLAYER1
  6
CONTINUOUS
 62
     6
 10
358.548604
 20
126.319073
 40
2.000000
 50
90.000000
 51
180.000000
  0
LINE
  8
CSLAYER1
  6
CONTINUOUS
 62
     6
 10
332.548604
 20
128.319073
 11
350.548604
 21
128.319073
  0
LINE
  8
CSLAYER1
  6
CONTINUOUS
 62
     6
 10
332.548604
 20
148.319073
 11
350.548604
 21
148.319073
  0
LINE
  8
CSLAYER1
  6
CONTINUOUS
 62
     6
 10
326.557236
 20
150.319073
 11
315.548606
 21
150.319073
  0
ARC
  8
CSLAYER1
  6
CONTINUOUS
 62
     6
 10
315.548606
 20
149.319073
 40
1.000000
 50
90.000000
 51
179.999984
  0
LINE
  8
CSLAYER1
  6
CONTINUOUS
 62
     6
 10
325.048604
 20
130.319073
 11
315.548606
 21
130.319073
  0
LINE
  8
CSLAYER1
  6
CONTINUOUS
 62
     6
 10
328.557236
 20
130.319073
 11
328.557236
 21
155.319073
  0
LINE
  8
CSLAYER1
  6
CONTINUOUS
 62
     6
 10
354.539971
 20
130.319073
 11
354.539971
 21
155.319073
  0
ARC
  8
CSLAYER1
  6
CONTINUOUS
 62
     6
 10
341.548604
 20
155.319073
 40
13.000000
 50
-0.000000
 51
180.000000
  0
ARC
  8
CSLAYER1
  6
CONTINUOUS
 62
     6
 10
326.557236
 20
152.319073
 40
2.000000
 50
270.000000
 51
360.000000
  0
ARC
  8
CSLAYER1
  6
CONTINUOUS
 62
     6
 10
356.539971
 20
152.319073
 40
2.000000
 50
180.000000
 51
270.000000
  0
ARC
  8
CSLAYER1
  6
CONTINUOUS
 62
     6
 10
324.548604
 20
126.319073
 40
2.000000
 50
0.000000
 51
90.000000
  0
LINE
  8
CSLAYER1
  6
CONTINUOUS
 62
     6
 10
368.548604
 20
133.319073
 11
368.548604
 21
177.319073
  0
LINE
  8
CSLAYER1
  6
CENTER
 62
     3
 10
58.864875
 20
155.319073
 11
119.105276
 21
155.319073
  0
LINE
  8
CSLAYER1
  6
CENTER
 62
     3
 10
88.864875
 20
117.319073
 11
88.864875
 21
185.319073
  0
LINE
  8
CSLAYER1
  6
CENTER
 62
     3
 10
58.864875
 20
140.319073
 11
145.864873
 21
140.319073
  0
LINE
  8
CSLAYER1
  6
CONTINUOUS
 62
     6
 10
110.864875
 20
182.319073
 11
66.864875
 21
182.319073
  0
LINE
  8
CSLAYER1
  6
CONTINUOUS
 62
     6
 10
103.864875
 20
120.319073
 11
73.864875
 21
120.319073
  0
LINE
  8
CSLAYER1
  6
CONTINUOUS
 62
     6
 10
115.864875
 20
133.319073
 11
115.864875
 21
177.319073
  0
LINE
  8
CSLAYER1
  6
CONTINUOUS
 62
     6
 10
142.864871
 20
136.854073
 11
142.864871
 21
144.284073
  0
LINE
  8
CSLAYER1
  6
CONTINUOUS
 62
     6
 10
115.864875
 20
144.284073
 11
142.864870
 21
144.284073
  0
LINE
  8
CSLAYER1
  6
CONTINUOUS
 62
     6
 10
115.864875
 20
136.354073
 11
117.864871
 21
136.354073
  0
LINE
  8
CSLAYER1
  6
CONTINUOUS
 62
     6
 10
117.864871
 20
136.854073
 11
142.864873
 21
136.854073
  0
LINE
  8
CSLAYER1
  6
CONTINUOUS
 62
     6
 10
117.864871
 20
136.354073
 11
117.864871
 21
136.854073
  0
ARC
  8
CSLAYER1
  6
CONTINUOUS
 62
     6
 10
110.864875
 20
177.319073
 40
5.000000
 50
0.000000
 51
90.000000
  0
ARC
  8
CSLAYER1
  6
CONTINUOUS
 62
     6
 10
66.864875
 20
177.319073
 40
5.000000
 50
90.000000
 51
180.000000
  0
ARC
  8
CSLAYER1
  6
CONTINUOUS
 62
     6
 10
66.864875
 20
133.319073
 40
5.000000
 50
180.000000
 51
270.000000
  0
ARC
  8
CSLAYER1
  6
CONTINUOUS
 62
     6
 10
110.864875
 20
133.319073
 40
5.000000
 50
270.000000
 51
360.000000
  0
LINE
  8
CSLAYER1
  6
CONTINUOUS
 62
     6
 10
73.864875
 20
120.319073
 11
73.864875
 21
126.319073
  0
LINE
  8
CSLAYER1
  6
CONTINUOUS
 62
     6
 10
103.864875
 20
120.319073
 11
103.864875
 21
126.319073
  0
ARC
  8
CSLAYER1
  6
CONTINUOUS
 62
     6
 10
71.864875
 20
126.319073
 40
2.000000
 50
0.000000
 51
90.000000
  0
ARC
  8
CSLAYER1
  6
CONTINUOUS
 62
     6
 10
105.864875
 20
126.319073
 40
2.000000
 50
90.000000
 51
180.000000
  0
LINE
  8
CSLAYER1
  6
CONTINUOUS
 62
     6
 10
61.864875
 20
133.319073
 11
61.864875
 21
177.319073
  0
LINE
  8
CSLAYER1
  6
CONTINUOUS
 62
     6
 10
110.864875
 20
128.319073
 11
66.864875
 21
128.319073
  0
LINE
  8
CSLAYER1
  6
CENTER
 62
     3
 10
110.864875
 20
183.819081
 11
110.864875
 21
170.885824
  0
CIRCLE
  8
CSLAYER1
  6
CONTINUOUS
 62
     6
 10
110.864883
 20
177.319088
 40
3.500000
  0
ARC
  8
CSLAYER1
  6
CONTINUOUS
 62
     6
 10
110.864870
 20
177.319089
 40
1.944444
 50
163.398416
 51
196.601577
  0
ARC
  8
CSLAYER1
  6
CONTINUOUS
 62
     6
 10
110.864870
 20
177.319089
 40
1.944444
 50
253.398422
 51
286.601583
  0
ARC
  8
CSLAYER1
  6
CONTINUOUS
 62
     6
 10
110.864870
 20
177.319089
 40
1.944444
 50
-16.601562
 51
16.601572
  0
ARC
  8
CSLAYER1
  6
CONTINUOUS
 62
     6
 10
110.864870
 20
177.319089
 40
1.944444
 50
73.398406
 51
106.601595
  0
LINE
  8
CSLAYER1
  6
CONTINUOUS
 62
     6
 10
111.975995
 20
176.763526
 11
112.728251
 21
176.763526
  0
LINE
  8
CSLAYER1
  6
CONTINUOUS
 62
     6
 10
109.753745
 20
176.763526
 11
109.001489
 21
176.763526
  0
LINE
  8
CSLAYER1
  6
CONTINUOUS
 62
     6
 10
111.975995
 20
177.874651
 11
112.728251
 21
177.874651
  0
LINE
  8
CSLAYER1
  6
CONTINUOUS
 62
     6
 10
109.753745
 20
177.874651
 11
109.001489
 21
177.874651
  0
LINE
  8
CSLAYER1
  6
CONTINUOUS
 62
     6
 10
110.309308
 20
176.207993
 11
110.309308
 21
175.455678
  0
LINE
  8
CSLAYER1
  6
CONTINUOUS
 62
     6
 10
110.309308
 20
178.430185
 11
110.309308
 21
179.182499
  0
LINE
  8
CSLAYER1
  6
CONTINUOUS
 62
     6
 10
111.420432
 20
176.207993
 11
111.420432
 21
175.455678
  0
LINE
  8
CSLAYER1
  6
CONTINUOUS
 62
     6
 10
111.420432
 20
178.430185
 11
111.420432
 21
179.182499
  0
ARC
  8
CSLAYER1
  6
CONTINUOUS
 62
     6
 10
111.975995
 20
176.207993
 40
0.555556
 50
90.000001
 51
179.942691
  0
ARC
  8
CSLAYER1
  6
CONTINUOUS
 62
     6
 10
111.975995
 20
178.430185
 40
0.555556
 50
180.000010
 51
270.000016
  0
ARC
  8
CSLAYER1
  6
CONTINUOUS
 62
     6
 10
109.753745
 20
178.430185
 40
0.555556
 50
-89.999984
 51
0.000005
  0
ARC
  8
CSLAYER1
  6
CONTINUOUS
 62
     6
 10
109.753745
 20
176.207993
 40
0.555556
 50
0.000005
 51
89.942654
  0
LINE
  8
CSLAYER1
  6
CENTER
 62
     3
 10
104.364866
 20
177.319073
 11
117.364883
 21
177.319073
  0
LINE
  8
CSLAYER1
  6
CENTER
 62
     3
 10
66.864875
 20
183.819081
 11
66.864875
 21
170.885824
  0
CIRCLE
  8
CSLAYER1
  6
CONTINUOUS
 62
     6
 10
66.864883
 20
177.319088
 40
3.500000
  0
ARC
  8
CSLAYER1
  6
CONTINUOUS
 62
     6
 10
66.864870
 20
177.319089
 40
1.944444
 50
163.398416
 51
196.601577
  0
ARC
  8
CSLAYER1
  6
CONTINUOUS
 62
     6
 10
66.864870
 20
177.319089
 40
1.944444
 50
253.398422
 51
286.601583
  0
ARC
  8
CSLAYER1
  6
CONTINUOUS
 62
     6
 10
66.864870
 20
177.319089
 40
1.944444
 50
-16.601562
 51
16.601572
  0
ARC
  8
CSLAYER1
  6
CONTINUOUS
 62
     6
 10
66.864870
 20
177.319089
 40
1.944444
 50
73.398406
 51
106.601595
  0
LINE
  8
CSLAYER1
  6
CONTINUOUS
 62
     6
 10
67.975995
 20
176.763526
 11
68.728251
 21
176.763526
  0
LINE
  8
CSLAYER1
  6
CONTINUOUS
 62
     6
 10
65.753745
 20
176.763526
 11
65.001489
 21
176.763526
  0
LINE
  8
CSLAYER1
  6
CONTINUOUS
 62
     6
 10
67.975995
 20
177.874651
 11
68.728251
 21
177.874651
  0
LINE
  8
CSLAYER1
  6
CONTINUOUS
 62
     6
 10
65.753745
 20
177.874651
 11
65.001489
 21
177.874651
  0
LINE
  8
CSLAYER1
  6
CONTINUOUS
 62
     6
 10
66.309308
 20
176.207993
 11
66.309308
 21
175.455678
  0
LINE
  8
CSLAYER1
  6
CONTINUOUS
 62
     6
 10
66.309308
 20
178.430185
 11
66.309308
 21
179.182499
  0
LINE
  8
CSLAYER1
  6
CONTINUOUS
 62
     6
 10
67.420432
 20
176.207993
 11
67.420432
 21
175.455678
  0
LINE
  8
CSLAYER1
  6
CONTINUOUS
 62
     6
 10
67.420432
 20
178.430185
 11
67.420432
 21
179.182499
  0
ARC
  8
CSLAYER1
  6
CONTINUOUS
 62
     6
 10
67.975995
 20
176.207993
 40
0.555556
 50
90.000001
 51
179.942691
  0
ARC
  8
CSLAYER1
  6
CONTINUOUS
 62
     6
 10
67.975995
 20
178.430185
 40
0.555556
 50
180.000010
 51
270.000016
  0
ARC
  8
CSLAYER1
  6
CONTINUOUS
 62
     6
 10
65.753745
 20
178.430185
 40
0.555556
 50
-89.999984
 51
0.000005
  0
ARC
  8
CSLAYER1
  6
CONTINUOUS
 62
     6
 10
65.753745
 20
176.207993
 40
0.555556
 50
0.000005
 51
89.942654
  0
LINE
  8
CSLAYER1
  6
CENTER
 62
     3
 10
60.364866
 20
177.319073
 11
73.364883
 21
177.319073
  0
LINE
  8
CSLAYER1
  6
CENTER
 62
     3
 10
66.864875
 20
139.819081
 11
66.864875
 21
126.885824
  0
CIRCLE
  8
CSLAYER1
  6
CONTINUOUS
 62
     6
 10
66.864883
 20
133.319088
 40
3.500000
  0
ARC
  8
CSLAYER1
  6
CONTINUOUS
 62
     6
 10
66.864870
 20
133.319089
 40
1.944444
 50
163.398416
 51
196.601577
  0
ARC
  8
CSLAYER1
  6
CONTINUOUS
 62
     6
 10
66.864870
 20
133.319089
 40
1.944444
 50
253.398422
 51
286.601583
  0
ARC
  8
CSLAYER1
  6
CONTINUOUS
 62
     6
 10
66.864870
 20
133.319089
 40
1.944444
 50
-16.601562
 51
16.601572
  0
ARC
  8
CSLAYER1
  6
CONTINUOUS
 62
     6
 10
66.864870
 20
133.319089
 40
1.944444
 50
73.398406
 51
106.601595
  0
LINE
  8
CSLAYER1
  6
CONTINUOUS
 62
     6
 10
67.975995
 20
132.763526
 11
68.728251
 21
132.763526
  0
LINE
  8
CSLAYER1
  6
CONTINUOUS
 62
     6
 10
65.753745
 20
132.763526
 11
65.001489
 21
132.763526
  0
LINE
  8
CSLAYER1
  6
CONTINUOUS
 62
     6
 10
67.975995
 20
133.874651
 11
68.728251
 21
133.874651
  0
LINE
  8
CSLAYER1
  6
CONTINUOUS
 62
     6
 10
65.753745
 20
133.874651
 11
65.001489
 21
133.874651
  0
LINE
  8
CSLAYER1
  6
CONTINUOUS
 62
     6
 10
66.309308
 20
132.207993
 11
66.309308
 21
131.455678
  0
LINE
  8
CSLAYER1
  6
CONTINUOUS
 62
     6
 10
66.309308
 20
134.430185
 11
66.309308
 21
135.182499
  0
LINE
  8
CSLAYER1
  6
CONTINUOUS
 62
     6
 10
67.420432
 20
132.207993
 11
67.420432
 21
131.455678
  0
LINE
  8
CSLAYER1
  6
CONTINUOUS
 62
     6
 10
67.420432
 20
134.430185
 11
67.420432
 21
135.182499
  0
ARC
  8
CSLAYER1
  6
CONTINUOUS
 62
     6
 10
67.975995
 20
132.207993
 40
0.555556
 50
90.000001
 51
179.942691
  0
ARC
  8
CSLAYER1
  6
CONTINUOUS
 62
     6
 10
67.975995
 20
134.430185
 40
0.555556
 50
180.000010
 51
270.000016
  0
ARC
  8
CSLAYER1
  6
CONTINUOUS
 62
     6
 10
65.753745
 20
134.430185
 40
0.555556
 50
-89.999984
 51
0.000005
  0
ARC
  8
CSLAYER1
  6
CONTINUOUS
 62
     6
 10
65.753745
 20
132.207993
 40
0.555556
 50
0.000005
 51
89.942654
  0
LINE
  8
CSLAYER1
  6
CENTER
 62
     3
 10
60.364866
 20
133.319073
 11
73.364883
 21
133.319073
  0
LINE
  8
CSLAYER1
  6
CENTER
 62
     3
 10
110.864875
 20
139.819081
 11
110.864875
 21
126.885824
  0
CIRCLE
  8
CSLAYER1
  6
CONTINUOUS
 62
     6
 10
110.864883
 20
133.319088
 40
3.500000
  0
ARC
  8
CSLAYER1
  6
CONTINUOUS
 62
     6
 10
110.864870
 20
133.319089
 40
1.944444
 50
163.398416
 51
196.601577
  0
ARC
  8
CSLAYER1
  6
CONTINUOUS
 62
     6
 10
110.864870
 20
133.319089
 40
1.944444
 50
253.398422
 51
286.601583
  0
ARC
  8
CSLAYER1
  6
CONTINUOUS
 62
     6
 10
110.864870
 20
133.319089
 40
1.944444
 50
-16.601562
 51
16.601572
  0
ARC
  8
CSLAYER1
  6
CONTINUOUS
 62
     6
 10
110.864870
 20
133.319089
 40
1.944444
 50
73.398406
 51
106.601595
  0
LINE
  8
CSLAYER1
  6
CONTINUOUS
 62
     6
 10
111.975995
 20
132.763526
 11
112.728251
 21
132.763526
  0
LINE
  8
CSLAYER1
  6
CONTINUOUS
 62
     6
 10
109.753745
 20
132.763526
 11
109.001489
 21
132.763526
  0
LINE
  8
CSLAYER1
  6
CONTINUOUS
 62
     6
 10
111.975995
 20
133.874651
 11
112.728251
 21
133.874651
  0
LINE
  8
CSLAYER1
  6
CONTINUOUS
 62
     6
 10
109.753745
 20
133.874651
 11
109.001489
 21
133.874651
  0
LINE
  8
CSLAYER1
  6
CONTINUOUS
 62
     6
 10
110.309308
 20
132.207993
 11
110.309308
 21
131.455678
  0
LINE
  8
CSLAYER1
  6
CONTINUOUS
 62
     6
 10
110.309308
 20
134.430185
 11
110.309308
 21
135.182499
  0
LINE
  8
CSLAYER1
  6
CONTINUOUS
 62
     6
 10
111.420432
 20
132.207993
 11
111.420432
 21
131.455678
  0
LINE
  8
CSLAYER1
  6
CONTINUOUS
 62
     6
 10
111.420432
 20
134.430185
 11
111.420432
 21
135.182499
  0
ARC
  8
CSLAYER1
  6
CONTINUOUS
 62
     6
 10
111.975995
 20
132.207993
 40
0.555556
 50
90.000001
 51
179.942691
  0
ARC
  8
CSLAYER1
  6
CONTINUOUS
 62
     6
 10
111.975995
 20
134.430185
 40
0.555556
 50
180.000010
 51
270.000016
  0
ARC
  8
CSLAYER1
  6
CONTINUOUS
 62
     6
 10
109.753745
 20
134.430185
 40
0.555556
 50
-89.999984
 51
0.000005
  0
ARC
  8
CSLAYER1
  6
CONTINUOUS
 62
     6
 10
109.753745
 20
132.207993
 40
0.555556
 50
0.000005
 51
89.942654
  0
LINE
  8
CSLAYER1
  6
CENTER
 62
     3
 10
104.364866
 20
133.319073
 11
117.364883
 21
133.319073
  0
LINE
  8
CSLAYER1
  6
CONTINUOUS
 62
     6
 10
219.048607
 20
223.275831
 11
219.048607
 21
275.275835
  0
LINE
  8
CSLAYER1
  6
CONTINUOUS
 62
     6
 10
225.048607
 20
222.275831
 11
225.048607
 21
276.275831
  0
LINE
  8
CSLAYER1
  6
CONTINUOUS
 62
     6
 10
225.048607
 20
222.275831
 11
220.048607
 21
222.275831
  0
ARC
  8
CSLAYER1
  6
CONTINUOUS
 62
     6
 10
220.048607
 20
223.275831
 40
1.000000
 50
180.000000
 51
270.000000
  0
LINE
  8
CSLAYER1
  6
CENTER
 62
     3
 10
234.548607
 20
227.275829
 11
212.849372
 21
227.275835
  0
LINE
  8
CSLAYER1
  6
CENTER
 62
     3
 10
234.548607
 20
271.275829
 11
212.849372
 21
271.275835
  0
LINE
  8
CSLAYER1
  6
CONTINUOUS
 62
     6
 10
225.048622
 20
276.275831
 11
220.048622
 21
276.275834
  0
ARC
  8
CSLAYER1
  6
CONTINUOUS
 62
     6
 10
220.048621
 20
275.275834
 40
1.000000
 50
89.999968
 51
179.999968
  0
LINE
  8
CSLAYER1
  6
CENTER
 62
     3
 10
253.048607
 20
117.319013
 11
253.048607
 21
123.319013
  0
LINE
  8
CSLAYER1
  6
CENTER
 62
     3
 10
230.048607
 20
117.319013
 11
230.048607
 21
123.319013
  0
LINE
  8
CSLAYER1
  6
CENTER
 62
     3
 10
351.548604
 20
117.319013
 11
351.548604
 21
123.319013
  0
LINE
  8
CSLAYER1
  6
CENTER
 62
     3
 10
331.548604
 20
117.319013
 11
331.548604
 21
123.319013
  0
LINE
  8
CSLAYER1
  6
CENTER
 62
     3
 10
98.864875
 20
117.319013
 11
98.864875
 21
123.319013
  0
LINE
  8
CSLAYER1
  6
CENTER
 62
     3
 10
78.864875
 20
117.319013
 11
78.864875
 21
123.319013
  0
LINE
  8
CSLAYER1
  6
CONTINUOUS
 62
     6
 10
253.048606
 20
222.275830
 11
225.048607
 21
222.275838
  0
LINE
  8
CSLAYER1
  6
CONTINUOUS
 62
     6
 10
231.048607
 20
276.275837
 11
225.048622
 21
276.275838
  0
LINE
  8
CSLAYER1
  6
CONTINUOUS
 62
     6
 10
254.048607
 20
223.275830
 11
254.048607
 21
234.284467
  0
ARC
  8
CSLAYER1
  6
CONTINUOUS
 62
     6
 10
231.048607
 20
224.275837
 40
2.000000
 50
269.999984
 51
360.000000
  0
ARC
  8
CSLAYER1
  6
CONTINUOUS
 62
     6
 10
231.048607
 20
274.275837
 40
2.000000
 50
0.000000
 51
89.999984
  0
ARC
  8
CSLAYER1
  6
CONTINUOUS
 62
     6
 10
253.048607
 20
223.275830
 40
1.000000
 50
269.999984
 51
360.000000
  0
LINE
  8
CSLAYER1
  6
CONTINUOUS
 62
     6
 10
233.048607
 20
224.275837
 11
233.048607
 21
274.275837
  0
ARC
  8
CSLAYER1
  6
CONTINUOUS
 62
     6
 10
253.048607
 20
239.275830
 40
5.000000
 50
281.562167
 51
314.595185
  0
LINE
  8
CSLAYER1
  6
CONTINUOUS
 62
     6
 10
254.048607
 20
264.267199
 11
254.048607
 21
272.275830
  0
LINE
  8
CSLAYER1
  6
CENTER
 62
     3
 10
244.048607
 20
279.275833
 11
244.048607
 21
192.275833
  0
LINE
  8
CSLAYER1
  6
CONTINUOUS
 62
     6
 10
253.048607
 20
273.275830
 11
234.780658
 21
273.275835
  0
ARC
  8
CSLAYER1
  6
CONTINUOUS
 62
     6
 10
253.048607
 20
272.275830
 40
1.000000
 50
0.000000
 51
89.999984
  0
LINE
  8
CSLAYER1
  6
CONTINUOUS
 62
     6
 10
262.548607
 20
241.275829
 11
262.548607
 21
257.275829
  0
ARC
  8
CSLAYER1
  6
CONTINUOUS
 62
     6
 10
257.548607
 20
241.275829
 40
5.000000
 50
273.368352
 51
360.000000
  0
ARC
  8
CSLAYER1
  6
CONTINUOUS
 62
     6
 10
257.548607
 20
257.275829
 40
5.000000
 50
0.000000
 51
86.631579
  0
ARC
  8
CSLAYER1
  6
CONTINUOUS
 62
     6
 10
234.780658
 20
275.275835
 40
2.000000
 50
209.999963
 51
269.999984
  0
LINE
  8
CSLAYER1
  6
CONTINUOUS
 62
     6
 10
248.013607
 20
222.275832
 11
248.013607
 21
195.275834
  0
LINE
  8
CSLAYER1
  6
CONTINUOUS
 62
     6
 10
240.083607
 20
222.275834
 11
240.083607
 21
195.275832
  0
LINE
  8
CSLAYER1
  6
CONTINUOUS
 62
     6
 10
248.013607
 20
195.275834
 11
240.083607
 21
195.275832
  0
ARC
  8
CSLAYER1
  6
CONTINUOUS
 62
     6
 10
257.959891
 20
234.287922
 40
2.000000
 50
93.368388
 51
134.556552
  0
LINE
  8
CSLAYER1
  6
CONTINUOUS
 62
     6
 10
258.582677
 20
262.267191
 11
235.048607
 21
262.267191
  0
LINE
  8
CSLAYER1
  6
CONTINUOUS
 62
     6
 10
257.842381
 20
236.284467
 11
235.048607
 21
236.284467
  0
ARC
  8
CSLAYER1
  6
CONTINUOUS
 62
     6
 10
256.048607
 20
234.284467
 40
2.000000
 50
90.000000
 51
180.000000
  0
ARC
  8
CSLAYER1
  6
CONTINUOUS
 62
     6
 10
253.048607
 20
259.275836
 40
5.000000
 50
45.404815
 51
78.437833
  0
ARC
  8
CSLAYER1
  6
CONTINUOUS
 62
     6
 10
257.959891
 20
264.263744
 40
2.000000
 50
225.443448
 51
266.631612
  0
ARC
  8
CSLAYER1
  6
CONTINUOUS
 62
     6
 10
256.048607
 20
264.267199
 40
2.000000
 50
180.000000
 51
270.000000
  0
ARC
  8
CSLAYER1
  6
CONTINUOUS
 62
     6
 10
235.048607
 20
234.284467
 40
2.000000
 50
90.000000
 51
180.000000
  0
ARC
  8
CSLAYER1
  6
CONTINUOUS
 62
     6
 10
235.048607
 20
264.267191
 40
2.000000
 50
180.000000
 51
270.000000
  0
LINE
  8
CSLAYER1
  6
CONTINUOUS
 62
     6
 10
258.048607
 20
241.284467
 11
258.048607
 21
257.267191
  0
ARC
  8
CSLAYER1
  6
CONTINUOUS
 62
     6
 10
253.048607
 20
241.284467
 40
5.000000
 50
270.000000
 51
360.000000
  0
ARC
  8
CSLAYER1
  6
CONTINUOUS
 62
     6
 10
253.048607
 20
257.267191
 40
5.000000
 50
0.000000
 51
90.000000
  0
LINE
  8
CSLAYER1
  6
CONTINUOUS
 62
     6
 10
218.219191
 20
70.204612
 11
218.219191
 21
76.840078
  0
ARC
  8
CSLAYER1
  6
CONTINUOUS
 62
     6
 10
224.143740
 20
73.522345
 40
8.294369
 50
163.742994
 51
196.257016
  0
LINE
  8
CSLAYER1
  6
CONTINUOUS
 62
     6
 10
217.961511
 20
76.758301
 11
217.215229
 21
76.693013
  0
ARC
  8
CSLAYER1
  6
CONTINUOUS
 62
     6
 10
217.318504
 20
75.512605
 40
1.184910
 50
95.000111
 51
163.742611
  0
ARC
  8
CSLAYER1
  6
CONTINUOUS
 62
     6
 10
217.982195
 20
76.522227
 40
0.236982
 50
0.000000
 51
95.000152
  0
LINE
  8
CSLAYER1
  6
CONTINUOUS
 62
     6
 10
218.337654
 20
76.958576
 11
218.930108
 21
76.958576
  0
ARC
  8
CSLAYER1
  6
CONTINUOUS
 62
     6
 10
218.337654
 20
76.840078
 40
0.118491
 50
90.000003
 51
180.000005
  0
ARC
  8
CSLAYER1
  6
CONTINUOUS
 62
     6
 10
218.930108
 20
76.840078
 40
0.118491
 50
0.000000
 51
90.000003
  0
LINE
  8
CSLAYER1
  6
CONTINUOUS
 62
     6
 10
217.961511
 20
70.286389
 11
217.215229
 21
70.351677
  0
ARC
  8
CSLAYER1
  6
CONTINUOUS
 62
     6
 10
217.318504
 20
71.532085
 40
1.184910
 50
196.257399
 51
264.999892
  0
ARC
  8
CSLAYER1
  6
CONTINUOUS
 62
     6
 10
217.982195
 20
70.522464
 40
0.236982
 50
264.999865
 51
359.942691
  0
ARC
  8
CSLAYER1
  6
CONTINUOUS
 62
     6
 10
218.337654
 20
70.204612
 40
0.118491
 50
180.000005
 51
270.000001
  0
LINE
  8
CSLAYER1
  6
CONTINUOUS
 62
     6
 10
218.337654
 20
70.086114
 11
218.930108
 21
70.086114
  0
ARC
  8
CSLAYER1
  6
CONTINUOUS
 62
     6
 10
218.930108
 20
70.204612
 40
0.118491
 50
270.000001
 51
359.942691
  0
LINE
  8
CSLAYER1
  6
CONTINUOUS
 62
     6
 10
218.219191
 20
72.816219
 11
219.048607
 21
73.342157
  0
LINE
  8
CSLAYER1
  6
CONTINUOUS
 62
     6
 10
218.219191
 20
73.408674
 11
219.048607
 21
73.934612
  0
LINE
  8
CSLAYER1
  6
CONTINUOUS
 62
     6
 10
218.219191
 20
26.204612
 11
218.219191
 21
32.840078
  0
ARC
  8
CSLAYER1
  6
CONTINUOUS
 62
     6
 10
224.143740
 20
29.522345
 40
8.294369
 50
163.742994
 51
196.257016
  0
LINE
  8
CSLAYER1
  6
CONTINUOUS
 62
     6
 10
217.961511
 20
32.758301
 11
217.215229
 21
32.693013
  0
ARC
  8
CSLAYER1
  6
CONTINUOUS
 62
     6
 10
217.318504
 20
31.512605
 40
1.184910
 50
95.000111
 51
163.742611
  0
ARC
  8
CSLAYER1
  6
CONTINUOUS
 62
     6
 10
217.982195
 20
32.522227
 40
0.236982
 50
0.000000
 51
95.000152
  0
LINE
  8
CSLAYER1
  6
CONTINUOUS
 62
     6
 10
218.337654
 20
32.958576
 11
218.930108
 21
32.958576
  0
ARC
  8
CSLAYER1
  6
CONTINUOUS
 62
     6
 10
218.337654
 20
32.840078
 40
0.118491
 50
90.000003
 51
180.000005
  0
ARC
  8
CSLAYER1
  6
CONTINUOUS
 62
     6
 10
218.930108
 20
32.840078
 40
0.118491
 50
0.000000
 51
90.000003
  0
LINE
  8
CSLAYER1
  6
CONTINUOUS
 62
     6
 10
217.961511
 20
26.286389
 11
217.215229
 21
26.351677
  0
ARC
  8
CSLAYER1
  6
CONTINUOUS
 62
     6
 10
217.318504
 20
27.532085
 40
1.184910
 50
196.257399
 51
264.999892
  0
ARC
  8
CSLAYER1
  6
CONTINUOUS
 62
     6
 10
217.982195
 20
26.522464
 40
0.236982
 50
264.999865
 51
359.942691
  0
ARC
  8
CSLAYER1
  6
CONTINUOUS
 62
     6
 10
218.337654
 20
26.204612
 40
0.118491
 50
180.000005
 51
270.000001
  0
LINE
  8
CSLAYER1
  6
CONTINUOUS
 62
     6
 10
218.337654
 20
26.086114
 11
218.930108
 21
26.086114
  0
ARC
  8
CSLAYER1
  6
CONTINUOUS
 62
     6
 10
218.930108
 20
26.204612
 40
0.118491
 50
270.000001
 51
359.942691
  0
LINE
  8
CSLAYER1
  6
CONTINUOUS
 62
     6
 10
218.219191
 20
28.816219
 11
219.048607
 21
29.342157
  0
LINE
  8
CSLAYER1
  6
CONTINUOUS
 62
     6
 10
218.219191
 20
29.408674
 11
219.048607
 21
29.934612
  0
CIRCLE
  8
CSLAYER1
  6
CONTINUOUS
 62
     3
 10
230.048607
 20
61.522348
 40
2.000000
  0
CIRCLE
  8
CSLAYER1
  6
CONTINUOUS
 62
     6
 10
230.048607
 20
61.522348
 40
1.600000
  0
LINE
  8
CSLAYER1
  6
CENTER
 62
     3
 10
226.048607
 20
61.522348
 11
234.048607
 21
61.522348
  0
LINE
  8
CSLAYER1
  6
CENTER
 62
     3
 10
230.048607
 20
65.522348
 11
230.048607
 21
57.522348
  0
CIRCLE
  8
CSLAYER1
  6
CONTINUOUS
 62
     3
 10
253.048607
 20
61.522355
 40
2.000000
  0
CIRCLE
  8
CSLAYER1
  6
CONTINUOUS
 62
     6
 10
253.048607
 20
61.522355
 40
1.600000
  0
LINE
  8
CSLAYER1
  6
CENTER
 62
     3
 10
249.048607
 20
61.522355
 11
257.048607
 21
61.522355
  0
LINE
  8
CSLAYER1
  6
CENTER
 62
     3
 10
253.048607
 20
65.522355
 11
253.048607
 21
57.522355
  0
CIRCLE
  8
CSLAYER1
  6
CONTINUOUS
 62
     3
 10
253.048607
 20
41.522355
 40
2.000000
  0
CIRCLE
  8
CSLAYER1
  6
CONTINUOUS
 62
     6
 10
253.048607
 20
41.522355
 40
1.600000
  0
LINE
  8
CSLAYER1
  6
CENTER
 62
     3
 10
249.048607
 20
41.522355
 11
257.048607
 21
41.522355
  0
LINE
  8
CSLAYER1
  6
CENTER
 62
     3
 10
253.048607
 20
45.522355
 11
253.048607
 21
37.522355
  0
CIRCLE
  8
CSLAYER1
  6
CONTINUOUS
 62
     3
 10
230.048607
 20
41.522348
 40
2.000000
  0
CIRCLE
  8
CSLAYER1
  6
CONTINUOUS
 62
     6
 10
230.048607
 20
41.522348
 40
1.600000
  0
LINE
  8
CSLAYER1
  6
CENTER
 62
     3
 10
226.048607
 20
41.522348
 11
234.048607
 21
41.522348
  0
LINE
  8
CSLAYER1
  6
CENTER
 62
     3
 10
230.048607
 20
45.522348
 11
230.048607
 21
37.522348
  0
LINE
  8
CSLAYER1
  6
CONTINUOUS
 62
     6
 10
218.219191
 20
136.636755
 11
218.219191
 21
130.001289
  0
ARC
  8
CSLAYER1
  6
CONTINUOUS
 62
     6
 10
224.143740
 20
133.319022
 40
8.294369
 50
163.742984
 51
196.257006
  0
LINE
  8
CSLAYER1
  6
CONTINUOUS
 62
     6
 10
217.961511
 20
130.083066
 11
217.215229
 21
130.148354
  0
ARC
  8
CSLAYER1
  6
CONTINUOUS
 62
     6
 10
217.318504
 20
131.328762
 40
1.184910
 50
196.257389
 51
264.999889
  0
ARC
  8
CSLAYER1
  6
CONTINUOUS
 62
     6
 10
217.982195
 20
130.319141
 40
0.236982
 50
264.999848
 51
360.000000
  0
LINE
  8
CSLAYER1
  6
CONTINUOUS
 62
     6
 10
218.337654
 20
129.882791
 11
218.930108
 21
129.882791
  0
ARC
  8
CSLAYER1
  6
CONTINUOUS
 62
     6
 10
218.337654
 20
130.001289
 40
0.118491
 50
179.999995
 51
269.999997
  0
ARC
  8
CSLAYER1
  6
CONTINUOUS
 62
     6
 10
218.930108
 20
130.001289
 40
0.118491
 50
269.999997
 51
360.000000
  0
LINE
  8
CSLAYER1
  6
CONTINUOUS
 62
     6
 10
217.961511
 20
136.554978
 11
217.215229
 21
136.489690
  0
ARC
  8
CSLAYER1
  6
CONTINUOUS
 62
     6
 10
217.318504
 20
135.309282
 40
1.184910
 50
95.000108
 51
163.742601
  0
ARC
  8
CSLAYER1
  6
CONTINUOUS
 62
     6
 10
217.982195
 20
136.318904
 40
0.236982
 50
0.057309
 51
95.007231
  0
ARC
  8
CSLAYER1
  6
CONTINUOUS
 62
     6
 10
218.337654
 20
136.636755
 40
0.118491
 50
89.999999
 51
179.999995
  0
LINE
  8
CSLAYER1
  6
CONTINUOUS
 62
     6
 10
218.337654
 20
136.755253
 11
218.930108
 21
136.755253
  0
ARC
  8
CSLAYER1
  6
CONTINUOUS
 62
     6
 10
218.930108
 20
136.636755
 40
0.118491
 50
0.057309
 51
89.999999
  0
LINE
  8
CSLAYER1
  6
CONTINUOUS
 62
     6
 10
219.048607
 20
134.025147
 11
218.219191
 21
133.499210
  0
LINE
  8
CSLAYER1
  6
CONTINUOUS
 62
     6
 10
219.048607
 20
133.432693
 11
218.219191
 21
132.906755
  0
LINE
  8
CSLAYER1
  6
CONTINUOUS
 62
     6
 10
218.219191
 20
180.636755
 11
218.219191
 21
174.001289
  0
ARC
  8
CSLAYER1
  6
CONTINUOUS
 62
     6
 10
224.143740
 20
177.319022
 40
8.294369
 50
163.742984
 51
196.257006
  0
LINE
  8
CSLAYER1
  6
CONTINUOUS
 62
     6
 10
217.961511
 20
174.083066
 11
217.215229
 21
174.148354
  0
ARC
  8
CSLAYER1
  6
CONTINUOUS
 62
     6
 10
217.318504
 20
175.328762
 40
1.184910
 50
196.257389
 51
264.999889
  0
ARC
  8
CSLAYER1
  6
CONTINUOUS
 62
     6
 10
217.982195
 20
174.319141
 40
0.236982
 50
264.999848
 51
360.000000
  0
LINE
  8
CSLAYER1
  6
CONTINUOUS
 62
     6
 10
218.337654
 20
173.882791
 11
218.930108
 21
173.882791
  0
ARC
  8
CSLAYER1
  6
CONTINUOUS
 62
     6
 10
218.337654
 20
174.001289
 40
0.118491
 50
179.999995
 51
269.999997
  0
ARC
  8
CSLAYER1
  6
CONTINUOUS
 62
     6
 10
218.930108
 20
174.001289
 40
0.118491
 50
269.999997
 51
360.000000
  0
LINE
  8
CSLAYER1
  6
CONTINUOUS
 62
     6
 10
217.961511
 20
180.554978
 11
217.215229
 21
180.489690
  0
ARC
  8
CSLAYER1
  6
CONTINUOUS
 62
     6
 10
217.318504
 20
179.309282
 40
1.184910
 50
95.000108
 51
163.742601
  0
ARC
  8
CSLAYER1
  6
CONTINUOUS
 62
     6
 10
217.982195
 20
180.318904
 40
0.236982
 50
0.057309
 51
95.000135
  0
ARC
  8
CSLAYER1
  6
CONTINUOUS
 62
     6
 10
218.337654
 20
180.636755
 40
0.118491
 50
89.999999
 51
179.999995
  0
LINE
  8
CSLAYER1
  6
CONTINUOUS
 62
     6
 10
218.337654
 20
180.755253
 11
218.930108
 21
180.755253
  0
ARC
  8
CSLAYER1
  6
CONTINUOUS
 62
     6
 10
218.930108
 20
180.636755
 40
0.118491
 50
0.057309
 51
89.999999
  0
LINE
  8
CSLAYER1
  6
CONTINUOUS
 62
     6
 10
219.048607
 20
178.025147
 11
218.219191
 21
177.499210
  0
LINE
  8
CSLAYER1
  6
CONTINUOUS
 62
     6
 10
219.048607
 20
177.432693
 11
218.219191
 21
176.906755
  0
CIRCLE
  8
CSLAYER1
  6
CONTINUOUS
 62
     3
 10
319.548604
 20
177.319073
 40
2.000000
  0
CIRCLE
  8
CSLAYER1
  6
CONTINUOUS
 62
     6
 10
319.548604
 20
177.319073
 40
1.600000
  0
LINE
  8
CSLAYER1
  6
CENTER
 62
     3
 10
319.548604
 20
173.319073
 11
319.548604
 21
181.319073
  0
LINE
  8
CSLAYER1
  6
CENTER
 62
     3
 10
315.548604
 20
177.319073
 11
323.548604
 21
177.319073
  0
CIRCLE
  8
CSLAYER1
  6
CONTINUOUS
 62
     3
 10
363.548604
 20
177.319073
 40
2.000000
  0
CIRCLE
  8
CSLAYER1
  6
CONTINUOUS
 62
     6
 10
363.548604
 20
177.319073
 40
1.600000
  0
LINE
  8
CSLAYER1
  6
CENTER
 62
     3
 10
363.548604
 20
173.319073
 11
363.548604
 21
181.319073
  0
LINE
  8
CSLAYER1
  6
CENTER
 62
     3
 10
367.548604
 20
177.319073
 11
359.548604
 21
177.319073
  0
LINE
  8
CSLAYER1
  6
CONTINUOUS
 62
     6
 10
242.121154
 20
136.854015
 11
245.976021
 21
136.854015
  0
LINE
  8
CSLAYER1
  6
CONTINUOUS
 62
     6
 10
218.219190
 20
223.958100
 11
218.219193
 21
230.593566
  0
ARC
  8
CSLAYER1
  6
CONTINUOUS
 62
     6
 10
224.143740
 20
227.275830
 40
8.294369
 50
163.742962
 51
196.256984
  0
LINE
  8
CSLAYER1
  6
CONTINUOUS
 62
     6
 10
217.961513
 20
230.511789
 11
217.215231
 21
230.446502
  0
ARC
  8
CSLAYER1
  6
CONTINUOUS
 62
     6
 10
217.318505
 20
229.266094
 40
1.184910
 50
95.000079
 51
163.742579
  0
ARC
  8
CSLAYER1
  6
CONTINUOUS
 62
     6
 10
217.982197
 20
230.275715
 40
0.236982
 50
-0.000032
 51
95.000120
  0
LINE
  8
CSLAYER1
  6
CONTINUOUS
 62
     6
 10
218.337655
 20
230.712064
 11
218.930110
 21
230.712064
  0
ARC
  8
CSLAYER1
  6
CONTINUOUS
 62
     6
 10
218.337655
 20
230.593566
 40
0.118491
 50
89.999970
 51
179.999973
  0
ARC
  8
CSLAYER1
  6
CONTINUOUS
 62
     6
 10
218.930110
 20
230.593566
 40
0.118491
 50
-0.000032
 51
89.999970
  0
LINE
  8
CSLAYER1
  6
CONTINUOUS
 62
     6
 10
217.961509
 20
224.039878
 11
217.215227
 21
224.105166
  0
ARC
  8
CSLAYER1
  6
CONTINUOUS
 62
     6
 10
217.318503
 20
225.285574
 40
1.184910
 50
196.257367
 51
264.999860
  0
ARC
  8
CSLAYER1
  6
CONTINUOUS
 62
     6
 10
217.982193
 20
224.275952
 40
0.236982
 50
264.999833
 51
359.942659
  0
ARC
  8
CSLAYER1
  6
CONTINUOUS
 62
     6
 10
218.337652
 20
223.958100
 40
0.118491
 50
179.999973
 51
269.999969
  0
LINE
  8
CSLAYER1
  6
CONTINUOUS
 62
     6
 10
218.337652
 20
223.839602
 11
218.930107
 21
223.839602
  0
ARC
  8
CSLAYER1
  6
CONTINUOUS
 62
     6
 10
218.930107
 20
223.958100
 40
0.118491
 50
269.999969
 51
359.942659
  0
LINE
  8
CSLAYER1
  6
CONTINUOUS
 62
     6
 10
218.219191
 20
226.569708
 11
219.048607
 21
227.095645
  0
LINE
  8
CSLAYER1
  6
CONTINUOUS
 62
     6
 10
218.219191
 20
227.162163
 11
219.048607
 21
227.688100
  0
LINE
  8
CSLAYER1
  6
CONTINUOUS
 62
     6
 10
218.219190
 20
267.958100
 11
218.219193
 21
274.593566
  0
ARC
  8
CSLAYER1
  6
CONTINUOUS
 62
     6
 10
224.143740
 20
271.275830
 40
8.294369
 50
163.742962
 51
196.256984
  0
LINE
  8
CSLAYER1
  6
CONTINUOUS
 62
     6
 10
217.961513
 20
274.511789
 11
217.215231
 21
274.446502
  0
ARC
  8
CSLAYER1
  6
CONTINUOUS
 62
     6
 10
217.318505
 20
273.266094
 40
1.184910
 50
95.000079
 51
163.742579
  0
ARC
  8
CSLAYER1
  6
CONTINUOUS
 62
     6
 10
217.982197
 20
274.275715
 40
0.236982
 50
-0.000032
 51
95.000120
  0
LINE
  8
CSLAYER1
  6
CONTINUOUS
 62
     6
 10
218.337655
 20
274.712064
 11
218.930110
 21
274.712064
  0
ARC
  8
CSLAYER1
  6
CONTINUOUS
 62
     6
 10
218.337655
 20
274.593566
 40
0.118491
 50
89.999970
 51
179.999973
  0
ARC
  8
CSLAYER1
  6
CONTINUOUS
 62
     6
 10
218.930110
 20
274.593566
 40
0.118491
 50
-0.000032
 51
89.999970
  0
LINE
  8
CSLAYER1
  6
CONTINUOUS
 62
     6
 10
217.961509
 20
268.039878
 11
217.215227
 21
268.105166
  0
ARC
  8
CSLAYER1
  6
CONTINUOUS
 62
     6
 10
217.318503
 20
269.285574
 40
1.184910
 50
196.257367
 51
264.999860
  0
ARC
  8
CSLAYER1
  6
CONTINUOUS
 62
     6
 10
217.982193
 20
268.275952
 40
0.236982
 50
264.999833
 51
359.942659
  0
ARC
  8
CSLAYER1
  6
CONTINUOUS
 62
     6
 10
218.337652
 20
267.958100
 40
0.118491
 50
179.999973
 51
269.999969
  0
LINE
  8
CSLAYER1
  6
CONTINUOUS
 62
     6
 10
218.337652
 20
267.839602
 11
218.930107
 21
267.839602
  0
ARC
  8
CSLAYER1
  6
CONTINUOUS
 62
     6
 10
218.930107
 20
267.958100
 40
0.118491
 50
269.999969
 51
359.942659
  0
LINE
  8
CSLAYER1
  6
CONTINUOUS
 62
     6
 10
218.219191
 20
270.569708
 11
219.048607
 21
271.095645
  0
LINE
  8
CSLAYER1
  6
CONTINUOUS
 62
     6
 10
218.219191
 20
271.162163
 11
219.048607
 21
271.688100
  0
LINE
  8
CSLAYER1
  6
CONTINUOUS
 62
     6
 10
161.048607
 20
256.775833
 11
161.048607
 21
241.775833
  0
LINE
  8
CSLAYER1
  6
CONTINUOUS
 62
     6
 10
166.048607
 20
267.275833
 11
166.048607
 21
231.275833
  0
LINE
  8
CSLAYER1
  6
CONTINUOUS
 62
     6
 10
180.048607
 20
271.775833
 11
180.048607
 21
226.775833
  0
LINE
  8
CSLAYER1
  6
CONTINUOUS
 62
     6
 10
164.048607
 20
239.775833
 11
163.048607
 21
239.775833
  0
LINE
  8
CSLAYER1
  6
CONTINUOUS
 62
     6
 10
164.048607
 20
258.775833
 11
163.048607
 21
258.775833
  0
ARC
  8
CSLAYER1
  6
CONTINUOUS
 62
     6
 10
163.048607
 20
256.775833
 40
2.000000
 50
90.000000
 51
180.000000
  0
ARC
  8
CSLAYER1
  6
CONTINUOUS
 62
     6
 10
163.048607
 20
241.775833
 40
2.000000
 50
180.000000
 51
270.000000
  0
ARC
  8
CSLAYER1
  6
CONTINUOUS
 62
     6
 10
164.048607
 20
260.775833
 40
2.000000
 50
270.000000
 51
360.000000
  0
ARC
  8
CSLAYER1
  6
CONTINUOUS
 62
     6
 10
164.048607
 20
237.775833
 40
2.000000
 50
0.000000
 51
90.000000
  0
ARC
  8
CSLAYER1
  6
CONTINUOUS
 62
     6
 10
167.048607
 20
267.275833
 40
1.000000
 50
90.000000
 51
180.000000
  0
ARC
  8
CSLAYER1
  6
CONTINUOUS
 62
     6
 10
167.048607
 20
231.275833
 40
1.000000
 50
180.000000
 51
270.000000
  0
LINE
  8
CSLAYER1
  6
CONTINUOUS
 62
     6
 10
168.048607
 20
230.275833
 11
167.048607
 21
230.275833
  0
LINE
  8
CSLAYER1
  6
CONTINUOUS
 62
     6
 10
168.048607
 20
268.275833
 11
167.048607
 21
268.275833
  0
LINE
  8
CSLAYER1
  6
CONTINUOUS
 62
     6
 10
180.048607
 20
226.775833
 11
168.048607
 21
226.775833
  0
LINE
  8
CSLAYER1
  6
CONTINUOUS
 62
     6
 10
180.048607
 20
271.775833
 11
168.048607
 21
271.775833
  0
LINE
  8
CSLAYER1
  6
CONTINUOUS
 62
     6
 10
180.048607
 20
267.775833
 11
168.048607
 21
267.775833
  0
LINE
  8
CSLAYER1
  6
CONTINUOUS
 62
     6
 10
180.048607
 20
230.775833
 11
168.048607
 21
230.775833
  0
LINE
  8
CSLAYER1
  6
CONTINUOUS
 62
     6
 10
168.048607
 20
230.775833
 11
168.048607
 21
226.775833
  0
LINE
  8
CSLAYER1
  6
CONTINUOUS
 62
     6
 10
168.048607
 20
271.775833
 11
168.048607
 21
267.775833
  0
LINE
  8
CSLAYER1
  6
CONTINUOUS
 62
     6
 10
180.048607
 20
227.775833
 11
168.048607
 21
227.775833
  0
LINE
  8
CSLAYER1
  6
CONTINUOUS
 62
     6
 10
180.048607
 20
270.775833
 11
168.048607
 21
270.775833
  0
LINE
  8
CSLAYER1
  6
CONTINUOUS
 62
     6
 10
168.048607
 20
270.275833
 11
161.048607
 21
270.275833
  0
LINE
  8
CSLAYER1
  6
CONTINUOUS
 62
     6
 10
161.048607
 20
228.275833
 11
168.048607
 21
228.275833
  0
LINE
  8
CSLAYER1
  6
CONTINUOUS
 62
     6
 10
168.048607
 20
269.775833
 11
161.048607
 21
269.775833
  0
LINE
  8
CSLAYER1
  6
CONTINUOUS
 62
     6
 10
161.048607
 20
228.775833
 11
168.048607
 21
228.775833
  0
LINE
  8
CSLAYER1
  6
CONTINUOUS
 62
     6
 10
161.048607
 20
270.275833
 11
161.048607
 21
269.775833
  0
LINE
  8
CSLAYER1
  6
CONTINUOUS
 62
     6
 10
161.048607
 20
228.775833
 11
161.048607
 21
228.275833
  0
LINE
  8
CSLAYER1
  6
CONTINUOUS
 62
     6
 10
166.048607
 20
69.522345
 11
166.048607
 21
33.522332
  0
LINE
  8
CSLAYER1
  6
CONTINUOUS
 62
     6
 10
180.048607
 20
74.022335
 11
180.048607
 21
29.022335
  0
ARC
  8
CSLAYER1
  6
CONTINUOUS
 62
     6
 10
167.048607
 20
33.522332
 40
1.000000
 50
180.000000
 51
270.000000
  0
LINE
  8
CSLAYER1
  6
CONTINUOUS
 62
     6
 10
168.048607
 20
32.522332
 11
167.048607
 21
32.522332
  0
LINE
  8
CSLAYER1
  6
CONTINUOUS
 62
     6
 10
164.548607
 20
42.022332
 11
162.548607
 21
42.022332
  0
ARC
  8
CSLAYER1
  6
CONTINUOUS
 62
     6
 10
162.548607
 20
43.522332
 40
1.500000
 50
180.000000
 51
270.000000
  0
ARC
  8
CSLAYER1
  6
CONTINUOUS
 62
     6
 10
164.548607
 20
40.522332
 40
1.500000
 50
0.000000
 51
90.000000
  0
LINE
  8
CSLAYER1
  6
CONTINUOUS
 62
     6
 10
164.548607
 20
61.022332
 11
162.548607
 21
61.022332
  0
ARC
  8
CSLAYER1
  6
CONTINUOUS
 62
     6
 10
162.548607
 20
59.522332
 40
1.500000
 50
90.000000
 51
180.000000
  0
ARC
  8
CSLAYER1
  6
CONTINUOUS
 62
     6
 10
164.548607
 20
62.522332
 40
1.500000
 50
270.000000
 51
360.000000
  0
LINE
  8
CSLAYER1
  6
CONTINUOUS
 62
     6
 10
161.048607
 20
43.522332
 11
161.048607
 21
59.522332
  0
LINE
  8
CSLAYER1
  6
CONTINUOUS
 62
     6
 10
180.048607
 20
29.022335
 11
168.048607
 21
29.022338
  0
LINE
  8
CSLAYER1
  6
CONTINUOUS
 62
     6
 10
168.048607
 20
33.022338
 11
168.048607
 21
29.022338
  0
LINE
  8
CSLAYER1
  6
CONTINUOUS
 62
     6
 10
180.048607
 20
30.022335
 11
168.048607
 21
30.022338
  0
LINE
  8
CSLAYER1
  6
CONTINUOUS
 62
     6
 10
180.048607
 20
33.022335
 11
168.048607
 21
33.022338
  0
LINE
  8
CSLAYER1
  6
CONTINUOUS
 62
     6
 10
168.048607
 20
32.022338
 11
161.048607
 21
32.022340
  0
LINE
  8
CSLAYER1
  6
CONTINUOUS
 62
     6
 10
180.048619
 20
74.022335
 11
168.048619
 21
74.022338
  0
LINE
  8
CSLAYER1
  6
CONTINUOUS
 62
     6
 10
168.048617
 20
70.022338
 11
168.048619
 21
74.022338
  0
LINE
  8
CSLAYER1
  6
CONTINUOUS
 62
     6
 10
180.048619
 20
73.022335
 11
168.048619
 21
73.022338
  0
LINE
  8
CSLAYER1
  6
CONTINUOUS
 62
     6
 10
180.048617
 20
70.022335
 11
168.048617
 21
70.022338
  0
ARC
  8
CSLAYER1
  6
CONTINUOUS
 62
     6
 10
167.048617
 20
69.522345
 40
1.000000
 50
89.999968
 51
179.999968
  0
LINE
  8
CSLAYER1
  6
CONTINUOUS
 62
     6
 10
168.048617
 20
70.522344
 11
167.048617
 21
70.522345
  0
LINE
  8
CSLAYER1
  6
CONTINUOUS
 62
     6
 10
168.048607
 20
31.522338
 11
161.048607
 21
31.522340
  0
LINE
  8
CSLAYER1
  6
CONTINUOUS
 62
     6
 10
161.048607
 20
31.522340
 11
161.048607
 21
32.022340
  0
LINE
  8
CSLAYER1
  6
CONTINUOUS
 62
     6
 10
168.048618
 20
71.022338
 11
161.048618
 21
71.022340
  0
LINE
  8
CSLAYER1
  6
CONTINUOUS
 62
     6
 10
168.048618
 20
71.522338
 11
161.048618
 21
71.522340
  0
LINE
  8
CSLAYER1
  6
CONTINUOUS
 62
     6
 10
161.048618
 20
71.522340
 11
161.048618
 21
71.022340
  0
LINE
  8
CSLAYER1
  6
CONTINUOUS
 62
     3
 10
214.548607
 20
268.790354
 11
184.548607
 21
268.790354
  0
LINE
  8
CSLAYER1
  6
CONTINUOUS
 62
     3
 10
214.548607
 20
229.761313
 11
184.548607
 21
229.761313
  0
LINE
  8
CSLAYER1
  6
CONTINUOUS
 62
     3
 10
215.548607
 20
267.790354
 11
215.548607
 21
230.761313
  0
LINE
  8
CSLAYER1
  6
CONTINUOUS
 62
     3
 10
183.548607
 20
267.790354
 11
183.548607
 21
230.761313
  0
ARC
  8
CSLAYER1
  6
CONTINUOUS
 62
     3
 10
214.548607
 20
230.761313
 40
1.000000
 50
270.000000
 51
360.000000
  0
ARC
  8
CSLAYER1
  6
CONTINUOUS
 62
     3
 10
184.548607
 20
230.761313
 40
1.000000
 50
180.000000
 51
270.000000
  0
ARC
  8
CSLAYER1
  6
CONTINUOUS
 62
     3
 10
184.548607
 20
267.790354
 40
1.000000
 50
90.000000
 51
180.000000
  0
ARC
  8
CSLAYER1
  6
CONTINUOUS
 62
     3
 10
214.548607
 20
267.790354
 40
1.000000
 50
0.000000
 51
90.000000
  0
TEXT
  8
CSLAYER1
 62
     3
 10
197.472763
 20
254.536789
 40
3.500000
 41
1.125000
  1
N P
 50
270.000000
 51
10.000000
  7
JX_FONT
 72
     5
 11
197.472763
 21
244.036789
  0
LINE
  8
CSLAYER1
  6
CONTINUOUS
 62
     3
 10
214.548604
 20
159.698936
 11
184.548604
 21
159.698919
  0
LINE
  8
CSLAYER1
  6
CONTINUOUS
 62
     3
 10
215.548604
 20
160.698937
 11
215.548595
 21
175.319042
  0
LINE
  8
CSLAYER1
  6
CONTINUOUS
 62
     3
 10
183.548604
 20
160.698919
 11
183.548595
 21
175.319024
  0
ARC
  8
CSLAYER1
  6
CONTINUOUS
 62
     3
 10
184.548604
 20
160.698919
 40
1.000000
 50
180.000033
 51
270.000033
  0
ARC
  8
CSLAYER1
  6
CONTINUOUS
 62
     3
 10
214.548604
 20
160.698936
 40
1.000000
 50
-89.999967
 51
0.000033
  0
CIRCLE
  8
CSLAYER1
  6
PHANTOM
 62
     7
 10
216.320381
 20
249.275833
 40
0.098712
  0
ARC
  8
CSLAYER1
  6
CONTINUOUS
 62
     6
 10
244.048587
 20
140.319015
 40
10.000000
 50
-90.000000
 51
89.999968
  0
TEXT
  8
CSLAYER1
 62
     3
 10
81.316811
 20
152.374512
 40
1.472728
 41
1.260000
  1
S
 50
290.000000
 51
0.000000
  7
JX_FONT
 72
     5
 11
81.739921
 21
151.212026
  0
TEXT
  8
CSLAYER1
 62
     3
 10
81.883675
 20
151.074219
 40
1.472728
 41
1.260000
  1
A
 50
300.000000
 51
0.000000
  7
JX_FONT
 72
     5
 11
82.502220
 21
150.002866
  0
TEXT
  8
CSLAYER1
 62
     3
 10
82.779182
 20
149.970840
 40
1.472728
 41
1.675800
  1
W
 50
310.000000
 51
0.000000
  7
JX_FONT
 72
     5
 11
83.836781
 21
148.710443
  0
TEXT
  8
CSLAYER1
 62
     3
 10
83.800423
 20
148.995209
 40
1.472728
 41
1.260000
  1
A
 50
320.000000
 51
0.000000
  7
JX_FONT
 72
     5
 11
84.748089
 21
148.200022
  0
TEXT
  8
CSLAYER1
 62
     3
 10
84.973610
 20
148.208359
 40
1.472728
 41
1.260000
  1
M
 50
330.000000
 51
0.000000
  7
JX_FONT
 72
     5
 11
86.044962
 21
147.589813
  0
TEXT
  8
CSLAYER1
 62
     3
 10
86.268867
 20
147.644577
 40
1.472728
 41
1.260000
  1
U
 50
340.000000
 51
0.000000
  7
JX_FONT
 72
     5
 11
87.431353
 21
147.221467
  0
TEXT
  8
CSLAYER1
 62
     3
 10
87.624321
 20
147.215332
 40
1.472728
 41
1.260000
  1
R
 50
350.000000
 51
0.000000
  7
JX_FONT
 72
     5
 11
88.842618
 21
147.000513
  0
TEXT
  8
CSLAYER1
 62
     3
 10
89.050339
 20
147.219727
 40
1.472728
 41
1.260000
  1
A
 50
360.000000
 51
0.000000
  7
JX_FONT
 72
     5
 11
90.287430
 21
147.219727
  0
TEXT
  8
CSLAYER1
 62
     3
 10
91.809601
 20
147.771500
 40
1.472728
 41
1.260000
  1
D
 50
20.000000
 51
0.000000
  7
JX_FONT
 72
     5
 11
92.972086
 21
148.194610
  0
TEXT
  8
CSLAYER1
 62
     3
 10
93.075592
 20
148.397263
 40
1.472728
 41
1.260000
  1
E
 50
30.000000
 51
0.000000
  7
JX_FONT
 72
     5
 11
94.146944
 21
149.015808
  0
TEXT
  8
CSLAYER1
 62
     3
 10
94.213638
 20
149.233765
 40
1.472728
 41
1.260000
  1
N
 50
40.000000
 51
0.000000
  7
JX_FONT
 72
     5
 11
95.161305
 21
150.028952
  0
TEXT
  8
CSLAYER1
 62
     3
 10
95.189133
 20
150.255157
 40
1.472728
 41
1.260000
  1
K
 50
50.000000
 51
0.000000
  7
JX_FONT
 72
     5
 11
95.984320
 21
151.202824
  0
TEXT
  8
CSLAYER1
 62
     3
 10
95.972488
 20
151.429779
 40
1.472728
 41
0.831600
  1
I
 50
60.000000
 51
0.000000
  7
JX_FONT
 72
     5
 11
96.380729
 21
152.136872
  0
CIRCLE
  8
CSLAYER1
  6
CONTINUOUS
 62
     6
 10
88.864875
 20
155.319073
 40
9.500000
  0
LINE
  8
CSLAYER1
  6
CONTINUOUS
 62
     6
 10
90.452593
 20
174.023623
 11
87.277166
 21
174.023623
  0
LINE
  8
CSLAYER1
  6
CONTINUOUS
 62
     6
 10
87.277166
 20
174.023623
 11
85.689453
 21
171.273623
  0
LINE
  8
CSLAYER1
  6
CONTINUOUS
 62
     6
 10
85.689453
 20
171.273623
 11
87.277166
 21
168.523623
  0
LINE
  8
CSLAYER1
  6
CONTINUOUS
 62
     6
 10
87.277166
 20
168.523623
 11
90.452593
 21
168.523623
  0
LINE
  8
CSLAYER1
  6
CONTINUOUS
 62
     6
 10
90.452593
 20
168.523623
 11
92.040306
 21
171.273623
  0
LINE
  8
CSLAYER1
  6
CONTINUOUS
 62
     6
 10
92.040306
 20
171.273623
 11
90.452593
 21
174.023623
  0
CIRCLE
  8
CSLAYER1
  6
CONTINUOUS
 62
     6
 10
88.864880
 20
171.273623
 40
2.667500
  0
CIRCLE
  8
CSLAYER1
  6
CONTINUOUS
 62
     3
 10
88.864880
 20
171.273623
 40
1.500000
  0
CIRCLE
  8
CSLAYER1
  6
CONTINUOUS
 62
     6
 10
88.864880
 20
171.273623
 40
1.245000
  0
LINE
  8
CSLAYER1
  6
CENTER
 62
     3
 10
93.773956
 20
171.273623
 11
83.955771
 21
171.273623
  0
LINE
  8
CSLAYER1
  6
CONTINUOUS
 62
     6
 10
90.452593
 20
136.614523
 11
87.277166
 21
136.614523
  0
LINE
  8
CSLAYER1
  6
CONTINUOUS
 62
     6
 10
87.277166
 20
136.614523
 11
85.689453
 21
139.364523
  0
LINE
  8
CSLAYER1
  6
CONTINUOUS
 62
     6
 10
85.689453
 20
139.364523
 11
87.277166
 21
142.114523
  0
LINE
  8
CSLAYER1
  6
CONTINUOUS
 62
     6
 10
87.277166
 20
142.114523
 11
90.452593
 21
142.114523
  0
LINE
  8
CSLAYER1
  6
CONTINUOUS
 62
     6
 10
90.452593
 20
142.114523
 11
92.040306
 21
139.364523
  0
LINE
  8
CSLAYER1
  6
CONTINUOUS
 62
     6
 10
92.040306
 20
139.364523
 11
90.452593
 21
136.614523
  0
CIRCLE
  8
CSLAYER1
  6
CONTINUOUS
 62
     6
 10
88.864880
 20
139.364523
 40
2.667500
  0
CIRCLE
  8
CSLAYER1
  6
CONTINUOUS
 62
     3
 10
88.864880
 20
139.364523
 40
1.500000
  0
CIRCLE
  8
CSLAYER1
  6
CONTINUOUS
 62
     6
 10
88.864880
 20
139.364523
 40
1.245000
  0
LINE
  8
CSLAYER1
  6
CENTER
 62
     3
 10
93.773956
 20
139.364523
 11
83.955771
 21
139.364523
  0
LINE
  8
CSLAYER1
  6
CONTINUOUS
 62
     6
 10
101.614875
 20
155.569073
 11
102.614875
 21
155.569073
  0
LINE
  8
CSLAYER1
  6
CONTINUOUS
 62
     6
 10
101.614875
 20
155.069073
 11
102.614875
 21
155.069073
  0
ARC
  8
CSLAYER1
  6
CONTINUOUS
 62
     6
 10
104.114875
 20
155.319073
 40
0.250000
 50
-90.000000
 51
90.000000
  0
ARC
  8
CSLAYER1
  6
CONTINUOUS
 62
     6
 10
101.614875
 20
155.319073
 40
0.250000
 50
90.000000
 51
270.000000
  0
LINE
  8
CSLAYER1
  6
CONTINUOUS
 62
     6
 10
102.614875
 20
154.069073
 11
102.614875
 21
155.069073
  0
LINE
  8
CSLAYER1
  6
CONTINUOUS
 62
     6
 10
103.114875
 20
154.069073
 11
103.114875
 21
155.069073
  0
ARC
  8
CSLAYER1
  6
CONTINUOUS
 62
     6
 10
102.864875
 20
156.569073
 40
0.250000
 50
0.000000
 51
180.000000
  0
ARC
  8
CSLAYER1
  6
CONTINUOUS
 62
     6
 10
102.864875
 20
154.069073
 40
0.250000
 50
180.000000
 51
360.000000
  0
LINE
  8
CSLAYER1
  6
CONTINUOUS
 62
     6
 10
103.114875
 20
155.569073
 11
104.114875
 21
155.569073
  0
LINE
  8
CSLAYER1
  6
CONTINUOUS
 62
     6
 10
103.114875
 20
155.069073
 11
104.114875
 21
155.069073
  0
LINE
  8
CSLAYER1
  6
CONTINUOUS
 62
     6
 10
103.114875
 20
155.569073
 11
103.114875
 21
156.569073
  0
LINE
  8
CSLAYER1
  6
CONTINUOUS
 62
     6
 10
102.614875
 20
155.569073
 11
102.614875
 21
156.569073
  0
ARC
  8
CSLAYER1
  6
CONTINUOUS
 62
     6
 10
74.864875
 20
156.569073
 40
0.250000
 50
0.000000
 51
180.000000
  0
ARC
  8
CSLAYER1
  6
CONTINUOUS
 62
     6
 10
74.864875
 20
154.069073
 40
0.250000
 50
180.000000
 51
360.000000
  0
LINE
  8
CSLAYER1
  6
CONTINUOUS
 62
     6
 10
74.614875
 20
154.069073
 11
74.614875
 21
156.569073
  0
LINE
  8
CSLAYER1
  6
CONTINUOUS
 62
     6
 10
75.114875
 20
154.069073
 11
75.114875
 21
156.569073
  0
ARC
  8
CSLAYER1
  6
CONTINUOUS
 62
     6
 10
88.864875
 20
155.319073
 40
19.000000
 50
20.487315
 51
159.512649
  0
ARC
  8
CSLAYER1
  6
CONTINUOUS
 62
     6
 10
88.864875
 20
155.319073
 40
20.000000
 50
17.457603
 51
162.542361
  0
LINE
  8
CSLAYER1
  6
CONTINUOUS
 62
     6
 10
99.864870
 20
158.319073
 11
105.364870
 21
158.319073
  0
LINE
  8
CSLAYER1
  6
CONTINUOUS
 62
     6
 10
99.864870
 20
152.319073
 11
105.364870
 21
152.319073
  0
LINE
  8
CSLAYER1
  6
CONTINUOUS
 62
     6
 10
110.364870
 20
161.319073
 11
107.599869
 21
161.319073
  0
LINE
  8
CSLAYER1
  6
CONTINUOUS
 62
     6
 10
110.364870
 20
149.319073
 11
107.599869
 21
149.319073
  0
LINE
  8
CSLAYER1
  6
CONTINUOUS
 62
     6
 10
98.864870
 20
160.319073
 11
98.864870
 21
150.319073
  0
ARC
  8
CSLAYER1
  6
CONTINUOUS
 62
     6
 10
99.864870
 20
160.319073
 40
1.000000
 50
90.000000
 51
180.000000
  0
ARC
  8
CSLAYER1
  6
CONTINUOUS
 62
     6
 10
99.864870
 20
150.319073
 40
1.000000
 50
180.000000
 51
270.000000
  0
ARC
  8
CSLAYER1
  6
CONTINUOUS
 62
     6
 10
99.864870
 20
157.319073
 40
1.000000
 50
90.000000
 51
180.000000
  0
ARC
  8
CSLAYER1
  6
CONTINUOUS
 62
     6
 10
99.864870
 20
153.319073
 40
1.000000
 50
180.000000
 51
270.000000
  0
LINE
  8
CSLAYER1
  6
CONTINUOUS
 62
     6
 10
71.364876
 20
150.319073
 11
71.364883
 21
160.319073
  0
LINE
  8
CSLAYER1
  6
CONTINUOUS
 62
     6
 10
77.864881
 20
158.319080
 11
72.364881
 21
158.319084
  0
LINE
  8
CSLAYER1
  6
CONTINUOUS
 62
     6
 10
77.864878
 20
152.319080
 11
72.364878
 21
152.319084
  0
LINE
  8
CSLAYER1
  6
CONTINUOUS
 62
     6
 10
78.864883
 20
160.319079
 11
78.864876
 21
150.319079
  0
ARC
  8
CSLAYER1
  6
CONTINUOUS
 62
     6
 10
77.864883
 20
160.319080
 40
1.000000
 50
-0.000037
 51
89.999963
  0
ARC
  8
CSLAYER1
  6
CONTINUOUS
 62
     6
 10
77.864876
 20
150.319080
 40
1.000000
 50
269.999963
 51
359.999963
  0
ARC
  8
CSLAYER1
  6
CONTINUOUS
 62
     6
 10
77.864881
 20
157.319080
 40
1.000000
 50
-0.000037
 51
89.999963
  0
ARC
  8
CSLAYER1
  6
CONTINUOUS
 62
     6
 10
77.864878
 20
153.319080
 40
1.000000
 50
269.999963
 51
359.999963
  0
ARC
  8
CSLAYER1
  6
CONTINUOUS
 62
     6
 10
72.364878
 20
153.319084
 40
1.000000
 50
179.999963
 51
269.999963
  0
ARC
  8
CSLAYER1
  6
CONTINUOUS
 62
     6
 10
72.364881
 20
157.319084
 40
1.000000
 50
89.999963
 51
179.999963
  0
ARC
  8
CSLAYER1
  6
CONTINUOUS
 62
     6
 10
88.864875
 20
155.319073
 40
19.000000
 50
200.487279
 51
339.512685
  0
ARC
  8
CSLAYER1
  6
CONTINUOUS
 62
     6
 10
88.864875
 20
155.319073
 40
20.000000
 50
197.457567
 51
342.542397
  0
LINE
  8
CSLAYER1
  6
CONTINUOUS
 62
     6
 10
77.864883
 20
161.319080
 11
71.629877
 21
161.319084
  0
LINE
  8
CSLAYER1
  6
CONTINUOUS
 62
     6
 10
77.864876
 20
149.319080
 11
71.629877
 21
149.319084
  0
LINE
  8
CSLAYER1
  6
CONTINUOUS
 62
     6
 10
106.364870
 20
150.319073
 11
106.364870
 21
160.319073
  0
ARC
  8
CSLAYER1
  6
CONTINUOUS
 62
     6
 10
105.364870
 20
153.319073
 40
1.000000
 50
-90.000000
 51
0.000000
  0
ARC
  8
CSLAYER1
  6
CONTINUOUS
 62
     6
 10
105.364870
 20
157.319073
 40
1.000000
 50
-0.000000
 51
90.000000
  0
LINE
  8
CSLAYER1
  6
CONTINUOUS
 62
     6
 10
108.364870
 20
151.046345
 11
109.964870
 21
151.046345
  0
LINE
  8
CSLAYER1
  6
CONTINUOUS
 62
     6
 10
109.964870
 20
151.046345
 11
109.964870
 21
151.864527
  0
LINE
  8
CSLAYER1
  6
CONTINUOUS
 62
     6
 10
108.364870
 20
151.864527
 11
109.164870
 21
151.864527
  0
LINE
  8
CSLAYER1
  6
CONTINUOUS
 62
     6
 10
108.364870
 20
151.046345
 11
108.364870
 21
159.591801
  0
LINE
  8
CSLAYER1
  6
CONTINUOUS
 62
     6
 10
111.364870
 20
150.319073
 11
111.364870
 21
160.319073
  0
LINE
  8
CSLAYER1
  6
CONTINUOUS
 62
     6
 10
108.364870
 20
159.591801
 11
109.964870
 21
159.591801
  0
LINE
  8
CSLAYER1
  6
CONTINUOUS
 62
     6
 10
109.964870
 20
159.591801
 11
109.964870
 21
158.773619
  0
LINE
  8
CSLAYER1
  6
CONTINUOUS
 62
     6
 10
108.364870
 20
158.773619
 11
109.164870
 21
158.773619
  0
LINE
  8
CSLAYER1
  6
CONTINUOUS
 62
     6
 10
110.364870
 20
161.319073
 11
111.364870
 21
160.319073
  0
LINE
  8
CSLAYER1
  6
CONTINUOUS
 62
     6
 10
111.364870
 20
150.319073
 11
110.364870
 21
149.319073
  0
LINE
  8
CSLAYER1
  6
CONTINUOUS
 62
     6
 10
109.964870
 20
158.773619
 11
111.364870
 21
158.773619
  0
LINE
  8
CSLAYER1
  6
CONTINUOUS
 62
     6
 10
109.964870
 20
151.864527
 11
111.364870
 21
151.864527
  0
LINE
  8
CSLAYER1
  6
CONTINUOUS
 62
     6
 10
109.164870
 20
151.046345
 11
109.164870
 21
159.591801
  0
ARC
  8
CSLAYER1
  6
CONTINUOUS
 62
     6
 10
70.129885
 20
162.319085
 40
1.000000
 50
269.999963
 51
339.512649
  0
ARC
  8
CSLAYER1
  6
CONTINUOUS
 62
     6
 10
70.129876
 20
148.319085
 40
1.000000
 50
20.487279
 51
89.999963
  0
ARC
  8
CSLAYER1
  6
CONTINUOUS
 62
     6
 10
107.599869
 20
148.319073
 40
1.000000
 50
90.000000
 51
159.512685
  0
ARC
  8
CSLAYER1
  6
CONTINUOUS
 62
     6
 10
107.599869
 20
162.319073
 40
1.000000
 50
200.487315
 51
270.000000
  0
LINE
  8
CSLAYER1
  6
CONTINUOUS
 62
     6
 10
69.364877
 20
151.046357
 11
67.764877
 21
151.046358
  0
LINE
  8
CSLAYER1
  6
CONTINUOUS
 62
     6
 10
67.764877
 20
151.046358
 11
67.764877
 21
151.864540
  0
LINE
  8
CSLAYER1
  6
CONTINUOUS
 62
     6
 10
69.364877
 20
151.864539
 11
68.564877
 21
151.864540
  0
LINE
  8
CSLAYER1
  6
CONTINUOUS
 62
     6
 10
69.364877
 20
151.046357
 11
69.364882
 21
159.591814
  0
LINE
  8
CSLAYER1
  6
CONTINUOUS
 62
     6
 10
66.364876
 20
150.319087
 11
66.364883
 21
160.319087
  0
LINE
  8
CSLAYER1
  6
CONTINUOUS
 62
     6
 10
69.364882
 20
159.591814
 11
67.764882
 21
159.591815
  0
LINE
  8
CSLAYER1
  6
CONTINUOUS
 62
     6
 10
67.764882
 20
159.591815
 11
67.764882
 21
158.773633
  0
LINE
  8
CSLAYER1
  6
CONTINUOUS
 62
     6
 10
69.364882
 20
158.773632
 11
68.564882
 21
158.773632
  0
LINE
  8
CSLAYER1
  6
CONTINUOUS
 62
     6
 10
67.364883
 20
161.319087
 11
66.364883
 21
160.319087
  0
LINE
  8
CSLAYER1
  6
CONTINUOUS
 62
     6
 10
66.364876
 20
150.319087
 11
67.364876
 21
149.319087
  0
LINE
  8
CSLAYER1
  6
CONTINUOUS
 62
     6
 10
67.764882
 20
158.773633
 11
66.364882
 21
158.773634
  0
LINE
  8
CSLAYER1
  6
CONTINUOUS
 62
     6
 10
67.764877
 20
151.864540
 11
66.364877
 21
151.864541
  0
LINE
  8
CSLAYER1
  6
CONTINUOUS
 62
     6
 10
68.564877
 20
151.046358
 11
68.564882
 21
159.591814
  0
LINE
  8
CSLAYER1
  6
CONTINUOUS
 62
     6
 10
106.099869
 20
161.319073
 11
99.864870
 21
161.319073
  0
LINE
  8
CSLAYER1
  6
CONTINUOUS
 62
     6
 10
106.099869
 20
149.319073
 11
99.864870
 21
149.319073
  0
LINE
  8
CSLAYER1
  6
CONTINUOUS
 62
     6
 10
70.129884
 20
161.319085
 11
67.364883
 21
161.319087
  0
LINE
  8
CSLAYER1
  6
CONTINUOUS
 62
     6
 10
70.129877
 20
149.319085
 11
67.364876
 21
149.319087
  0
LINE
  8
CSLAYER1
  6
CONTINUOUS
 62
     6
 10
93.864875
 20
122.319073
 11
83.864875
 21
122.319073
  0
LINE
  8
CSLAYER1
  6
CONTINUOUS
 62
     6
 10
95.864875
 20
124.319073
 11
95.864875
 21
128.319073
  0
LINE
  8
CSLAYER1
  6
CONTINUOUS
 62
     6
 10
81.864875
 20
124.319073
 11
81.864875
 21
128.319073
  0
ARC
  8
CSLAYER1
  6
CONTINUOUS
 62
     6
 10
83.864875
 20
124.319073
 40
2.000000
 50
180.000000
 51
270.000000
  0
ARC
  8
CSLAYER1
  6
CONTINUOUS
 62
     6
 10
93.864875
 20
124.319073
 40
2.000000
 50
270.000000
 51
360.000000
  0
ENDSEC
  0
EOF
