  0
SECTION
  2
HEADER
  9
$ACADVER
  1
AC1006
  9
$INSBASE
 10
0.000000
 20
0.000000
 30
0.0
  9
$EXTMIN
 10
0.000000
 20
0.000000
  9
$EXTMAX
 10
420.000000
 20
297.000000
  9
$LIMMIN
 10
0.000000
 20
0.000000
  9
$LIMMAX
 10
420.000000
 20
297.000000
  9
$VIEWCTR
 10
210.000000
 20
148.500000
  9
$VIEWSIZE
 40
297.000000
  9
$SNAPMODE
 70
     0
  9
$SNAPUNIT
 10
1.0
 20
1.0
  9
$SNAPBASE
 10
0.0
 20
0.0
  9
$SNAPANG
 50
0.0
  9
$SNAPSTYLE
 70
     0
  9
$SNAPISOPAIR
 70
     0
  9
$GRIDMODE
 70
     0
  9
$GRIDUNIT
 10
0.0
 20
0.0
  9
$ORTHOMODE
 70
     0
  9
$REGENMODE
 70
     1
  9
$FILLMODE
 70
     1
  9
$QTEXTMODE
 70
     0
  9
$DRAGMODE
 70
     2
  9
$LTSCALE
 40
15.000000
  9
$OSMODE
 70
     0
  9
$ATTMODE
 70
     1
  9
$TEXTSIZE
 40
0.2
  9
$TRACEWID
 40
0.05
  9
$TEXTSTYLE
  7
STANDARD
  9
$CLAYER
  8
CSLAYER1
  9
$CELTYPE
  6
BYLAYER
  9
$CECOLOR
 62
   256
  9
$DIMSCALE
 40
1.0
  9
$DIMASZ
 40
0.18
  9
$DIMEXO
 40
0.0625
  9
$DIMDLI
 40
0.38
  9
$DIMRND
 40
0.0
  9
$DIMDLE
 40
0.0
  9
$DIMEXE
 40
0.18
  9
$DIMTP
 40
0.0
  9
$DIMTM
 40
0.0
  9
$DIMTXT
 40
0.18
  9
$DIMCEN
 40
0.09
  9
$DIMTSZ
 40
0.0
  9
$DIMTOL
 70
     0
  9
$DIMLIM
 70
     0
  9
$DIMTIH
 70
     1
  9
$DIMTOH
 70
     1
  9
$DIMSE1
 70
     0
  9
$DIMSE2
 70
     0
  9
$DIMTAD
 70
     0
  9
$DIMZIN
 70
     0
  9
$DIMBLK
  1

  9
$LUNITS
 70
     2
  9
$LUPREC
 70
     4
  9
$AXISMODE
 70
     0
  9
$AXISUNIT
 10
0.0
 20
0.0
  9
$SKETCHINC
 40
0.1
  9
$FILLETRAD
 40
0.0
  9
$AUNITS
 70
     0
  9
$AUPREC
 70
     0
  9
$MENU
  1
ACAD
  9
$ELEVATION
 40
0.0
  9
$THICKNESS
 40
0.0
  9
$VIEWDIR
 10
0.0
 20
0.0
 30
1.0
  9
$LIMCHECK
 70
     0
  9
$BLIPMODE
 70
     1
  9
$CHAMFERA
 40
0.0
  9
$CHAMFERB
 40
0.0
  9
$FASTZOOM
 70
     1
  9
$SKPOLY
 70
     0
  9
$TDCREATE
 40
0.000000
  9
$TDUPDATE
 40
0.000000
  9
$TDINDWG
 40
0.0
  9
$TDUSRTIMER
 40
0.0
  9
$USRTIMER
 70
     1
  9
$ANGBASE
 50
0.0
  9
$ANGDIR
 70
     0
  9
$PDMODE
 70
     0
  9
$PDSIZE
 40
0.0
  9
$PLINEWID
 40
0.0
  9
$COORDS
 70
     0
  9
$USERI1
 70
     0
  9
$USERI2
 70
     0
  9
$USERI3
 70
     0
  9
$USERI4
 70
     0
  9
$USERI5
 70
     0
  9
$USERR1
 40
0.0
  9
$USERR2
 40
0.0
  9
$USERR3
 40
0.0
  9
$USERR4
 40
0.0
  9
$USERR5
 40
0.0
  0
ENDSEC
  0
SECTION
  2
TABLES
  0
TABLE
  2
LTYPE
 70
     9
  0
LTYPE
  2
CONTINUOUS
 70
    64
  3
Solid line
 72
    65
 73
     0
 40
0.0
  0
LTYPE
  2
DASHED
 70
    64
  3
__ __ __ __ __ __ __ __ __ __ __ __ __ __ __
 72
    65
 73
     2
 40
0.75
 49
0.5
 49
-0.25
  0
LTYPE
  2
HIDDEN
 70
    64
  3
_ _ _ _ _ _ _ _ _ _ _ _ _ _ _ _ _ _ _ _ _ _ _
 72
    65
 73
     2
 40
0.375
 49
0.25
 49
-0.125
  0
LTYPE
  2
DOT
 70
    64
  3
...............................................
 72
    65
 73
     2
 40
0.25
 49
0.0
 49
-0.25
  0
LTYPE
  2
DASHDOT
 70
    64
  3
__ . __ . __ . __ . __ . __ . __ . __ . __ . __
 72
    65
 73
     4
 40
1.0
 49
0.5
 49
-0.25
 49
0.0
 49
-0.25
  0
LTYPE
  2
DIVIDE
 70
    64
  3
__ . . __ . . __ . . __ . . __ . . __ . . __
 72
    65
 73
     6
 40
1.25
 49
0.5
 49
-0.25
 49
0.0
 49
-0.25
 49
0.0
 49
-0.25
  0
LTYPE
  2
CENTER
 70
    64
  3
____ _ ____ _ ____ _ ____ _ ____ _ ____ _ ____ 
 72
    65
 73
     4
 40
2.0
 49
1.25
 49
-0.25
 49
0.25
 49
-0.25
  0
LTYPE
  2
PHANTOM
 70
    64
  3
______  __  __  ______  __  __  ______  __  __ 
 72
    65
 73
     6
 40
2.5
 49
1.25
 49
-0.25
 49
0.25
 49
-0.25
 49
0.25
 49
-0.25
  0
LTYPE
  2
BORDER
 70
    64
  3
__ __ . __ __ . __ __ . __ __ . __ __ . __ __ .
 72
    65
 73
     6
 40
1.75
 49
0.5
 49
-0.25
 49
0.5
 49
-0.25
 49
0.0
 49
-0.25
  0
ENDTAB
  0
TABLE
  2
LAYER
 70
    16
  0
LAYER
  2
CSLAYER1
 70
    64
 62
     7
  6
CONTINUOUS
  0
LAYER
  2
CSLAYER2
 70
    64
 62
     7
  6
CONTINUOUS
  0
LAYER
  2
CSLAYER3
 70
    64
 62
     7
  6
CONTINUOUS
  0
LAYER
  2
CSLAYER4
 70
    64
 62
     7
  6
CONTINUOUS
  0
LAYER
  2
CSLAYER5
 70
    64
 62
     7
  6
CONTINUOUS
  0
LAYER
  2
CSLAYER6
 70
    64
 62
     7
  6
CONTINUOUS
  0
LAYER
  2
CSLAYER7
 70
    64
 62
     7
  6
CONTINUOUS
  0
LAYER
  2
CSLAYER8
 70
    64
 62
     7
  6
CONTINUOUS
  0
LAYER
  2
CSLAYER9
 70
    64
 62
     7
  6
CONTINUOUS
  0
LAYER
  2
CSLAYER10
 70
    64
 62
     7
  6
CONTINUOUS
  0
LAYER
  2
CSLAYER11
 70
    64
 62
     7
  6
CONTINUOUS
  0
LAYER
  2
CSLAYER12
 70
    64
 62
     7
  6
CONTINUOUS
  0
LAYER
  2
CSLAYER13
 70
    64
 62
     7
  6
CONTINUOUS
  0
LAYER
  2
CSLAYER14
 70
    64
 62
     7
  6
CONTINUOUS
  0
LAYER
  2
CSLAYER15
 70
    64
 62
     7
  6
CONTINUOUS
  0
LAYER
  2
CSLAYER16
 70
    64
 62
     7
  6
CONTINUOUS
  0
ENDTAB
  0
TABLE
  2
STYLE
 70
     1
  0
STYLE
  2
JX_FONT
 70
     0
 40
1.0
 41
1.0
 50
0.0
 71
     0
 42
1.0
  3
monotxt
  4
bigfont
  0
ENDTAB
  0
TABLE
  2
VIEW
 70
     0
  0
ENDTAB
  0
ENDSEC
  0
SECTION
  2
BLOCKS
  0
ENDSEC
  0
SECTION
  2
ENTITIES
  0
LINE
  8
CSLAYER1
  6
CENTER
 62
     3
 10
247.548607
 20
148.656719
 11
156.048607
 21
148.656719
  0
LINE
  8
CSLAYER1
  6
CENTER
 62
     3
 10
268.548607
 20
69.699919
 11
156.048607
 21
69.699919
  0
LINE
  8
CSLAYER1
  6
CENTER
 62
     3
 10
268.548607
 20
227.613519
 11
156.048607
 21
227.613519
  0
LINE
  8
CSLAYER1
  6
CONTINUOUS
 62
     6
 10
217.048607
 20
127.656719
 11
217.048607
 21
169.656719
  0
LINE
  8
CSLAYER1
  6
CONTINUOUS
 62
     6
 10
222.048607
 20
126.656719
 11
222.048607
 21
170.656719
  0
LINE
  8
CSLAYER1
  6
CONTINUOUS
 62
     6
 10
218.048607
 20
170.656719
 11
243.548607
 21
170.656719
  0
LINE
  8
CSLAYER1
  6
CONTINUOUS
 62
     6
 10
218.048607
 20
126.656719
 11
243.548607
 21
126.656719
  0
LINE
  8
CSLAYER1
  6
CONTINUOUS
 62
     6
 10
244.548607
 20
127.115267
 11
244.548607
 21
170.198170
  0
ARC
  8
CSLAYER1
  6
CONTINUOUS
 62
     6
 10
218.048607
 20
169.656719
 40
1.000000
 50
90.000000
 51
180.000000
  0
ARC
  8
CSLAYER1
  6
CONTINUOUS
 62
     6
 10
218.048607
 20
127.656719
 40
1.000000
 50
180.000000
 51
270.000000
  0
LINE
  8
CSLAYER1
  6
CONTINUOUS
 62
     6
 10
250.548607
 20
149.656726
 11
244.548607
 21
149.656726
  0
LINE
  8
CSLAYER1
  6
CONTINUOUS
 62
     6
 10
250.548607
 20
161.656726
 11
244.548607
 21
161.656726
  0
LINE
  8
CSLAYER1
  6
CONTINUOUS
 62
     6
 10
250.548607
 20
161.656726
 11
250.548607
 21
149.656726
  0
ARC
  8
CSLAYER1
  6
CONTINUOUS
 62
     6
 10
243.548607
 20
169.656719
 40
1.000000
 50
0.000000
 51
90.000000
  0
ARC
  8
CSLAYER1
  6
CONTINUOUS
 62
     6
 10
243.548607
 20
127.656719
 40
1.000000
 50
270.000000
 51
360.000000
  0
LINE
  8
CSLAYER1
  6
CENTER
 62
     3
 10
260.048607
 20
131.156719
 11
211.634808
 21
131.156719
  0
LINE
  8
CSLAYER1
  6
CENTER
 62
     3
 10
260.048607
 20
166.156719
 11
211.634808
 21
166.156719
  0
LINE
  8
CSLAYER1
  6
CENTER
 62
     3
 10
241.548607
 20
155.656726
 11
268.548607
 21
155.656726
  0
LINE
  8
CSLAYER1
  6
CONTINUOUS
 62
     6
 10
217.048607
 20
206.613519
 11
217.048607
 21
248.613519
  0
LINE
  8
CSLAYER1
  6
CONTINUOUS
 62
     6
 10
222.048607
 20
205.613519
 11
222.048607
 21
249.613519
  0
LINE
  8
CSLAYER1
  6
CONTINUOUS
 62
     6
 10
218.048607
 20
249.613519
 11
243.548607
 21
249.613519
  0
LINE
  8
CSLAYER1
  6
CONTINUOUS
 62
     6
 10
218.048607
 20
205.613519
 11
243.548607
 21
205.613519
  0
LINE
  8
CSLAYER1
  6
CONTINUOUS
 62
     6
 10
244.548607
 20
249.154970
 11
244.548607
 21
206.072067
  0
ARC
  8
CSLAYER1
  6
CONTINUOUS
 62
     6
 10
218.048607
 20
248.613519
 40
1.000000
 50
90.000000
 51
180.000000
  0
ARC
  8
CSLAYER1
  6
CONTINUOUS
 62
     6
 10
218.048607
 20
206.613519
 40
1.000000
 50
180.000000
 51
270.000000
  0
LINE
  8
CSLAYER1
  6
CONTINUOUS
 62
     6
 10
250.548607
 20
221.613519
 11
244.548607
 21
221.613519
  0
LINE
  8
CSLAYER1
  6
CONTINUOUS
 62
     6
 10
250.548607
 20
233.613519
 11
244.548607
 21
233.613519
  0
LINE
  8
CSLAYER1
  6
CONTINUOUS
 62
     6
 10
250.548607
 20
233.613519
 11
250.548607
 21
221.613519
  0
ARC
  8
CSLAYER1
  6
CONTINUOUS
 62
     6
 10
243.548607
 20
248.613519
 40
1.000000
 50
0.000000
 51
90.000000
  0
ARC
  8
CSLAYER1
  6
CONTINUOUS
 62
     6
 10
243.548607
 20
206.613519
 40
1.000000
 50
270.000000
 51
360.000000
  0
LINE
  8
CSLAYER1
  6
CENTER
 62
     3
 10
260.048607
 20
210.113519
 11
211.634808
 21
210.113519
  0
LINE
  8
CSLAYER1
  6
CENTER
 62
     3
 10
260.048607
 20
245.113519
 11
211.634808
 21
245.113519
  0
LINE
  8
CSLAYER1
  6
CENTER
 62
     3
 10
320.397181
 20
124.111264
 11
320.397197
 21
173.202187
  0
LINE
  8
CSLAYER1
  6
CENTER
 62
     3
 10
345.351740
 20
148.656726
 11
295.442648
 21
148.656726
  0
LINE
  8
CSLAYER1
  6
CENTER
 62
     3
 10
329.397191
 20
155.656726
 11
311.397191
 21
155.656726
  0
CIRCLE
  8
CSLAYER1
  6
CONTINUOUS
 62
     6
 10
320.397191
 20
155.656726
 40
3.000000
  0
CIRCLE
  8
CSLAYER1
  6
CONTINUOUS
 62
     6
 10
320.397191
 20
155.656726
 40
6.000000
  0
LINE
  8
CSLAYER1
  6
CONTINUOUS
 62
     6
 10
317.897190
 20
153.998415
 11
317.897192
 21
157.315040
  0
LINE
  8
CSLAYER1
  6
CONTINUOUS
 62
     6
 10
265.548607
 20
157.315040
 11
253.548607
 21
157.315040
  0
LINE
  8
CSLAYER1
  6
CONTINUOUS
 62
     6
 10
265.548607
 20
153.998415
 11
253.548607
 21
153.998415
  0
LINE
  8
CSLAYER1
  6
CONTINUOUS
 62
     6
 10
253.548607
 20
157.315040
 11
253.548607
 21
153.998415
  0
LINE
  8
CSLAYER1
  6
CONTINUOUS
 62
     3
 10
265.548607
 20
157.315040
 11
253.548607
 21
153.998415
  0
LINE
  8
CSLAYER1
  6
CONTINUOUS
 62
     3
 10
253.548607
 20
157.315040
 11
265.548607
 21
153.998415
  0
CIRCLE
  8
CSLAYER1
  6
CONTINUOUS
 62
     6
 10
302.897195
 20
166.156737
 40
4.000000
  0
LINE
  8
CSLAYER1
  6
CENTER
 62
     3
 10
297.414414
 20
166.156740
 11
309.397195
 21
166.156733
  0
LINE
  8
CSLAYER1
  6
CENTER
 62
     3
 10
302.897199
 20
172.656737
 11
302.897191
 21
160.792997
  0
CIRCLE
  8
CSLAYER1
  6
CONTINUOUS
 62
     6
 10
302.897195
 20
166.156737
 40
3.400000
  0
CIRCLE
  8
CSLAYER1
  6
CONTINUOUS
 62
     3
 10
302.897195
 20
166.156737
 40
2.000000
  0
CIRCLE
  8
CSLAYER1
  6
CONTINUOUS
 62
     6
 10
302.897195
 20
166.156737
 40
1.600000
  0
LINE
  8
CSLAYER1
  6
CONTINUOUS
 62
     6
 10
299.397193
 20
164.136013
 11
299.397196
 21
168.177465
  0
LINE
  8
CSLAYER1
  6
CONTINUOUS
 62
     6
 10
299.397196
 20
168.177465
 11
302.897197
 21
170.198189
  0
LINE
  8
CSLAYER1
  6
CONTINUOUS
 62
     6
 10
302.897197
 20
170.198189
 11
306.397196
 21
168.177460
  0
LINE
  8
CSLAYER1
  6
CONTINUOUS
 62
     6
 10
306.397196
 20
168.177460
 11
306.397193
 21
164.136009
  0
LINE
  8
CSLAYER1
  6
CONTINUOUS
 62
     6
 10
306.397193
 20
164.136009
 11
302.897192
 21
162.115285
  0
LINE
  8
CSLAYER1
  6
CONTINUOUS
 62
     6
 10
302.897192
 20
162.115285
 11
299.397193
 21
164.136013
  0
CIRCLE
  8
CSLAYER1
  6
CONTINUOUS
 62
     6
 10
337.897195
 20
166.156726
 40
4.000000
  0
LINE
  8
CSLAYER1
  6
CENTER
 62
     3
 10
343.379975
 20
166.156726
 11
331.397195
 21
166.156726
  0
LINE
  8
CSLAYER1
  6
CENTER
 62
     3
 10
337.897195
 20
172.656726
 11
337.897195
 21
160.792986
  0
CIRCLE
  8
CSLAYER1
  6
CONTINUOUS
 62
     6
 10
337.897195
 20
166.156726
 40
3.400000
  0
CIRCLE
  8
CSLAYER1
  6
CONTINUOUS
 62
     3
 10
337.897195
 20
166.156726
 40
2.000000
  0
CIRCLE
  8
CSLAYER1
  6
CONTINUOUS
 62
     6
 10
337.897195
 20
166.156726
 40
1.600000
  0
LINE
  8
CSLAYER1
  6
CONTINUOUS
 62
     6
 10
341.397195
 20
168.177452
 11
337.897195
 21
170.198177
  0
LINE
  8
CSLAYER1
  6
CONTINUOUS
 62
     6
 10
337.897195
 20
170.198177
 11
334.397195
 21
168.177452
  0
LINE
  8
CSLAYER1
  6
CONTINUOUS
 62
     6
 10
334.397195
 20
168.177452
 11
334.397195
 21
164.136000
  0
LINE
  8
CSLAYER1
  6
CONTINUOUS
 62
     6
 10
334.397195
 20
164.136000
 11
337.897195
 21
162.115274
  0
LINE
  8
CSLAYER1
  6
CONTINUOUS
 62
     6
 10
337.897195
 20
162.115274
 11
341.397195
 21
164.136000
  0
LINE
  8
CSLAYER1
  6
CONTINUOUS
 62
     6
 10
341.397195
 20
164.136000
 11
341.397195
 21
168.177452
  0
CIRCLE
  8
CSLAYER1
  6
CONTINUOUS
 62
     6
 10
302.897195
 20
131.156714
 40
4.000000
  0
LINE
  8
CSLAYER1
  6
CENTER
 62
     3
 10
297.414414
 20
131.156711
 11
309.397195
 21
131.156719
  0
LINE
  8
CSLAYER1
  6
CENTER
 62
     3
 10
302.897199
 20
124.656714
 11
302.897191
 21
136.520454
  0
CIRCLE
  8
CSLAYER1
  6
CONTINUOUS
 62
     6
 10
302.897195
 20
131.156714
 40
3.400000
  0
CIRCLE
  8
CSLAYER1
  6
CONTINUOUS
 62
     3
 10
302.897195
 20
131.156714
 40
2.000000
  0
CIRCLE
  8
CSLAYER1
  6
CONTINUOUS
 62
     6
 10
302.897195
 20
131.156714
 40
1.600000
  0
LINE
  8
CSLAYER1
  6
CONTINUOUS
 62
     6
 10
299.397196
 20
129.135986
 11
302.897197
 21
127.115263
  0
LINE
  8
CSLAYER1
  6
CONTINUOUS
 62
     6
 10
302.897197
 20
127.115263
 11
306.397196
 21
129.135991
  0
LINE
  8
CSLAYER1
  6
CONTINUOUS
 62
     6
 10
306.397196
 20
129.135991
 11
306.397193
 21
133.177443
  0
LINE
  8
CSLAYER1
  6
CONTINUOUS
 62
     6
 10
306.397193
 20
133.177443
 11
302.897192
 21
135.198166
  0
LINE
  8
CSLAYER1
  6
CONTINUOUS
 62
     6
 10
302.897192
 20
135.198166
 11
299.397193
 21
133.177438
  0
LINE
  8
CSLAYER1
  6
CONTINUOUS
 62
     6
 10
299.397193
 20
133.177438
 11
299.397196
 21
129.135986
  0
CIRCLE
  8
CSLAYER1
  6
CONTINUOUS
 62
     6
 10
337.897172
 20
131.156703
 40
4.000000
  0
LINE
  8
CSLAYER1
  6
CENTER
 62
     3
 10
343.379953
 20
131.156696
 11
331.397172
 21
131.156712
  0
LINE
  8
CSLAYER1
  6
CENTER
 62
     3
 10
337.897164
 20
124.656703
 11
337.897179
 21
136.520443
  0
CIRCLE
  8
CSLAYER1
  6
CONTINUOUS
 62
     6
 10
337.897172
 20
131.156703
 40
3.400000
  0
CIRCLE
  8
CSLAYER1
  6
CONTINUOUS
 62
     3
 10
337.897172
 20
131.156703
 40
2.000000
  0
CIRCLE
  8
CSLAYER1
  6
CONTINUOUS
 62
     6
 10
337.897172
 20
131.156703
 40
1.600000
  0
LINE
  8
CSLAYER1
  6
CONTINUOUS
 62
     6
 10
341.397175
 20
133.177425
 11
341.397170
 21
129.135973
  0
LINE
  8
CSLAYER1
  6
CONTINUOUS
 62
     6
 10
341.397170
 20
129.135973
 11
337.897167
 21
127.115251
  0
LINE
  8
CSLAYER1
  6
CONTINUOUS
 62
     6
 10
337.897167
 20
127.115251
 11
334.397170
 21
129.135982
  0
LINE
  8
CSLAYER1
  6
CONTINUOUS
 62
     6
 10
334.397170
 20
129.135982
 11
334.397175
 21
133.177434
  0
LINE
  8
CSLAYER1
  6
CONTINUOUS
 62
     6
 10
334.397175
 20
133.177434
 11
337.897177
 21
135.198155
  0
LINE
  8
CSLAYER1
  6
CONTINUOUS
 62
     6
 10
337.897177
 20
135.198155
 11
341.397175
 21
133.177425
  0
ARC
  8
CSLAYER1
  6
CONTINUOUS
 62
     6
 10
242.457155
 20
243.363519
 40
5.791452
 50
-17.587954
 51
17.587954
  0
ARC
  8
CSLAYER1
  6
CONTINUOUS
 62
     6
 10
242.457155
 20
246.863519
 40
5.791452
 50
-17.587954
 51
17.587954
  0
LINE
  8
CSLAYER1
  6
CONTINUOUS
 62
     6
 10
248.248607
 20
241.613519
 11
245.048607
 21
241.613519
  0
LINE
  8
CSLAYER1
  6
CONTINUOUS
 62
     6
 10
247.977881
 20
245.113519
 11
245.048607
 21
245.113519
  0
LINE
  8
CSLAYER1
  6
CONTINUOUS
 62
     6
 10
248.248607
 20
248.613519
 11
245.048607
 21
248.613519
  0
LINE
  8
CSLAYER1
  6
CONTINUOUS
 62
     6
 10
248.248607
 20
241.613519
 11
248.248607
 21
248.613519
  0
LINE
  8
CSLAYER1
  6
CONTINUOUS
 62
     6
 10
257.048607
 20
243.613539
 11
257.048607
 21
246.613498
  0
LINE
  8
CSLAYER1
  6
CONTINUOUS
 62
     6
 10
256.548607
 20
243.113539
 11
248.248607
 21
243.113539
  0
LINE
  8
CSLAYER1
  6
CONTINUOUS
 62
     3
 10
256.888607
 20
243.453539
 11
248.248607
 21
243.453539
  0
LINE
  8
CSLAYER1
  6
CONTINUOUS
 62
     6
 10
256.548607
 20
247.113498
 11
248.248607
 21
247.113498
  0
LINE
  8
CSLAYER1
  6
CONTINUOUS
 62
     3
 10
256.888607
 20
246.773498
 11
248.248607
 21
246.773498
  0
LINE
  8
CSLAYER1
  6
CONTINUOUS
 62
     6
 10
256.548607
 20
247.113498
 11
257.048607
 21
246.613498
  0
LINE
  8
CSLAYER1
  6
CONTINUOUS
 62
     6
 10
257.048607
 20
243.613539
 11
256.548607
 21
243.113539
  0
LINE
  8
CSLAYER1
  6
CONTINUOUS
 62
     6
 10
256.548607
 20
247.113498
 11
256.548607
 21
243.113539
  0
LINE
  8
CSLAYER1
  6
CONTINUOUS
 62
     6
 10
245.048607
 20
249.154970
 11
245.048607
 21
241.072067
  0
LINE
  8
CSLAYER1
  6
CONTINUOUS
 62
     6
 10
245.048607
 20
249.154970
 11
244.548607
 21
249.154970
  0
LINE
  8
CSLAYER1
  6
CONTINUOUS
 62
     6
 10
245.048607
 20
241.072067
 11
244.548607
 21
241.072067
  0
ARC
  8
CSLAYER1
  6
CONTINUOUS
 62
     6
 10
242.457155
 20
208.363519
 40
5.791452
 50
-17.587954
 51
17.587954
  0
ARC
  8
CSLAYER1
  6
CONTINUOUS
 62
     6
 10
242.457155
 20
211.863519
 40
5.791452
 50
-17.587954
 51
17.587954
  0
LINE
  8
CSLAYER1
  6
CONTINUOUS
 62
     6
 10
248.248607
 20
206.613519
 11
245.048607
 21
206.613519
  0
LINE
  8
CSLAYER1
  6
CONTINUOUS
 62
     6
 10
247.977881
 20
210.113519
 11
245.048607
 21
210.113519
  0
LINE
  8
CSLAYER1
  6
CONTINUOUS
 62
     6
 10
248.248607
 20
213.613519
 11
245.048607
 21
213.613519
  0
LINE
  8
CSLAYER1
  6
CONTINUOUS
 62
     6
 10
248.248607
 20
206.613519
 11
248.248607
 21
213.613519
  0
LINE
  8
CSLAYER1
  6
CONTINUOUS
 62
     6
 10
257.048607
 20
208.613539
 11
257.048607
 21
211.613498
  0
LINE
  8
CSLAYER1
  6
CONTINUOUS
 62
     6
 10
256.548607
 20
208.113539
 11
248.248607
 21
208.113539
  0
LINE
  8
CSLAYER1
  6
CONTINUOUS
 62
     3
 10
256.888607
 20
208.453539
 11
248.248607
 21
208.453539
  0
LINE
  8
CSLAYER1
  6
CONTINUOUS
 62
     6
 10
256.548607
 20
212.113498
 11
248.248607
 21
212.113498
  0
LINE
  8
CSLAYER1
  6
CONTINUOUS
 62
     3
 10
256.888607
 20
211.773498
 11
248.248607
 21
211.773498
  0
LINE
  8
CSLAYER1
  6
CONTINUOUS
 62
     6
 10
256.548607
 20
212.113498
 11
257.048607
 21
211.613498
  0
LINE
  8
CSLAYER1
  6
CONTINUOUS
 62
     6
 10
257.048607
 20
208.613539
 11
256.548607
 21
208.113539
  0
LINE
  8
CSLAYER1
  6
CONTINUOUS
 62
     6
 10
256.548607
 20
212.113498
 11
256.548607
 21
208.113539
  0
LINE
  8
CSLAYER1
  6
CONTINUOUS
 62
     6
 10
245.048607
 20
214.154970
 11
245.048607
 21
206.072067
  0
LINE
  8
CSLAYER1
  6
CONTINUOUS
 62
     6
 10
245.048607
 20
214.154970
 11
244.548607
 21
214.154970
  0
LINE
  8
CSLAYER1
  6
CONTINUOUS
 62
     6
 10
245.048607
 20
206.072067
 11
244.548607
 21
206.072067
  0
LINE
  8
CSLAYER1
  6
CONTINUOUS
 62
     6
 10
217.048607
 20
48.699919
 11
217.048607
 21
90.699919
  0
LINE
  8
CSLAYER1
  6
CONTINUOUS
 62
     6
 10
222.048607
 20
47.699919
 11
222.048607
 21
91.699919
  0
LINE
  8
CSLAYER1
  6
CONTINUOUS
 62
     6
 10
218.048607
 20
91.699919
 11
243.548607
 21
91.699919
  0
LINE
  8
CSLAYER1
  6
CONTINUOUS
 62
     6
 10
218.048607
 20
47.699919
 11
243.548607
 21
47.699919
  0
LINE
  8
CSLAYER1
  6
CONTINUOUS
 62
     6
 10
244.548607
 20
91.241370
 11
244.548607
 21
48.158467
  0
ARC
  8
CSLAYER1
  6
CONTINUOUS
 62
     6
 10
218.048607
 20
90.699919
 40
1.000000
 50
90.000000
 51
180.000000
  0
ARC
  8
CSLAYER1
  6
CONTINUOUS
 62
     6
 10
218.048607
 20
48.699919
 40
1.000000
 50
180.000000
 51
270.000000
  0
LINE
  8
CSLAYER1
  6
CONTINUOUS
 62
     6
 10
250.548607
 20
63.699919
 11
244.548607
 21
63.699919
  0
LINE
  8
CSLAYER1
  6
CONTINUOUS
 62
     6
 10
250.548607
 20
75.699919
 11
244.548607
 21
75.699919
  0
LINE
  8
CSLAYER1
  6
CONTINUOUS
 62
     6
 10
250.548607
 20
75.699919
 11
250.548607
 21
63.699919
  0
ARC
  8
CSLAYER1
  6
CONTINUOUS
 62
     6
 10
243.548607
 20
90.699919
 40
1.000000
 50
0.000000
 51
90.000000
  0
ARC
  8
CSLAYER1
  6
CONTINUOUS
 62
     6
 10
243.548607
 20
48.699919
 40
1.000000
 50
270.000000
 51
360.000000
  0
LINE
  8
CSLAYER1
  6
CENTER
 62
     3
 10
260.048607
 20
52.199919
 11
211.634808
 21
52.199919
  0
LINE
  8
CSLAYER1
  6
CENTER
 62
     3
 10
260.048607
 20
87.199919
 11
211.634808
 21
87.199919
  0
ARC
  8
CSLAYER1
  6
CONTINUOUS
 62
     6
 10
242.457155
 20
85.449919
 40
5.791452
 50
-17.587954
 51
17.587954
  0
ARC
  8
CSLAYER1
  6
CONTINUOUS
 62
     6
 10
242.457155
 20
88.949919
 40
5.791452
 50
-17.587954
 51
17.587954
  0
LINE
  8
CSLAYER1
  6
CONTINUOUS
 62
     6
 10
248.248607
 20
83.699919
 11
245.048607
 21
83.699919
  0
LINE
  8
CSLAYER1
  6
CONTINUOUS
 62
     6
 10
247.977881
 20
87.199919
 11
245.048607
 21
87.199919
  0
LINE
  8
CSLAYER1
  6
CONTINUOUS
 62
     6
 10
248.248607
 20
90.699919
 11
245.048607
 21
90.699919
  0
LINE
  8
CSLAYER1
  6
CONTINUOUS
 62
     6
 10
248.248607
 20
83.699919
 11
248.248607
 21
90.699919
  0
LINE
  8
CSLAYER1
  6
CONTINUOUS
 62
     6
 10
257.048607
 20
85.699939
 11
257.048607
 21
88.699898
  0
LINE
  8
CSLAYER1
  6
CONTINUOUS
 62
     6
 10
256.548607
 20
85.199939
 11
248.248607
 21
85.199939
  0
LINE
  8
CSLAYER1
  6
CONTINUOUS
 62
     3
 10
256.888607
 20
85.539939
 11
248.248607
 21
85.539939
  0
LINE
  8
CSLAYER1
  6
CONTINUOUS
 62
     6
 10
256.548607
 20
89.199898
 11
248.248607
 21
89.199898
  0
LINE
  8
CSLAYER1
  6
CONTINUOUS
 62
     3
 10
256.888607
 20
88.859898
 11
248.248607
 21
88.859898
  0
LINE
  8
CSLAYER1
  6
CONTINUOUS
 62
     6
 10
256.548607
 20
89.199898
 11
257.048607
 21
88.699898
  0
LINE
  8
CSLAYER1
  6
CONTINUOUS
 62
     6
 10
257.048607
 20
85.699939
 11
256.548607
 21
85.199939
  0
LINE
  8
CSLAYER1
  6
CONTINUOUS
 62
     6
 10
256.548607
 20
89.199898
 11
256.548607
 21
85.199939
  0
LINE
  8
CSLAYER1
  6
CONTINUOUS
 62
     6
 10
245.048607
 20
91.241370
 11
245.048607
 21
83.158467
  0
LINE
  8
CSLAYER1
  6
CONTINUOUS
 62
     6
 10
245.048607
 20
91.241370
 11
244.548607
 21
91.241370
  0
LINE
  8
CSLAYER1
  6
CONTINUOUS
 62
     6
 10
245.048607
 20
83.158467
 11
244.548607
 21
83.158467
  0
ARC
  8
CSLAYER1
  6
CONTINUOUS
 62
     6
 10
242.457155
 20
50.449919
 40
5.791452
 50
-17.587954
 51
17.587954
  0
ARC
  8
CSLAYER1
  6
CONTINUOUS
 62
     6
 10
242.457155
 20
53.949919
 40
5.791452
 50
-17.587954
 51
17.587954
  0
LINE
  8
CSLAYER1
  6
CONTINUOUS
 62
     6
 10
248.248607
 20
48.699919
 11
245.048607
 21
48.699919
  0
LINE
  8
CSLAYER1
  6
CONTINUOUS
 62
     6
 10
247.977881
 20
52.199919
 11
245.048607
 21
52.199919
  0
LINE
  8
CSLAYER1
  6
CONTINUOUS
 62
     6
 10
248.248607
 20
55.699919
 11
245.048607
 21
55.699919
  0
LINE
  8
CSLAYER1
  6
CONTINUOUS
 62
     6
 10
248.248607
 20
48.699919
 11
248.248607
 21
55.699919
  0
LINE
  8
CSLAYER1
  6
CONTINUOUS
 62
     6
 10
257.048607
 20
50.699939
 11
257.048607
 21
53.699898
  0
LINE
  8
CSLAYER1
  6
CONTINUOUS
 62
     6
 10
256.548607
 20
50.199939
 11
248.248607
 21
50.199939
  0
LINE
  8
CSLAYER1
  6
CONTINUOUS
 62
     3
 10
256.888607
 20
50.539939
 11
248.248607
 21
50.539939
  0
LINE
  8
CSLAYER1
  6
CONTINUOUS
 62
     6
 10
256.548607
 20
54.199898
 11
248.248607
 21
54.199898
  0
LINE
  8
CSLAYER1
  6
CONTINUOUS
 62
     3
 10
256.888607
 20
53.859898
 11
248.248607
 21
53.859898
  0
LINE
  8
CSLAYER1
  6
CONTINUOUS
 62
     6
 10
256.548607
 20
54.199898
 11
257.048607
 21
53.699898
  0
LINE
  8
CSLAYER1
  6
CONTINUOUS
 62
     6
 10
257.048607
 20
50.699939
 11
256.548607
 21
50.199939
  0
LINE
  8
CSLAYER1
  6
CONTINUOUS
 62
     6
 10
256.548607
 20
54.199898
 11
256.548607
 21
50.199939
  0
LINE
  8
CSLAYER1
  6
CONTINUOUS
 62
     6
 10
245.048607
 20
56.241370
 11
245.048607
 21
48.158467
  0
LINE
  8
CSLAYER1
  6
CONTINUOUS
 62
     6
 10
245.048607
 20
56.241370
 11
244.548607
 21
56.241370
  0
LINE
  8
CSLAYER1
  6
CONTINUOUS
 62
     6
 10
245.048607
 20
48.158467
 11
244.548607
 21
48.158467
  0
ARC
  8
CSLAYER1
  6
CONTINUOUS
 62
     6
 10
246.227881
 20
128.125630
 40
2.020726
 50
-15.446648
 51
30.000000
  0
ARC
  8
CSLAYER1
  6
CONTINUOUS
 62
     6
 10
240.571792
 20
131.156719
 40
7.676815
 50
-15.261480
 51
15.261480
  0
ARC
  8
CSLAYER1
  6
CONTINUOUS
 62
     6
 10
246.227881
 20
134.187807
 40
2.020726
 50
-30.000000
 51
15.446648
  0
LINE
  8
CSLAYER1
  6
CONTINUOUS
 62
     6
 10
247.977881
 20
127.115267
 11
244.548607
 21
127.115267
  0
LINE
  8
CSLAYER1
  6
CONTINUOUS
 62
     6
 10
247.977881
 20
129.135993
 11
245.048607
 21
129.135993
  0
LINE
  8
CSLAYER1
  6
CONTINUOUS
 62
     6
 10
247.977881
 20
133.177445
 11
245.048607
 21
133.177445
  0
LINE
  8
CSLAYER1
  6
CONTINUOUS
 62
     6
 10
247.977881
 20
135.198170
 11
244.548607
 21
135.198170
  0
LINE
  8
CSLAYER1
  6
CONTINUOUS
 62
     6
 10
248.248607
 20
127.761719
 11
248.248607
 21
134.551719
  0
LINE
  8
CSLAYER1
  6
CONTINUOUS
 62
     6
 10
245.048607
 20
127.115267
 11
245.048607
 21
135.198170
  0
LINE
  8
CSLAYER1
  6
CONTINUOUS
 62
     6
 10
248.248607
 20
127.761719
 11
247.977881
 21
127.115267
  0
LINE
  8
CSLAYER1
  6
CONTINUOUS
 62
     6
 10
248.248607
 20
134.551719
 11
247.977881
 21
135.198170
  0
LINE
  8
CSLAYER1
  6
CONTINUOUS
 62
     6
 10
257.048607
 20
129.656739
 11
257.048607
 21
132.656698
  0
LINE
  8
CSLAYER1
  6
CONTINUOUS
 62
     6
 10
256.548607
 20
129.156739
 11
248.248607
 21
129.156739
  0
LINE
  8
CSLAYER1
  6
CONTINUOUS
 62
     3
 10
256.888607
 20
129.496739
 11
248.248607
 21
129.496739
  0
LINE
  8
CSLAYER1
  6
CONTINUOUS
 62
     6
 10
256.548607
 20
133.156698
 11
248.248607
 21
133.156698
  0
LINE
  8
CSLAYER1
  6
CONTINUOUS
 62
     3
 10
256.888607
 20
132.816698
 11
248.248607
 21
132.816698
  0
LINE
  8
CSLAYER1
  6
CONTINUOUS
 62
     6
 10
256.548607
 20
133.156698
 11
257.048607
 21
132.656698
  0
LINE
  8
CSLAYER1
  6
CONTINUOUS
 62
     6
 10
257.048607
 20
129.656739
 11
256.548607
 21
129.156739
  0
LINE
  8
CSLAYER1
  6
CONTINUOUS
 62
     6
 10
256.548607
 20
133.156698
 11
256.548607
 21
129.156739
  0
ARC
  8
CSLAYER1
  6
CONTINUOUS
 62
     6
 10
246.227881
 20
163.125630
 40
2.020726
 50
-15.446648
 51
30.000000
  0
ARC
  8
CSLAYER1
  6
CONTINUOUS
 62
     6
 10
240.571792
 20
166.156719
 40
7.676815
 50
-15.261480
 51
15.261480
  0
ARC
  8
CSLAYER1
  6
CONTINUOUS
 62
     6
 10
246.227881
 20
169.187807
 40
2.020726
 50
-30.000000
 51
15.446648
  0
LINE
  8
CSLAYER1
  6
CONTINUOUS
 62
     6
 10
247.977881
 20
162.115267
 11
244.548607
 21
162.115267
  0
LINE
  8
CSLAYER1
  6
CONTINUOUS
 62
     6
 10
247.977881
 20
164.135993
 11
245.048607
 21
164.135993
  0
LINE
  8
CSLAYER1
  6
CONTINUOUS
 62
     6
 10
247.977881
 20
168.177445
 11
245.048607
 21
168.177445
  0
LINE
  8
CSLAYER1
  6
CONTINUOUS
 62
     6
 10
247.977881
 20
170.198170
 11
244.548607
 21
170.198170
  0
LINE
  8
CSLAYER1
  6
CONTINUOUS
 62
     6
 10
248.248607
 20
162.761719
 11
248.248607
 21
169.551719
  0
LINE
  8
CSLAYER1
  6
CONTINUOUS
 62
     6
 10
245.048607
 20
162.115267
 11
245.048607
 21
170.198170
  0
LINE
  8
CSLAYER1
  6
CONTINUOUS
 62
     6
 10
248.248607
 20
162.761719
 11
247.977881
 21
162.115267
  0
LINE
  8
CSLAYER1
  6
CONTINUOUS
 62
     6
 10
248.248607
 20
169.551719
 11
247.977881
 21
170.198170
  0
LINE
  8
CSLAYER1
  6
CONTINUOUS
 62
     6
 10
257.048607
 20
164.656739
 11
257.048607
 21
167.656698
  0
LINE
  8
CSLAYER1
  6
CONTINUOUS
 62
     6
 10
256.548607
 20
164.156739
 11
248.248607
 21
164.156739
  0
LINE
  8
CSLAYER1
  6
CONTINUOUS
 62
     3
 10
256.888607
 20
164.496739
 11
248.248607
 21
164.496739
  0
LINE
  8
CSLAYER1
  6
CONTINUOUS
 62
     6
 10
256.548607
 20
168.156698
 11
248.248607
 21
168.156698
  0
LINE
  8
CSLAYER1
  6
CONTINUOUS
 62
     3
 10
256.888607
 20
167.816698
 11
248.248607
 21
167.816698
  0
LINE
  8
CSLAYER1
  6
CONTINUOUS
 62
     6
 10
256.548607
 20
168.156698
 11
257.048607
 21
167.656698
  0
LINE
  8
CSLAYER1
  6
CONTINUOUS
 62
     6
 10
257.048607
 20
164.656739
 11
256.548607
 21
164.156739
  0
LINE
  8
CSLAYER1
  6
CONTINUOUS
 62
     6
 10
256.548607
 20
168.156698
 11
256.548607
 21
164.156739
  0
LINE
  8
CSLAYER1
  6
CONTINUOUS
 62
     6
 10
265.548607
 20
158.656726
 11
265.548607
 21
152.656726
  0
LINE
  8
CSLAYER1
  6
CONTINUOUS
 62
     6
 10
265.548607
 20
152.656726
 11
250.548607
 21
152.656726
  0
LINE
  8
CSLAYER1
  6
CONTINUOUS
 62
     6
 10
265.548607
 20
158.656726
 11
250.548607
 21
158.656726
  0
ARC
  8
CSLAYER1
  6
CONTINUOUS
 62
     6
 10
223.083102
 20
131.156700
 40
8.448294
 50
163.742984
 51
196.257006
  0
LINE
  8
CSLAYER1
  6
CONTINUOUS
 62
     6
 10
216.786144
 20
127.860692
 11
216.026013
 21
127.927192
  0
ARC
  8
CSLAYER1
  6
CONTINUOUS
 62
     6
 10
216.131204
 20
129.129505
 40
1.206899
 50
196.257389
 51
264.999889
  0
ARC
  8
CSLAYER1
  6
CONTINUOUS
 62
     6
 10
216.807212
 20
128.101148
 40
0.241380
 50
264.999848
 51
360.000000
  0
LINE
  8
CSLAYER1
  6
CONTINUOUS
 62
     6
 10
216.786144
 20
134.452708
 11
216.026013
 21
134.386209
  0
ARC
  8
CSLAYER1
  6
CONTINUOUS
 62
     6
 10
216.131204
 20
133.183895
 40
1.206899
 50
95.000108
 51
163.742601
  0
ARC
  8
CSLAYER1
  6
CONTINUOUS
 62
     6
 10
216.807212
 20
134.212253
 40
0.241380
 50
0.057309
 51
95.000135
  0
ARC
  8
CSLAYER1
  6
CONTINUOUS
 62
     6
 10
223.083102
 20
166.156737
 40
8.448294
 50
163.742994
 51
196.257016
  0
LINE
  8
CSLAYER1
  6
CONTINUOUS
 62
     6
 10
216.786144
 20
169.452745
 11
216.026013
 21
169.386245
  0
ARC
  8
CSLAYER1
  6
CONTINUOUS
 62
     6
 10
216.131204
 20
168.183932
 40
1.206899
 50
95.000111
 51
163.742611
  0
ARC
  8
CSLAYER1
  6
CONTINUOUS
 62
     6
 10
216.807212
 20
169.212289
 40
0.241380
 50
0.000000
 51
95.000152
  0
LINE
  8
CSLAYER1
  6
CONTINUOUS
 62
     6
 10
216.786144
 20
162.860729
 11
216.026013
 21
162.927228
  0
ARC
  8
CSLAYER1
  6
CONTINUOUS
 62
     6
 10
216.131204
 20
164.129542
 40
1.206899
 50
196.257399
 51
264.999892
  0
ARC
  8
CSLAYER1
  6
CONTINUOUS
 62
     6
 10
216.807212
 20
163.101184
 40
0.241380
 50
264.999865
 51
359.942691
  0
LINE
  8
CSLAYER1
  6
CONTINUOUS
 62
     6
 10
265.548607
 20
225.113519
 11
265.548607
 21
230.613519
  0
LINE
  8
CSLAYER1
  6
CONTINUOUS
 62
     6
 10
265.548607
 20
230.613519
 11
250.548607
 21
230.613519
  0
LINE
  8
CSLAYER1
  6
CONTINUOUS
 62
     6
 10
253.548607
 20
224.613519
 11
250.548607
 21
224.613519
  0
LINE
  8
CSLAYER1
  6
CONTINUOUS
 62
     6
 10
253.548607
 20
224.613519
 11
253.548607
 21
225.113519
  0
LINE
  8
CSLAYER1
  6
CONTINUOUS
 62
     6
 10
265.548607
 20
225.113519
 11
253.548607
 21
225.113519
  0
ARC
  8
CSLAYER1
  6
CONTINUOUS
 62
     6
 10
223.083102
 20
210.113500
 40
8.448294
 50
163.742984
 51
196.257006
  0
LINE
  8
CSLAYER1
  6
CONTINUOUS
 62
     6
 10
216.786144
 20
206.817492
 11
216.026013
 21
206.883992
  0
ARC
  8
CSLAYER1
  6
CONTINUOUS
 62
     6
 10
216.131204
 20
208.086305
 40
1.206899
 50
196.257389
 51
264.999889
  0
ARC
  8
CSLAYER1
  6
CONTINUOUS
 62
     6
 10
216.807212
 20
207.057948
 40
0.241380
 50
264.999848
 51
360.000000
  0
LINE
  8
CSLAYER1
  6
CONTINUOUS
 62
     6
 10
216.786144
 20
213.409508
 11
216.026013
 21
213.343009
  0
ARC
  8
CSLAYER1
  6
CONTINUOUS
 62
     6
 10
216.131204
 20
212.140695
 40
1.206899
 50
95.000108
 51
163.742601
  0
ARC
  8
CSLAYER1
  6
CONTINUOUS
 62
     6
 10
216.807212
 20
213.169053
 40
0.241380
 50
0.057309
 51
95.000135
  0
ARC
  8
CSLAYER1
  6
CONTINUOUS
 62
     6
 10
223.083102
 20
245.113537
 40
8.448294
 50
163.742994
 51
196.257016
  0
LINE
  8
CSLAYER1
  6
CONTINUOUS
 62
     6
 10
216.786144
 20
248.409545
 11
216.026013
 21
248.343045
  0
ARC
  8
CSLAYER1
  6
CONTINUOUS
 62
     6
 10
216.131204
 20
247.140732
 40
1.206899
 50
95.000111
 51
163.742611
  0
ARC
  8
CSLAYER1
  6
CONTINUOUS
 62
     6
 10
216.807212
 20
248.169089
 40
0.241380
 50
0.000000
 51
95.000152
  0
LINE
  8
CSLAYER1
  6
CONTINUOUS
 62
     6
 10
216.786144
 20
241.817529
 11
216.026013
 21
241.884028
  0
ARC
  8
CSLAYER1
  6
CONTINUOUS
 62
     6
 10
216.131204
 20
243.086342
 40
1.206899
 50
196.257399
 51
264.999892
  0
ARC
  8
CSLAYER1
  6
CONTINUOUS
 62
     6
 10
216.807212
 20
242.057984
 40
0.241380
 50
264.999865
 51
359.942691
  0
LINE
  8
CSLAYER1
  6
CONTINUOUS
 62
     6
 10
302.897189
 20
170.656726
 11
337.897189
 21
170.656726
  0
LINE
  8
CSLAYER1
  6
CONTINUOUS
 62
     6
 10
298.397189
 20
131.156725
 11
298.397189
 21
166.156726
  0
LINE
  8
CSLAYER1
  6
CONTINUOUS
 62
     6
 10
337.897189
 20
126.656725
 11
302.897189
 21
126.656725
  0
LINE
  8
CSLAYER1
  6
CONTINUOUS
 62
     6
 10
342.397189
 20
166.156726
 11
342.397189
 21
131.156725
  0
ARC
  8
CSLAYER1
  6
CONTINUOUS
 62
     6
 10
337.897189
 20
166.156726
 40
4.500000
 50
0.000000
 51
90.000000
  0
ARC
  8
CSLAYER1
  6
CONTINUOUS
 62
     6
 10
302.897189
 20
166.156726
 40
4.500000
 50
90.000000
 51
180.000000
  0
ARC
  8
CSLAYER1
  6
CONTINUOUS
 62
     6
 10
302.897189
 20
131.156725
 40
4.500000
 50
180.000000
 51
270.000000
  0
ARC
  8
CSLAYER1
  6
CONTINUOUS
 62
     6
 10
337.897189
 20
131.156725
 40
4.500000
 50
270.000000
 51
360.000000
  0
LINE
  8
CSLAYER1
  6
CONTINUOUS
 62
     6
 10
297.897194
 20
153.656726
 11
297.897194
 21
143.656726
  0
LINE
  8
CSLAYER1
  6
CONTINUOUS
 62
     6
 10
298.397189
 20
143.156731
 11
297.897194
 21
143.656726
  0
LINE
  8
CSLAYER1
  6
CONTINUOUS
 62
     6
 10
297.897194
 20
153.656726
 11
298.397189
 21
154.156720
  0
LINE
  8
CSLAYER1
  6
CONTINUOUS
 62
     6
 10
342.897187
 20
153.656711
 11
342.897181
 21
143.656711
  0
LINE
  8
CSLAYER1
  6
CONTINUOUS
 62
     6
 10
342.397186
 20
143.156717
 11
342.897181
 21
143.656711
  0
LINE
  8
CSLAYER1
  6
CONTINUOUS
 62
     6
 10
342.897187
 20
153.656711
 11
342.397193
 21
154.156706
  0
LINE
  8
CSLAYER1
  6
CONTINUOUS
 62
     6
 10
329.912830
 20
129.656725
 11
310.881536
 21
129.656725
  0
LINE
  8
CSLAYER1
  6
CONTINUOUS
 62
     6
 10
339.397189
 20
156.474273
 11
339.397189
 21
140.839178
  0
ARC
  8
CSLAYER1
  6
CONTINUOUS
 62
     6
 10
337.897189
 20
131.156720
 40
6.000000
 50
104.477511
 51
176.416639
  0
ARC
  8
CSLAYER1
  6
CONTINUOUS
 62
     6
 10
329.912830
 20
131.656725
 40
2.000000
 50
270.000000
 51
356.416639
  0
ARC
  8
CSLAYER1
  6
CONTINUOUS
 62
     6
 10
335.397189
 20
140.839178
 40
4.000000
 50
284.477511
 51
360.000000
  0
ARC
  8
CSLAYER1
  6
CONTINUOUS
 62
     6
 10
302.897178
 20
131.156731
 40
6.000000
 50
3.583324
 51
75.522452
  0
ARC
  8
CSLAYER1
  6
CONTINUOUS
 62
     6
 10
310.881537
 20
131.656731
 40
2.000000
 50
183.583324
 51
269.999963
  0
ARC
  8
CSLAYER1
  6
CONTINUOUS
 62
     6
 10
305.397184
 20
140.839188
 40
4.000000
 50
179.999963
 51
255.522452
  0
LINE
  8
CSLAYER1
  6
CONTINUOUS
 62
     6
 10
329.912830
 20
167.656726
 11
310.881536
 21
167.656726
  0
ARC
  8
CSLAYER1
  6
CONTINUOUS
 62
     6
 10
337.897189
 20
166.156731
 40
6.000000
 50
183.583361
 51
255.522489
  0
ARC
  8
CSLAYER1
  6
CONTINUOUS
 62
     6
 10
329.912830
 20
165.656726
 40
2.000000
 50
3.583361
 51
90.000000
  0
ARC
  8
CSLAYER1
  6
CONTINUOUS
 62
     6
 10
335.397189
 20
156.474273
 40
4.000000
 50
0.000000
 51
75.522489
  0
ARC
  8
CSLAYER1
  6
CONTINUOUS
 62
     6
 10
302.897178
 20
166.156720
 40
6.000000
 50
284.477548
 51
356.416676
  0
ARC
  8
CSLAYER1
  6
CONTINUOUS
 62
     6
 10
310.881537
 20
165.656720
 40
2.000000
 50
90.000037
 51
176.416676
  0
ARC
  8
CSLAYER1
  6
CONTINUOUS
 62
     6
 10
305.397184
 20
156.474263
 40
4.000000
 50
104.477548
 51
180.000037
  0
LINE
  8
CSLAYER1
  6
CONTINUOUS
 62
     6
 10
301.397184
 20
140.839190
 11
301.397184
 21
156.474261
  0
LINE
  8
CSLAYER1
  6
CONTINUOUS
 62
     6
 10
265.548607
 20
72.199919
 11
265.548607
 21
66.699919
  0
LINE
  8
CSLAYER1
  6
CONTINUOUS
 62
     6
 10
265.548607
 20
66.699919
 11
250.548607
 21
66.699919
  0
LINE
  8
CSLAYER1
  6
CONTINUOUS
 62
     6
 10
253.548607
 20
72.699919
 11
250.548607
 21
72.699919
  0
LINE
  8
CSLAYER1
  6
CONTINUOUS
 62
     6
 10
253.548607
 20
72.699919
 11
253.548607
 21
72.199919
  0
LINE
  8
CSLAYER1
  6
CONTINUOUS
 62
     6
 10
265.548607
 20
72.199919
 11
253.548607
 21
72.199919
  0
ARC
  8
CSLAYER1
  6
CONTINUOUS
 62
     6
 10
223.083102
 20
52.199900
 40
8.448294
 50
163.742984
 51
196.257006
  0
LINE
  8
CSLAYER1
  6
CONTINUOUS
 62
     6
 10
216.786144
 20
48.903892
 11
216.026013
 21
48.970392
  0
ARC
  8
CSLAYER1
  6
CONTINUOUS
 62
     6
 10
216.131204
 20
50.172705
 40
1.206899
 50
196.257389
 51
264.999889
  0
ARC
  8
CSLAYER1
  6
CONTINUOUS
 62
     6
 10
216.807212
 20
49.144348
 40
0.241380
 50
264.999848
 51
360.000000
  0
LINE
  8
CSLAYER1
  6
CONTINUOUS
 62
     6
 10
216.786144
 20
55.495908
 11
216.026013
 21
55.429409
  0
ARC
  8
CSLAYER1
  6
CONTINUOUS
 62
     6
 10
216.131204
 20
54.227095
 40
1.206899
 50
95.000108
 51
163.742601
  0
ARC
  8
CSLAYER1
  6
CONTINUOUS
 62
     6
 10
216.807212
 20
55.255453
 40
0.241380
 50
0.057309
 51
95.000135
  0
ARC
  8
CSLAYER1
  6
CONTINUOUS
 62
     6
 10
223.083102
 20
87.199937
 40
8.448294
 50
163.742994
 51
196.257016
  0
LINE
  8
CSLAYER1
  6
CONTINUOUS
 62
     6
 10
216.786144
 20
90.495945
 11
216.026013
 21
90.429445
  0
ARC
  8
CSLAYER1
  6
CONTINUOUS
 62
     6
 10
216.131204
 20
89.227132
 40
1.206899
 50
95.000111
 51
163.742611
  0
ARC
  8
CSLAYER1
  6
CONTINUOUS
 62
     6
 10
216.807212
 20
90.255489
 40
0.241380
 50
0.000000
 51
95.000152
  0
LINE
  8
CSLAYER1
  6
CONTINUOUS
 62
     6
 10
216.786144
 20
83.903929
 11
216.026013
 21
83.970428
  0
ARC
  8
CSLAYER1
  6
CONTINUOUS
 62
     6
 10
216.131204
 20
85.172742
 40
1.206899
 50
196.257399
 51
264.999892
  0
ARC
  8
CSLAYER1
  6
CONTINUOUS
 62
     6
 10
216.807212
 20
84.144384
 40
0.241380
 50
264.999865
 51
359.942691
  0
LINE
  8
CSLAYER1
  6
CONTINUOUS
 62
     6
 10
159.048607
 20
220.113519
 11
159.048607
 21
235.113519
  0
LINE
  8
CSLAYER1
  6
CONTINUOUS
 62
     6
 10
164.048607
 20
209.613519
 11
164.048607
 21
245.613519
  0
LINE
  8
CSLAYER1
  6
CONTINUOUS
 62
     6
 10
215.020764
 20
247.613519
 11
179.048607
 21
247.613519
  0
LINE
  8
CSLAYER1
  6
CONTINUOUS
 62
     6
 10
215.020764
 20
207.613519
 11
179.048607
 21
207.613519
  0
LINE
  8
CSLAYER1
  6
CONTINUOUS
 62
     6
 10
178.048607
 20
205.113519
 11
178.048607
 21
250.113519
  0
LINE
  8
CSLAYER1
  6
CONTINUOUS
 62
     6
 10
179.048607
 20
207.613519
 11
178.048607
 21
208.613519
  0
LINE
  8
CSLAYER1
  6
CONTINUOUS
 62
     6
 10
179.048607
 20
247.613519
 11
178.048607
 21
246.613519
  0
LINE
  8
CSLAYER1
  6
CONTINUOUS
 62
     6
 10
179.048607
 20
207.613519
 11
179.048607
 21
247.613519
  0
LINE
  8
CSLAYER1
  6
CONTINUOUS
 62
     6
 10
162.048607
 20
237.113519
 11
161.048607
 21
237.113519
  0
LINE
  8
CSLAYER1
  6
CONTINUOUS
 62
     6
 10
162.048607
 20
218.113519
 11
161.048607
 21
218.113519
  0
ARC
  8
CSLAYER1
  6
CONTINUOUS
 62
     6
 10
161.048607
 20
220.113519
 40
2.000000
 50
180.000000
 51
270.000000
  0
ARC
  8
CSLAYER1
  6
CONTINUOUS
 62
     6
 10
161.048607
 20
235.113519
 40
2.000000
 50
90.000000
 51
180.000000
  0
ARC
  8
CSLAYER1
  6
CONTINUOUS
 62
     6
 10
162.048607
 20
216.113519
 40
2.000000
 50
0.000000
 51
90.000000
  0
ARC
  8
CSLAYER1
  6
CONTINUOUS
 62
     6
 10
162.048607
 20
239.113519
 40
2.000000
 50
270.000000
 51
360.000000
  0
ARC
  8
CSLAYER1
  6
CONTINUOUS
 62
     6
 10
165.048607
 20
209.613519
 40
1.000000
 50
180.000000
 51
270.000000
  0
ARC
  8
CSLAYER1
  6
CONTINUOUS
 62
     6
 10
165.048607
 20
245.613519
 40
1.000000
 50
90.000000
 51
180.000000
  0
LINE
  8
CSLAYER1
  6
CONTINUOUS
 62
     6
 10
166.048607
 20
246.613519
 11
165.048607
 21
246.613519
  0
LINE
  8
CSLAYER1
  6
CONTINUOUS
 62
     6
 10
166.048607
 20
208.613519
 11
165.048607
 21
208.613519
  0
LINE
  8
CSLAYER1
  6
CONTINUOUS
 62
     6
 10
178.048607
 20
250.113519
 11
166.048607
 21
250.113519
  0
LINE
  8
CSLAYER1
  6
CONTINUOUS
 62
     6
 10
178.048607
 20
205.113519
 11
166.048607
 21
205.113519
  0
LINE
  8
CSLAYER1
  6
CONTINUOUS
 62
     6
 10
178.048607
 20
209.113519
 11
166.048607
 21
209.113519
  0
LINE
  8
CSLAYER1
  6
CONTINUOUS
 62
     6
 10
178.048607
 20
246.113519
 11
166.048607
 21
246.113519
  0
LINE
  8
CSLAYER1
  6
CONTINUOUS
 62
     6
 10
166.048607
 20
246.113519
 11
166.048607
 21
250.113519
  0
LINE
  8
CSLAYER1
  6
CONTINUOUS
 62
     6
 10
166.048607
 20
205.113519
 11
166.048607
 21
209.113519
  0
LINE
  8
CSLAYER1
  6
CONTINUOUS
 62
     6
 10
178.048607
 20
249.113519
 11
166.048607
 21
249.113519
  0
LINE
  8
CSLAYER1
  6
CONTINUOUS
 62
     6
 10
178.048607
 20
206.113519
 11
166.048607
 21
206.113519
  0
LINE
  8
CSLAYER1
  6
CONTINUOUS
 62
     6
 10
166.048607
 20
206.613519
 11
159.048607
 21
206.613519
  0
LINE
  8
CSLAYER1
  6
CONTINUOUS
 62
     6
 10
159.048607
 20
248.613519
 11
166.048607
 21
248.613519
  0
LINE
  8
CSLAYER1
  6
CONTINUOUS
 62
     6
 10
166.048607
 20
207.113519
 11
159.048607
 21
207.113519
  0
LINE
  8
CSLAYER1
  6
CONTINUOUS
 62
     6
 10
159.048607
 20
248.113519
 11
166.048607
 21
248.113519
  0
LINE
  8
CSLAYER1
  6
CONTINUOUS
 62
     6
 10
159.048607
 20
206.613519
 11
159.048607
 21
207.113519
  0
LINE
  8
CSLAYER1
  6
CONTINUOUS
 62
     6
 10
159.048607
 20
248.113519
 11
159.048607
 21
248.613519
  0
LINE
  8
CSLAYER1
  6
CONTINUOUS
 62
     3
 10
213.048607
 20
208.098998
 11
183.048607
 21
208.098998
  0
LINE
  8
CSLAYER1
  6
CONTINUOUS
 62
     3
 10
213.048607
 20
247.128039
 11
183.048607
 21
247.128039
  0
LINE
  8
CSLAYER1
  6
CONTINUOUS
 62
     3
 10
214.048607
 20
209.098998
 11
214.048607
 21
246.128039
  0
LINE
  8
CSLAYER1
  6
CONTINUOUS
 62
     3
 10
182.048607
 20
209.098998
 11
182.048607
 21
246.128039
  0
ARC
  8
CSLAYER1
  6
CONTINUOUS
 62
     3
 10
213.048607
 20
246.128039
 40
1.000000
 50
0.000000
 51
90.000000
  0
ARC
  8
CSLAYER1
  6
CONTINUOUS
 62
     3
 10
183.048607
 20
246.128039
 40
1.000000
 50
90.000000
 51
180.000000
  0
ARC
  8
CSLAYER1
  6
CONTINUOUS
 62
     3
 10
183.048607
 20
209.098998
 40
1.000000
 50
180.000000
 51
270.000000
  0
ARC
  8
CSLAYER1
  6
CONTINUOUS
 62
     3
 10
213.048607
 20
209.098998
 40
1.000000
 50
270.000000
 51
360.000000
  0
TEXT
  8
CSLAYER1
 62
     3
 10
195.972763
 20
232.852570
 40
3.500000
 41
1.125000
  1
N P
 50
270.000000
 51
10.000000
  7
JX_FONT
 72
     5
 11
195.972763
 21
222.352570
  0
CIRCLE
  8
CSLAYER1
  6
PHANTOM
 62
     7
 10
214.320381
 20
227.613519
 40
0.098712
  0
LINE
  8
CSLAYER1
  6
CONTINUOUS
 62
     6
 10
164.048607
 20
130.656719
 11
164.048607
 21
146.156719
  0
LINE
  8
CSLAYER1
  6
CONTINUOUS
 62
     6
 10
215.020764
 20
168.656719
 11
179.048607
 21
168.656719
  0
LINE
  8
CSLAYER1
  6
CONTINUOUS
 62
     6
 10
215.020764
 20
128.656719
 11
179.048607
 21
128.656719
  0
LINE
  8
CSLAYER1
  6
CONTINUOUS
 62
     6
 10
178.048607
 20
129.656719
 11
178.048607
 21
167.656719
  0
LINE
  8
CSLAYER1
  6
CONTINUOUS
 62
     6
 10
179.048607
 20
128.656719
 11
178.048607
 21
129.656719
  0
LINE
  8
CSLAYER1
  6
CONTINUOUS
 62
     6
 10
179.048607
 20
168.656719
 11
178.048607
 21
167.656719
  0
LINE
  8
CSLAYER1
  6
CONTINUOUS
 62
     6
 10
179.048607
 20
128.656719
 11
179.048607
 21
168.656719
  0
ARC
  8
CSLAYER1
  6
CONTINUOUS
 62
     6
 10
165.048607
 20
130.656719
 40
1.000000
 50
180.000000
 51
270.000000
  0
ARC
  8
CSLAYER1
  6
CONTINUOUS
 62
     6
 10
165.048607
 20
166.656719
 40
1.000000
 50
90.000000
 51
180.000000
  0
LINE
  8
CSLAYER1
  6
CONTINUOUS
 62
     6
 10
178.048607
 20
167.656719
 11
165.048607
 21
167.656719
  0
LINE
  8
CSLAYER1
  6
CONTINUOUS
 62
     6
 10
178.048607
 20
129.656719
 11
165.048607
 21
129.656719
  0
LINE
  8
CSLAYER1
  6
CONTINUOUS
 62
     3
 10
213.048607
 20
153.036614
 11
183.048607
 21
153.036614
  0
LINE
  8
CSLAYER1
  6
CONTINUOUS
 62
     3
 10
214.048607
 20
154.036614
 11
214.048607
 21
168.656719
  0
LINE
  8
CSLAYER1
  6
CONTINUOUS
 62
     3
 10
182.048607
 20
154.036614
 11
182.048607
 21
168.656719
  0
ARC
  8
CSLAYER1
  6
CONTINUOUS
 62
     3
 10
183.048607
 20
154.036614
 40
1.000000
 50
180.000000
 51
270.000000
  0
ARC
  8
CSLAYER1
  6
CONTINUOUS
 62
     3
 10
213.048607
 20
154.036614
 40
1.000000
 50
270.000000
 51
360.000000
  0
LINE
  8
CSLAYER1
  6
CONTINUOUS
 62
     6
 10
178.048607
 20
154.656719
 11
166.048607
 21
154.656719
  0
LINE
  8
CSLAYER1
  6
CONTINUOUS
 62
     6
 10
166.048607
 20
154.656719
 11
166.048607
 21
142.656719
  0
LINE
  8
CSLAYER1
  6
CONTINUOUS
 62
     6
 10
166.048607
 20
153.656719
 11
178.048607
 21
153.656719
  0
LINE
  8
CSLAYER1
  6
CONTINUOUS
 62
     6
 10
176.048607
 20
151.656719
 11
165.048607
 21
151.656719
  0
LINE
  8
CSLAYER1
  6
CONTINUOUS
 62
     6
 10
178.048607
 20
142.656719
 11
166.048607
 21
142.656719
  0
LINE
  8
CSLAYER1
  6
CONTINUOUS
 62
     6
 10
166.048607
 20
143.656719
 11
178.048607
 21
143.656719
  0
LINE
  8
CSLAYER1
  6
CONTINUOUS
 62
     6
 10
176.048607
 20
145.656719
 11
165.048607
 21
145.656719
  0
LINE
  8
CSLAYER1
  6
CONTINUOUS
 62
     6
 10
159.048607
 20
141.156719
 11
159.048607
 21
156.156719
  0
LINE
  8
CSLAYER1
  6
CONTINUOUS
 62
     6
 10
164.048607
 20
151.156719
 11
164.048607
 21
166.656719
  0
LINE
  8
CSLAYER1
  6
CONTINUOUS
 62
     6
 10
165.048607
 20
151.156719
 11
159.048607
 21
151.156719
  0
LINE
  8
CSLAYER1
  6
CONTINUOUS
 62
     6
 10
165.048607
 20
146.156719
 11
159.048607
 21
146.156719
  0
LINE
  8
CSLAYER1
  6
CONTINUOUS
 62
     6
 10
165.048607
 20
151.656719
 11
165.048607
 21
151.156719
  0
LINE
  8
CSLAYER1
  6
CONTINUOUS
 62
     6
 10
165.048607
 20
146.156719
 11
165.048607
 21
145.656719
  0
LINE
  8
CSLAYER1
  6
CONTINUOUS
 62
     6
 10
166.048607
 20
153.656719
 11
164.048607
 21
155.656719
  0
LINE
  8
CSLAYER1
  6
CONTINUOUS
 62
     6
 10
166.048607
 20
143.656719
 11
164.048607
 21
141.656719
  0
CIRCLE
  8
CSLAYER1
  6
CONTINUOUS
 62
     6
 10
161.048607
 20
148.656719
 40
1.000000
  0
LINE
  8
CSLAYER1
  6
CENTER
 62
     3
 10
161.048607
 20
150.656719
 11
161.048607
 21
146.656719
  0
LINE
  8
CSLAYER1
  6
CONTINUOUS
 62
     6
 10
176.048607
 20
145.656719
 11
176.048607
 21
151.656719
  0
LINE
  8
CSLAYER1
  6
CONTINUOUS
 62
     6
 10
162.048607
 20
158.156719
 11
161.048607
 21
158.156719
  0
LINE
  8
CSLAYER1
  6
CONTINUOUS
 62
     6
 10
162.048607
 20
139.156719
 11
161.048607
 21
139.156719
  0
ARC
  8
CSLAYER1
  6
CONTINUOUS
 62
     6
 10
161.048607
 20
141.156719
 40
2.000000
 50
180.000000
 51
270.000000
  0
ARC
  8
CSLAYER1
  6
CONTINUOUS
 62
     6
 10
161.048607
 20
156.156719
 40
2.000000
 50
90.000000
 51
180.000000
  0
ARC
  8
CSLAYER1
  6
CONTINUOUS
 62
     6
 10
162.048607
 20
137.156719
 40
2.000000
 50
0.000000
 51
90.000000
  0
ARC
  8
CSLAYER1
  6
CONTINUOUS
 62
     6
 10
162.048607
 20
160.156719
 40
2.000000
 50
270.000000
 51
360.000000
  0
LINE
  8
CSLAYER1
  6
CONTINUOUS
 62
     6
 10
159.048607
 20
77.199919
 11
159.048607
 21
62.199919
  0
LINE
  8
CSLAYER1
  6
CONTINUOUS
 62
     6
 10
164.048607
 20
87.699919
 11
164.048607
 21
51.699919
  0
LINE
  8
CSLAYER1
  6
CONTINUOUS
 62
     6
 10
215.020764
 20
49.699919
 11
179.048607
 21
49.699919
  0
LINE
  8
CSLAYER1
  6
CONTINUOUS
 62
     6
 10
215.020764
 20
89.699919
 11
179.048607
 21
89.699919
  0
LINE
  8
CSLAYER1
  6
CONTINUOUS
 62
     6
 10
178.048607
 20
92.199919
 11
178.048607
 21
47.199919
  0
LINE
  8
CSLAYER1
  6
CONTINUOUS
 62
     6
 10
179.048607
 20
89.699919
 11
178.048607
 21
88.699919
  0
LINE
  8
CSLAYER1
  6
CONTINUOUS
 62
     6
 10
179.048607
 20
49.699919
 11
178.048607
 21
50.699919
  0
LINE
  8
CSLAYER1
  6
CONTINUOUS
 62
     6
 10
179.048607
 20
89.699919
 11
179.048607
 21
49.699919
  0
LINE
  8
CSLAYER1
  6
CONTINUOUS
 62
     6
 10
162.048607
 20
60.199919
 11
161.048607
 21
60.199919
  0
LINE
  8
CSLAYER1
  6
CONTINUOUS
 62
     6
 10
162.048607
 20
79.199919
 11
161.048607
 21
79.199919
  0
ARC
  8
CSLAYER1
  6
CONTINUOUS
 62
     6
 10
161.048607
 20
77.199919
 40
2.000000
 50
90.000000
 51
180.000000
  0
ARC
  8
CSLAYER1
  6
CONTINUOUS
 62
     6
 10
161.048607
 20
62.199919
 40
2.000000
 50
180.000000
 51
270.000000
  0
ARC
  8
CSLAYER1
  6
CONTINUOUS
 62
     6
 10
162.048607
 20
81.199919
 40
2.000000
 50
270.000000
 51
360.000000
  0
ARC
  8
CSLAYER1
  6
CONTINUOUS
 62
     6
 10
162.048607
 20
58.199919
 40
2.000000
 50
0.000000
 51
90.000000
  0
ARC
  8
CSLAYER1
  6
CONTINUOUS
 62
     6
 10
165.048607
 20
87.699919
 40
1.000000
 50
90.000000
 51
180.000000
  0
ARC
  8
CSLAYER1
  6
CONTINUOUS
 62
     6
 10
165.048607
 20
51.699919
 40
1.000000
 50
180.000000
 51
270.000000
  0
LINE
  8
CSLAYER1
  6
CONTINUOUS
 62
     6
 10
166.048607
 20
50.699919
 11
165.048607
 21
50.699919
  0
LINE
  8
CSLAYER1
  6
CONTINUOUS
 62
     6
 10
166.048607
 20
88.699919
 11
165.048607
 21
88.699919
  0
LINE
  8
CSLAYER1
  6
CONTINUOUS
 62
     6
 10
178.048607
 20
47.199919
 11
166.048607
 21
47.199919
  0
LINE
  8
CSLAYER1
  6
CONTINUOUS
 62
     6
 10
178.048607
 20
92.199919
 11
166.048607
 21
92.199919
  0
LINE
  8
CSLAYER1
  6
CONTINUOUS
 62
     6
 10
178.048607
 20
88.199919
 11
166.048607
 21
88.199919
  0
LINE
  8
CSLAYER1
  6
CONTINUOUS
 62
     6
 10
178.048607
 20
51.199919
 11
166.048607
 21
51.199919
  0
LINE
  8
CSLAYER1
  6
CONTINUOUS
 62
     6
 10
166.048607
 20
51.199919
 11
166.048607
 21
47.199919
  0
LINE
  8
CSLAYER1
  6
CONTINUOUS
 62
     6
 10
166.048607
 20
92.199919
 11
166.048607
 21
88.199919
  0
LINE
  8
CSLAYER1
  6
CONTINUOUS
 62
     6
 10
178.048607
 20
48.199919
 11
166.048607
 21
48.199919
  0
LINE
  8
CSLAYER1
  6
CONTINUOUS
 62
     6
 10
178.048607
 20
91.199919
 11
166.048607
 21
91.199919
  0
LINE
  8
CSLAYER1
  6
CONTINUOUS
 62
     6
 10
166.048607
 20
90.699919
 11
159.048607
 21
90.699919
  0
LINE
  8
CSLAYER1
  6
CONTINUOUS
 62
     6
 10
159.048607
 20
48.699919
 11
166.048607
 21
48.699919
  0
LINE
  8
CSLAYER1
  6
CONTINUOUS
 62
     6
 10
166.048607
 20
90.199919
 11
159.048607
 21
90.199919
  0
LINE
  8
CSLAYER1
  6
CONTINUOUS
 62
     6
 10
159.048607
 20
49.199919
 11
166.048607
 21
49.199919
  0
LINE
  8
CSLAYER1
  6
CONTINUOUS
 62
     6
 10
159.048607
 20
90.699919
 11
159.048607
 21
90.199919
  0
LINE
  8
CSLAYER1
  6
CONTINUOUS
 62
     6
 10
159.048607
 20
49.199919
 11
159.048607
 21
48.699919
  0
LINE
  8
CSLAYER1
  6
CENTER
 62
     3
 10
126.364875
 20
159.656710
 11
126.364875
 21
172.589968
  0
CIRCLE
  8
CSLAYER1
  6
CONTINUOUS
 62
     6
 10
126.364866
 20
166.156704
 40
3.500000
  0
ARC
  8
CSLAYER1
  6
CONTINUOUS
 62
     6
 10
126.364879
 20
166.156703
 40
1.944444
 50
-16.601584
 51
16.601577
  0
ARC
  8
CSLAYER1
  6
CONTINUOUS
 62
     6
 10
126.364879
 20
166.156703
 40
1.944444
 50
73.398422
 51
106.601583
  0
ARC
  8
CSLAYER1
  6
CONTINUOUS
 62
     6
 10
126.364879
 20
166.156703
 40
1.944444
 50
163.398438
 51
196.601572
  0
ARC
  8
CSLAYER1
  6
CONTINUOUS
 62
     6
 10
126.364879
 20
166.156703
 40
1.944444
 50
253.398406
 51
286.601595
  0
LINE
  8
CSLAYER1
  6
CONTINUOUS
 62
     6
 10
125.253754
 20
166.712265
 11
124.501498
 21
166.712265
  0
LINE
  8
CSLAYER1
  6
CONTINUOUS
 62
     6
 10
127.476004
 20
166.712265
 11
128.228260
 21
166.712265
  0
LINE
  8
CSLAYER1
  6
CONTINUOUS
 62
     6
 10
125.253754
 20
165.601140
 11
124.501498
 21
165.601140
  0
LINE
  8
CSLAYER1
  6
CONTINUOUS
 62
     6
 10
127.476004
 20
165.601140
 11
128.228260
 21
165.601140
  0
LINE
  8
CSLAYER1
  6
CONTINUOUS
 62
     6
 10
126.920441
 20
167.267799
 11
126.920441
 21
168.020113
  0
LINE
  8
CSLAYER1
  6
CONTINUOUS
 62
     6
 10
126.920441
 20
165.045607
 11
126.920441
 21
164.293293
  0
LINE
  8
CSLAYER1
  6
CONTINUOUS
 62
     6
 10
125.809317
 20
167.267799
 11
125.809317
 21
168.020113
  0
LINE
  8
CSLAYER1
  6
CONTINUOUS
 62
     6
 10
125.809317
 20
165.045607
 11
125.809317
 21
164.293293
  0
ARC
  8
CSLAYER1
  6
CONTINUOUS
 62
     6
 10
125.253754
 20
167.267799
 40
0.555556
 50
270.000001
 51
359.942691
  0
ARC
  8
CSLAYER1
  6
CONTINUOUS
 62
     6
 10
125.253754
 20
165.045607
 40
0.555556
 50
0.000010
 51
90.000016
  0
ARC
  8
CSLAYER1
  6
CONTINUOUS
 62
     6
 10
127.476004
 20
165.045607
 40
0.555556
 50
90.000016
 51
180.000005
  0
ARC
  8
CSLAYER1
  6
CONTINUOUS
 62
     6
 10
127.476004
 20
167.267799
 40
0.555556
 50
180.000005
 51
269.942654
  0
LINE
  8
CSLAYER1
  6
CENTER
 62
     3
 10
132.864883
 20
166.156719
 11
119.864866
 21
166.156719
  0
LINE
  8
CSLAYER1
  6
CENTER
 62
     3
 10
91.364886
 20
159.656721
 11
91.364886
 21
172.589979
  0
CIRCLE
  8
CSLAYER1
  6
CONTINUOUS
 62
     6
 10
91.364877
 20
166.156715
 40
3.500000
  0
ARC
  8
CSLAYER1
  6
CONTINUOUS
 62
     6
 10
91.364890
 20
166.156714
 40
1.944444
 50
-16.601584
 51
16.601577
  0
ARC
  8
CSLAYER1
  6
CONTINUOUS
 62
     6
 10
91.364890
 20
166.156714
 40
1.944444
 50
73.398422
 51
106.601583
  0
ARC
  8
CSLAYER1
  6
CONTINUOUS
 62
     6
 10
91.364890
 20
166.156714
 40
1.944444
 50
163.398438
 51
196.601572
  0
ARC
  8
CSLAYER1
  6
CONTINUOUS
 62
     6
 10
91.364890
 20
166.156714
 40
1.944444
 50
253.398406
 51
286.601595
  0
LINE
  8
CSLAYER1
  6
CONTINUOUS
 62
     6
 10
90.253765
 20
166.712276
 11
89.501509
 21
166.712276
  0
LINE
  8
CSLAYER1
  6
CONTINUOUS
 62
     6
 10
92.476015
 20
166.712276
 11
93.228272
 21
166.712276
  0
LINE
  8
CSLAYER1
  6
CONTINUOUS
 62
     6
 10
90.253765
 20
165.601152
 11
89.501509
 21
165.601152
  0
LINE
  8
CSLAYER1
  6
CONTINUOUS
 62
     6
 10
92.476015
 20
165.601152
 11
93.228272
 21
165.601152
  0
LINE
  8
CSLAYER1
  6
CONTINUOUS
 62
     6
 10
91.920453
 20
167.267810
 11
91.920453
 21
168.020124
  0
LINE
  8
CSLAYER1
  6
CONTINUOUS
 62
     6
 10
91.920453
 20
165.045618
 11
91.920453
 21
164.293304
  0
LINE
  8
CSLAYER1
  6
CONTINUOUS
 62
     6
 10
90.809328
 20
167.267810
 11
90.809328
 21
168.020124
  0
LINE
  8
CSLAYER1
  6
CONTINUOUS
 62
     6
 10
90.809328
 20
165.045618
 11
90.809328
 21
164.293304
  0
ARC
  8
CSLAYER1
  6
CONTINUOUS
 62
     6
 10
90.253765
 20
167.267810
 40
0.555556
 50
270.000001
 51
359.942691
  0
ARC
  8
CSLAYER1
  6
CONTINUOUS
 62
     6
 10
90.253765
 20
165.045618
 40
0.555556
 50
0.000010
 51
90.000016
  0
ARC
  8
CSLAYER1
  6
CONTINUOUS
 62
     6
 10
92.476015
 20
165.045618
 40
0.555556
 50
90.000016
 51
180.000005
  0
ARC
  8
CSLAYER1
  6
CONTINUOUS
 62
     6
 10
92.476015
 20
167.267810
 40
0.555556
 50
180.000005
 51
269.942654
  0
LINE
  8
CSLAYER1
  6
CENTER
 62
     3
 10
97.864894
 20
166.156730
 11
84.864877
 21
166.156730
  0
LINE
  8
CSLAYER1
  6
CENTER
 62
     3
 10
91.364886
 20
124.656699
 11
91.364886
 21
137.589956
  0
CIRCLE
  8
CSLAYER1
  6
CONTINUOUS
 62
     6
 10
91.364877
 20
131.156692
 40
3.500000
  0
ARC
  8
CSLAYER1
  6
CONTINUOUS
 62
     6
 10
91.364890
 20
131.156692
 40
1.944444
 50
-16.601584
 51
16.601577
  0
ARC
  8
CSLAYER1
  6
CONTINUOUS
 62
     6
 10
91.364890
 20
131.156692
 40
1.944444
 50
73.398422
 51
106.601583
  0
ARC
  8
CSLAYER1
  6
CONTINUOUS
 62
     6
 10
91.364890
 20
131.156692
 40
1.944444
 50
163.398438
 51
196.601572
  0
ARC
  8
CSLAYER1
  6
CONTINUOUS
 62
     6
 10
91.364890
 20
131.156692
 40
1.944444
 50
253.398406
 51
286.601595
  0
LINE
  8
CSLAYER1
  6
CONTINUOUS
 62
     6
 10
90.253765
 20
131.712254
 11
89.501509
 21
131.712254
  0
LINE
  8
CSLAYER1
  6
CONTINUOUS
 62
     6
 10
92.476015
 20
131.712254
 11
93.228272
 21
131.712254
  0
LINE
  8
CSLAYER1
  6
CONTINUOUS
 62
     6
 10
90.253765
 20
130.601129
 11
89.501509
 21
130.601129
  0
LINE
  8
CSLAYER1
  6
CONTINUOUS
 62
     6
 10
92.476015
 20
130.601129
 11
93.228272
 21
130.601129
  0
LINE
  8
CSLAYER1
  6
CONTINUOUS
 62
     6
 10
91.920453
 20
132.267788
 11
91.920453
 21
133.020102
  0
LINE
  8
CSLAYER1
  6
CONTINUOUS
 62
     6
 10
91.920453
 20
130.045596
 11
91.920453
 21
129.293281
  0
LINE
  8
CSLAYER1
  6
CONTINUOUS
 62
     6
 10
90.809328
 20
132.267788
 11
90.809328
 21
133.020102
  0
LINE
  8
CSLAYER1
  6
CONTINUOUS
 62
     6
 10
90.809328
 20
130.045596
 11
90.809328
 21
129.293281
  0
ARC
  8
CSLAYER1
  6
CONTINUOUS
 62
     6
 10
90.253765
 20
132.267788
 40
0.555556
 50
270.000001
 51
359.942691
  0
ARC
  8
CSLAYER1
  6
CONTINUOUS
 62
     6
 10
90.253765
 20
130.045596
 40
0.555556
 50
0.000010
 51
90.000016
  0
ARC
  8
CSLAYER1
  6
CONTINUOUS
 62
     6
 10
92.476015
 20
130.045596
 40
0.555556
 50
90.000016
 51
180.000005
  0
ARC
  8
CSLAYER1
  6
CONTINUOUS
 62
     6
 10
92.476015
 20
132.267788
 40
0.555556
 50
180.000005
 51
269.942654
  0
LINE
  8
CSLAYER1
  6
CENTER
 62
     3
 10
97.864894
 20
131.156707
 11
84.864877
 21
131.156707
  0
LINE
  8
CSLAYER1
  6
CENTER
 62
     3
 10
126.364875
 20
124.656710
 11
126.364875
 21
137.589968
  0
CIRCLE
  8
CSLAYER1
  6
CONTINUOUS
 62
     6
 10
126.364866
 20
131.156704
 40
3.500000
  0
ARC
  8
CSLAYER1
  6
CONTINUOUS
 62
     6
 10
126.364879
 20
131.156703
 40
1.944444
 50
-16.601584
 51
16.601577
  0
ARC
  8
CSLAYER1
  6
CONTINUOUS
 62
     6
 10
126.364879
 20
131.156703
 40
1.944444
 50
73.398422
 51
106.601583
  0
ARC
  8
CSLAYER1
  6
CONTINUOUS
 62
     6
 10
126.364879
 20
131.156703
 40
1.944444
 50
163.398438
 51
196.601572
  0
ARC
  8
CSLAYER1
  6
CONTINUOUS
 62
     6
 10
126.364879
 20
131.156703
 40
1.944444
 50
253.398406
 51
286.601595
  0
LINE
  8
CSLAYER1
  6
CONTINUOUS
 62
     6
 10
125.253754
 20
131.712265
 11
124.501498
 21
131.712265
  0
LINE
  8
CSLAYER1
  6
CONTINUOUS
 62
     6
 10
127.476004
 20
131.712265
 11
128.228260
 21
131.712265
  0
LINE
  8
CSLAYER1
  6
CONTINUOUS
 62
     6
 10
125.253754
 20
130.601140
 11
124.501498
 21
130.601140
  0
LINE
  8
CSLAYER1
  6
CONTINUOUS
 62
     6
 10
127.476004
 20
130.601140
 11
128.228260
 21
130.601140
  0
LINE
  8
CSLAYER1
  6
CONTINUOUS
 62
     6
 10
126.920441
 20
132.267799
 11
126.920441
 21
133.020113
  0
LINE
  8
CSLAYER1
  6
CONTINUOUS
 62
     6
 10
126.920441
 20
130.045607
 11
126.920441
 21
129.293293
  0
LINE
  8
CSLAYER1
  6
CONTINUOUS
 62
     6
 10
125.809317
 20
132.267799
 11
125.809317
 21
133.020113
  0
LINE
  8
CSLAYER1
  6
CONTINUOUS
 62
     6
 10
125.809317
 20
130.045607
 11
125.809317
 21
129.293293
  0
ARC
  8
CSLAYER1
  6
CONTINUOUS
 62
     6
 10
125.253754
 20
132.267799
 40
0.555556
 50
270.000001
 51
359.942691
  0
ARC
  8
CSLAYER1
  6
CONTINUOUS
 62
     6
 10
125.253754
 20
130.045607
 40
0.555556
 50
0.000010
 51
90.000016
  0
ARC
  8
CSLAYER1
  6
CONTINUOUS
 62
     6
 10
127.476004
 20
130.045607
 40
0.555556
 50
90.000016
 51
180.000005
  0
ARC
  8
CSLAYER1
  6
CONTINUOUS
 62
     6
 10
127.476004
 20
132.267799
 40
0.555556
 50
180.000005
 51
269.942654
  0
LINE
  8
CSLAYER1
  6
CENTER
 62
     3
 10
132.864883
 20
131.156719
 11
119.864866
 21
131.156719
  0
LINE
  8
CSLAYER1
  6
CONTINUOUS
 62
     6
 10
126.364875
 20
126.656719
 11
91.364874
 21
126.656719
  0
LINE
  8
CSLAYER1
  6
CONTINUOUS
 62
     6
 10
130.864875
 20
166.156719
 11
130.864875
 21
154.156713
  0
LINE
  8
CSLAYER1
  6
CONTINUOUS
 62
     6
 10
91.364874
 20
170.656719
 11
126.364875
 21
170.656719
  0
LINE
  8
CSLAYER1
  6
CONTINUOUS
 62
     6
 10
86.864874
 20
131.156719
 11
86.864874
 21
143.156734
  0
ARC
  8
CSLAYER1
  6
CONTINUOUS
 62
     6
 10
91.364874
 20
131.156719
 40
4.500000
 50
180.000000
 51
270.000000
  0
ARC
  8
CSLAYER1
  6
CONTINUOUS
 62
     6
 10
126.364875
 20
131.156719
 40
4.500000
 50
270.000000
 51
360.000000
  0
ARC
  8
CSLAYER1
  6
CONTINUOUS
 62
     6
 10
126.364875
 20
166.156719
 40
4.500000
 50
0.000000
 51
90.000000
  0
ARC
  8
CSLAYER1
  6
CONTINUOUS
 62
     6
 10
91.364874
 20
166.156719
 40
4.500000
 50
90.000000
 51
180.000000
  0
LINE
  8
CSLAYER1
  6
CONTINUOUS
 62
     6
 10
86.864874
 20
154.156724
 11
86.864874
 21
166.156719
  0
LINE
  8
CSLAYER1
  6
CONTINUOUS
 62
     6
 10
130.864875
 20
143.156724
 11
130.864875
 21
131.156719
  0
LINE
  8
CSLAYER1
  6
CENTER
 62
     3
 10
108.864882
 20
173.202180
 11
108.864867
 21
124.111257
  0
LINE
  8
CSLAYER1
  6
CENTER
 62
     3
 10
83.910323
 20
148.656719
 11
133.819416
 21
148.656719
  0
TEXT
  8
CSLAYER1
 62
     3
 10
101.316811
 20
145.712158
 40
1.472728
 41
1.260000
  1
S
 50
290.000000
 51
0.000000
  7
JX_FONT
 72
     5
 11
101.739921
 21
144.549673
  0
TEXT
  8
CSLAYER1
 62
     3
 10
101.883675
 20
144.411865
 40
1.472728
 41
1.260000
  1
A
 50
300.000000
 51
0.000000
  7
JX_FONT
 72
     5
 11
102.502220
 21
143.340513
  0
TEXT
  8
CSLAYER1
 62
     3
 10
102.779182
 20
143.308487
 40
1.472728
 41
1.675800
  1
W
 50
310.000000
 51
0.000000
  7
JX_FONT
 72
     5
 11
103.836781
 21
142.048090
  0
TEXT
  8
CSLAYER1
 62
     3
 10
103.800423
 20
142.332855
 40
1.472728
 41
1.260000
  1
A
 50
320.000000
 51
0.000000
  7
JX_FONT
 72
     5
 11
104.748089
 21
141.537668
  0
TEXT
  8
CSLAYER1
 62
     3
 10
104.973610
 20
141.546005
 40
1.472728
 41
1.260000
  1
M
 50
330.000000
 51
0.000000
  7
JX_FONT
 72
     5
 11
106.044962
 21
140.927460
  0
TEXT
  8
CSLAYER1
 62
     3
 10
106.268867
 20
140.982224
 40
1.472728
 41
1.260000
  1
U
 50
340.000000
 51
0.000000
  7
JX_FONT
 72
     5
 11
107.431353
 21
140.559113
  0
TEXT
  8
CSLAYER1
 62
     3
 10
107.624321
 20
140.552979
 40
1.472728
 41
1.260000
  1
R
 50
350.000000
 51
0.000000
  7
JX_FONT
 72
     5
 11
108.842618
 21
140.338160
  0
TEXT
  8
CSLAYER1
 62
     3
 10
109.050339
 20
140.557373
 40
1.472728
 41
1.260000
  1
A
 50
360.000000
 51
0.000000
  7
JX_FONT
 72
     5
 11
110.287430
 21
140.557373
  0
TEXT
  8
CSLAYER1
 62
     3
 10
111.809601
 20
141.109146
 40
1.472728
 41
1.260000
  1
D
 50
20.000000
 51
0.000000
  7
JX_FONT
 72
     5
 11
112.972086
 21
141.532256
  0
TEXT
  8
CSLAYER1
 62
     3
 10
113.075592
 20
141.734909
 40
1.472728
 41
1.260000
  1
E
 50
30.000000
 51
0.000000
  7
JX_FONT
 72
     5
 11
114.146944
 21
142.353455
  0
TEXT
  8
CSLAYER1
 62
     3
 10
114.213638
 20
142.571411
 40
1.472728
 41
1.260000
  1
N
 50
40.000000
 51
0.000000
  7
JX_FONT
 72
     5
 11
115.161305
 21
143.366598
  0
TEXT
  8
CSLAYER1
 62
     3
 10
115.189133
 20
143.592804
 40
1.472728
 41
1.260000
  1
K
 50
50.000000
 51
0.000000
  7
JX_FONT
 72
     5
 11
115.984320
 21
144.540471
  0
TEXT
  8
CSLAYER1
 62
     3
 10
115.972488
 20
144.767426
 40
1.472728
 41
0.831600
  1
I
 50
60.000000
 51
0.000000
  7
JX_FONT
 72
     5
 11
116.380729
 21
145.474518
  0
CIRCLE
  8
CSLAYER1
  6
CONTINUOUS
 62
     6
 10
108.864875
 20
148.656719
 40
9.500000
  0
LINE
  8
CSLAYER1
  6
CONTINUOUS
 62
     6
 10
110.452593
 20
167.361268
 11
107.277166
 21
167.361268
  0
LINE
  8
CSLAYER1
  6
CONTINUOUS
 62
     6
 10
107.277166
 20
167.361268
 11
105.689453
 21
164.611268
  0
LINE
  8
CSLAYER1
  6
CONTINUOUS
 62
     6
 10
105.689453
 20
164.611268
 11
107.277166
 21
161.861268
  0
LINE
  8
CSLAYER1
  6
CONTINUOUS
 62
     6
 10
107.277166
 20
161.861268
 11
110.452593
 21
161.861268
  0
LINE
  8
CSLAYER1
  6
CONTINUOUS
 62
     6
 10
110.452593
 20
161.861268
 11
112.040306
 21
164.611268
  0
LINE
  8
CSLAYER1
  6
CONTINUOUS
 62
     6
 10
112.040306
 20
164.611268
 11
110.452593
 21
167.361268
  0
CIRCLE
  8
CSLAYER1
  6
CONTINUOUS
 62
     6
 10
108.864880
 20
164.611268
 40
2.667500
  0
CIRCLE
  8
CSLAYER1
  6
CONTINUOUS
 62
     3
 10
108.864880
 20
164.611268
 40
1.500000
  0
CIRCLE
  8
CSLAYER1
  6
CONTINUOUS
 62
     6
 10
108.864880
 20
164.611268
 40
1.245000
  0
LINE
  8
CSLAYER1
  6
CENTER
 62
     3
 10
113.773956
 20
164.611268
 11
103.955771
 21
164.611268
  0
LINE
  8
CSLAYER1
  6
CONTINUOUS
 62
     6
 10
110.452593
 20
129.952169
 11
107.277166
 21
129.952169
  0
LINE
  8
CSLAYER1
  6
CONTINUOUS
 62
     6
 10
107.277166
 20
129.952169
 11
105.689453
 21
132.702169
  0
LINE
  8
CSLAYER1
  6
CONTINUOUS
 62
     6
 10
105.689453
 20
132.702169
 11
107.277166
 21
135.452169
  0
LINE
  8
CSLAYER1
  6
CONTINUOUS
 62
     6
 10
107.277166
 20
135.452169
 11
110.452593
 21
135.452169
  0
LINE
  8
CSLAYER1
  6
CONTINUOUS
 62
     6
 10
110.452593
 20
135.452169
 11
112.040306
 21
132.702169
  0
LINE
  8
CSLAYER1
  6
CONTINUOUS
 62
     6
 10
112.040306
 20
132.702169
 11
110.452593
 21
129.952169
  0
CIRCLE
  8
CSLAYER1
  6
CONTINUOUS
 62
     6
 10
108.864880
 20
132.702169
 40
2.667500
  0
CIRCLE
  8
CSLAYER1
  6
CONTINUOUS
 62
     3
 10
108.864880
 20
132.702169
 40
1.500000
  0
CIRCLE
  8
CSLAYER1
  6
CONTINUOUS
 62
     6
 10
108.864880
 20
132.702169
 40
1.245000
  0
LINE
  8
CSLAYER1
  6
CENTER
 62
     3
 10
113.773956
 20
132.702169
 11
103.955771
 21
132.702169
  0
LINE
  8
CSLAYER1
  6
CONTINUOUS
 62
     6
 10
121.614875
 20
148.906719
 11
122.614875
 21
148.906719
  0
LINE
  8
CSLAYER1
  6
CONTINUOUS
 62
     6
 10
121.614875
 20
148.406719
 11
122.614875
 21
148.406719
  0
ARC
  8
CSLAYER1
  6
CONTINUOUS
 62
     6
 10
124.114875
 20
148.656719
 40
0.250000
 50
-90.000000
 51
90.000000
  0
ARC
  8
CSLAYER1
  6
CONTINUOUS
 62
     6
 10
121.614875
 20
148.656719
 40
0.250000
 50
90.000000
 51
270.000000
  0
LINE
  8
CSLAYER1
  6
CONTINUOUS
 62
     6
 10
122.614875
 20
147.406719
 11
122.614875
 21
148.406719
  0
LINE
  8
CSLAYER1
  6
CONTINUOUS
 62
     6
 10
123.114875
 20
147.406719
 11
123.114875
 21
148.406719
  0
ARC
  8
CSLAYER1
  6
CONTINUOUS
 62
     6
 10
122.864875
 20
149.906719
 40
0.250000
 50
0.000000
 51
180.000000
  0
ARC
  8
CSLAYER1
  6
CONTINUOUS
 62
     6
 10
122.864875
 20
147.406719
 40
0.250000
 50
180.000000
 51
360.000000
  0
LINE
  8
CSLAYER1
  6
CONTINUOUS
 62
     6
 10
123.114875
 20
148.906719
 11
124.114875
 21
148.906719
  0
LINE
  8
CSLAYER1
  6
CONTINUOUS
 62
     6
 10
123.114875
 20
148.406719
 11
124.114875
 21
148.406719
  0
LINE
  8
CSLAYER1
  6
CONTINUOUS
 62
     6
 10
123.114875
 20
148.906719
 11
123.114875
 21
149.906719
  0
LINE
  8
CSLAYER1
  6
CONTINUOUS
 62
     6
 10
122.614875
 20
148.906719
 11
122.614875
 21
149.906719
  0
ARC
  8
CSLAYER1
  6
CONTINUOUS
 62
     6
 10
94.864875
 20
149.906719
 40
0.250000
 50
0.000000
 51
180.000000
  0
ARC
  8
CSLAYER1
  6
CONTINUOUS
 62
     6
 10
94.864875
 20
147.406719
 40
0.250000
 50
180.000000
 51
360.000000
  0
LINE
  8
CSLAYER1
  6
CONTINUOUS
 62
     6
 10
94.614875
 20
147.406719
 11
94.614875
 21
149.906719
  0
LINE
  8
CSLAYER1
  6
CONTINUOUS
 62
     6
 10
95.114875
 20
147.406719
 11
95.114875
 21
149.906719
  0
ARC
  8
CSLAYER1
  6
CONTINUOUS
 62
     6
 10
108.864875
 20
148.656719
 40
19.000000
 50
20.487315
 51
159.512649
  0
ARC
  8
CSLAYER1
  6
CONTINUOUS
 62
     6
 10
108.864875
 20
148.656719
 40
20.000000
 50
17.457603
 51
162.542361
  0
LINE
  8
CSLAYER1
  6
CONTINUOUS
 62
     6
 10
119.864870
 20
151.656719
 11
125.364870
 21
151.656719
  0
LINE
  8
CSLAYER1
  6
CONTINUOUS
 62
     6
 10
119.864870
 20
145.656719
 11
125.364870
 21
145.656719
  0
LINE
  8
CSLAYER1
  6
CONTINUOUS
 62
     6
 10
130.364870
 20
154.656719
 11
127.599869
 21
154.656719
  0
LINE
  8
CSLAYER1
  6
CONTINUOUS
 62
     6
 10
130.364870
 20
142.656719
 11
127.599869
 21
142.656719
  0
LINE
  8
CSLAYER1
  6
CONTINUOUS
 62
     6
 10
118.864870
 20
153.656719
 11
118.864870
 21
143.656719
  0
ARC
  8
CSLAYER1
  6
CONTINUOUS
 62
     6
 10
119.864870
 20
153.656719
 40
1.000000
 50
90.000000
 51
180.000000
  0
ARC
  8
CSLAYER1
  6
CONTINUOUS
 62
     6
 10
119.864870
 20
143.656719
 40
1.000000
 50
180.000000
 51
270.000000
  0
ARC
  8
CSLAYER1
  6
CONTINUOUS
 62
     6
 10
119.864870
 20
150.656719
 40
1.000000
 50
90.000000
 51
180.000000
  0
ARC
  8
CSLAYER1
  6
CONTINUOUS
 62
     6
 10
119.864870
 20
146.656719
 40
1.000000
 50
180.000000
 51
270.000000
  0
LINE
  8
CSLAYER1
  6
CONTINUOUS
 62
     6
 10
91.364876
 20
143.656719
 11
91.364883
 21
153.656719
  0
LINE
  8
CSLAYER1
  6
CONTINUOUS
 62
     6
 10
97.864881
 20
151.656726
 11
92.364881
 21
151.656729
  0
LINE
  8
CSLAYER1
  6
CONTINUOUS
 62
     6
 10
97.864878
 20
145.656726
 11
92.364878
 21
145.656729
  0
LINE
  8
CSLAYER1
  6
CONTINUOUS
 62
     6
 10
98.864883
 20
153.656725
 11
98.864876
 21
143.656725
  0
ARC
  8
CSLAYER1
  6
CONTINUOUS
 62
     6
 10
97.864883
 20
153.656726
 40
1.000000
 50
-0.000037
 51
89.999963
  0
ARC
  8
CSLAYER1
  6
CONTINUOUS
 62
     6
 10
97.864876
 20
143.656726
 40
1.000000
 50
269.999963
 51
359.999963
  0
ARC
  8
CSLAYER1
  6
CONTINUOUS
 62
     6
 10
97.864881
 20
150.656726
 40
1.000000
 50
-0.000037
 51
89.999963
  0
ARC
  8
CSLAYER1
  6
CONTINUOUS
 62
     6
 10
97.864878
 20
146.656726
 40
1.000000
 50
269.999963
 51
359.999963
  0
ARC
  8
CSLAYER1
  6
CONTINUOUS
 62
     6
 10
92.364878
 20
146.656729
 40
1.000000
 50
179.999963
 51
269.999963
  0
ARC
  8
CSLAYER1
  6
CONTINUOUS
 62
     6
 10
92.364881
 20
150.656729
 40
1.000000
 50
89.999963
 51
179.999963
  0
ARC
  8
CSLAYER1
  6
CONTINUOUS
 62
     6
 10
108.864875
 20
148.656719
 40
19.000000
 50
200.487279
 51
339.512685
  0
ARC
  8
CSLAYER1
  6
CONTINUOUS
 62
     6
 10
108.864875
 20
148.656719
 40
20.000000
 50
197.457567
 51
342.542397
  0
LINE
  8
CSLAYER1
  6
CONTINUOUS
 62
     6
 10
97.864883
 20
154.656726
 11
91.629877
 21
154.656730
  0
LINE
  8
CSLAYER1
  6
CONTINUOUS
 62
     6
 10
97.864876
 20
142.656726
 11
91.629877
 21
142.656730
  0
LINE
  8
CSLAYER1
  6
CONTINUOUS
 62
     6
 10
126.364870
 20
143.656719
 11
126.364870
 21
153.656719
  0
ARC
  8
CSLAYER1
  6
CONTINUOUS
 62
     6
 10
125.364870
 20
146.656719
 40
1.000000
 50
-90.000000
 51
0.000000
  0
ARC
  8
CSLAYER1
  6
CONTINUOUS
 62
     6
 10
125.364870
 20
150.656719
 40
1.000000
 50
-0.000000
 51
90.000000
  0
LINE
  8
CSLAYER1
  6
CONTINUOUS
 62
     6
 10
128.364870
 20
144.383990
 11
129.964870
 21
144.383990
  0
LINE
  8
CSLAYER1
  6
CONTINUOUS
 62
     6
 10
129.964870
 20
144.383990
 11
129.964870
 21
145.202172
  0
LINE
  8
CSLAYER1
  6
CONTINUOUS
 62
     6
 10
128.364870
 20
145.202172
 11
129.164870
 21
145.202172
  0
LINE
  8
CSLAYER1
  6
CONTINUOUS
 62
     6
 10
128.364870
 20
144.383990
 11
128.364870
 21
152.929447
  0
LINE
  8
CSLAYER1
  6
CONTINUOUS
 62
     6
 10
131.364870
 20
143.656719
 11
131.364870
 21
153.656719
  0
LINE
  8
CSLAYER1
  6
CONTINUOUS
 62
     6
 10
128.364870
 20
152.929447
 11
129.964870
 21
152.929447
  0
LINE
  8
CSLAYER1
  6
CONTINUOUS
 62
     6
 10
129.964870
 20
152.929447
 11
129.964870
 21
152.111265
  0
LINE
  8
CSLAYER1
  6
CONTINUOUS
 62
     6
 10
128.364870
 20
152.111265
 11
129.164870
 21
152.111265
  0
LINE
  8
CSLAYER1
  6
CONTINUOUS
 62
     6
 10
130.364870
 20
154.656719
 11
131.364870
 21
153.656719
  0
LINE
  8
CSLAYER1
  6
CONTINUOUS
 62
     6
 10
131.364870
 20
143.656719
 11
130.364870
 21
142.656719
  0
LINE
  8
CSLAYER1
  6
CONTINUOUS
 62
     6
 10
129.964870
 20
152.111265
 11
131.364870
 21
152.111265
  0
LINE
  8
CSLAYER1
  6
CONTINUOUS
 62
     6
 10
129.964870
 20
145.202172
 11
131.364870
 21
145.202172
  0
LINE
  8
CSLAYER1
  6
CONTINUOUS
 62
     6
 10
129.164870
 20
144.383990
 11
129.164870
 21
152.929447
  0
ARC
  8
CSLAYER1
  6
CONTINUOUS
 62
     6
 10
90.129885
 20
155.656731
 40
1.000000
 50
269.999963
 51
339.512649
  0
ARC
  8
CSLAYER1
  6
CONTINUOUS
 62
     6
 10
90.129876
 20
141.656731
 40
1.000000
 50
20.487279
 51
89.999963
  0
ARC
  8
CSLAYER1
  6
CONTINUOUS
 62
     6
 10
127.599869
 20
141.656719
 40
1.000000
 50
90.000000
 51
159.512685
  0
ARC
  8
CSLAYER1
  6
CONTINUOUS
 62
     6
 10
127.599869
 20
155.656719
 40
1.000000
 50
200.487315
 51
270.000000
  0
LINE
  8
CSLAYER1
  6
CONTINUOUS
 62
     6
 10
89.364877
 20
144.384003
 11
87.764877
 21
144.384004
  0
LINE
  8
CSLAYER1
  6
CONTINUOUS
 62
     6
 10
87.764877
 20
144.384004
 11
87.764877
 21
145.202186
  0
LINE
  8
CSLAYER1
  6
CONTINUOUS
 62
     6
 10
89.364877
 20
145.202185
 11
88.564877
 21
145.202185
  0
LINE
  8
CSLAYER1
  6
CONTINUOUS
 62
     6
 10
89.364877
 20
144.384003
 11
89.364882
 21
152.929459
  0
LINE
  8
CSLAYER1
  6
CONTINUOUS
 62
     6
 10
86.364876
 20
143.656733
 11
86.364883
 21
153.656733
  0
LINE
  8
CSLAYER1
  6
CONTINUOUS
 62
     6
 10
89.364882
 20
152.929459
 11
87.764882
 21
152.929460
  0
LINE
  8
CSLAYER1
  6
CONTINUOUS
 62
     6
 10
87.764882
 20
152.929460
 11
87.764882
 21
152.111278
  0
LINE
  8
CSLAYER1
  6
CONTINUOUS
 62
     6
 10
89.364882
 20
152.111277
 11
88.564882
 21
152.111278
  0
LINE
  8
CSLAYER1
  6
CONTINUOUS
 62
     6
 10
87.364883
 20
154.656732
 11
86.364883
 21
153.656733
  0
LINE
  8
CSLAYER1
  6
CONTINUOUS
 62
     6
 10
86.364876
 20
143.656733
 11
87.364876
 21
142.656732
  0
LINE
  8
CSLAYER1
  6
CONTINUOUS
 62
     6
 10
87.764882
 20
152.111278
 11
86.364882
 21
152.111279
  0
LINE
  8
CSLAYER1
  6
CONTINUOUS
 62
     6
 10
87.764877
 20
145.202186
 11
86.364877
 21
145.202187
  0
LINE
  8
CSLAYER1
  6
CONTINUOUS
 62
     6
 10
88.564877
 20
144.384003
 11
88.564882
 21
152.929460
  0
LINE
  8
CSLAYER1
  6
CONTINUOUS
 62
     6
 10
126.099869
 20
154.656719
 11
119.864870
 21
154.656719
  0
LINE
  8
CSLAYER1
  6
CONTINUOUS
 62
     6
 10
126.099869
 20
142.656719
 11
119.864870
 21
142.656719
  0
LINE
  8
CSLAYER1
  6
CONTINUOUS
 62
     6
 10
90.129884
 20
154.656731
 11
87.364883
 21
154.656732
  0
LINE
  8
CSLAYER1
  6
CONTINUOUS
 62
     6
 10
90.129877
 20
142.656731
 11
87.364876
 21
142.656732
  0
ENDSEC
  0
EOF
