  0
SECTION
  2
HEADER
  9
$ACADVER
  1
AC1006
  9
$INSBASE
 10
0.000000
 20
0.000000
 30
0.0
  9
$EXTMIN
 10
0.000000
 20
0.000000
  9
$EXTMAX
 10
420.000000
 20
297.000000
  9
$LIMMIN
 10
0.000000
 20
0.000000
  9
$LIMMAX
 10
420.000000
 20
297.000000
  9
$VIEWCTR
 10
210.000000
 20
148.500000
  9
$VIEWSIZE
 40
297.000000
  9
$SNAPMODE
 70
     0
  9
$SNAPUNIT
 10
1.0
 20
1.0
  9
$SNAPBASE
 10
0.0
 20
0.0
  9
$SNAPANG
 50
0.0
  9
$SNAPSTYLE
 70
     0
  9
$SNAPISOPAIR
 70
     0
  9
$GRIDMODE
 70
     0
  9
$GRIDUNIT
 10
0.0
 20
0.0
  9
$ORTHOMODE
 70
     0
  9
$REGENMODE
 70
     1
  9
$FILLMODE
 70
     1
  9
$QTEXTMODE
 70
     0
  9
$DRAGMODE
 70
     2
  9
$LTSCALE
 40
15.000000
  9
$OSMODE
 70
     0
  9
$ATTMODE
 70
     1
  9
$TEXTSIZE
 40
0.2
  9
$TRACEWID
 40
0.05
  9
$TEXTSTYLE
  7
STANDARD
  9
$CLAYER
  8
CSLAYER1
  9
$CELTYPE
  6
BYLAYER
  9
$CECOLOR
 62
   256
  9
$DIMSCALE
 40
1.0
  9
$DIMASZ
 40
0.18
  9
$DIMEXO
 40
0.0625
  9
$DIMDLI
 40
0.38
  9
$DIMRND
 40
0.0
  9
$DIMDLE
 40
0.0
  9
$DIMEXE
 40
0.18
  9
$DIMTP
 40
0.0
  9
$DIMTM
 40
0.0
  9
$DIMTXT
 40
0.18
  9
$DIMCEN
 40
0.09
  9
$DIMTSZ
 40
0.0
  9
$DIMTOL
 70
     0
  9
$DIMLIM
 70
     0
  9
$DIMTIH
 70
     1
  9
$DIMTOH
 70
     1
  9
$DIMSE1
 70
     0
  9
$DIMSE2
 70
     0
  9
$DIMTAD
 70
     0
  9
$DIMZIN
 70
     0
  9
$DIMBLK
  1

  9
$LUNITS
 70
     2
  9
$LUPREC
 70
     4
  9
$AXISMODE
 70
     0
  9
$AXISUNIT
 10
0.0
 20
0.0
  9
$SKETCHINC
 40
0.1
  9
$FILLETRAD
 40
0.0
  9
$AUNITS
 70
     0
  9
$AUPREC
 70
     0
  9
$MENU
  1
ACAD
  9
$ELEVATION
 40
0.0
  9
$THICKNESS
 40
0.0
  9
$VIEWDIR
 10
0.0
 20
0.0
 30
1.0
  9
$LIMCHECK
 70
     0
  9
$BLIPMODE
 70
     1
  9
$CHAMFERA
 40
0.0
  9
$CHAMFERB
 40
0.0
  9
$FASTZOOM
 70
     1
  9
$SKPOLY
 70
     0
  9
$TDCREATE
 40
0.000000
  9
$TDUPDATE
 40
0.000000
  9
$TDINDWG
 40
0.0
  9
$TDUSRTIMER
 40
0.0
  9
$USRTIMER
 70
     1
  9
$ANGBASE
 50
0.0
  9
$ANGDIR
 70
     0
  9
$PDMODE
 70
     0
  9
$PDSIZE
 40
0.0
  9
$PLINEWID
 40
0.0
  9
$COORDS
 70
     0
  9
$USERI1
 70
     0
  9
$USERI2
 70
     0
  9
$USERI3
 70
     0
  9
$USERI4
 70
     0
  9
$USERI5
 70
     0
  9
$USERR1
 40
0.0
  9
$USERR2
 40
0.0
  9
$USERR3
 40
0.0
  9
$USERR4
 40
0.0
  9
$USERR5
 40
0.0
  0
ENDSEC
  0
SECTION
  2
TABLES
  0
TABLE
  2
LTYPE
 70
     9
  0
LTYPE
  2
CONTINUOUS
 70
    64
  3
Solid line
 72
    65
 73
     0
 40
0.0
  0
LTYPE
  2
DASHED
 70
    64
  3
__ __ __ __ __ __ __ __ __ __ __ __ __ __ __
 72
    65
 73
     2
 40
0.75
 49
0.5
 49
-0.25
  0
LTYPE
  2
HIDDEN
 70
    64
  3
_ _ _ _ _ _ _ _ _ _ _ _ _ _ _ _ _ _ _ _ _ _ _
 72
    65
 73
     2
 40
0.375
 49
0.25
 49
-0.125
  0
LTYPE
  2
DOT
 70
    64
  3
...............................................
 72
    65
 73
     2
 40
0.25
 49
0.0
 49
-0.25
  0
LTYPE
  2
DASHDOT
 70
    64
  3
__ . __ . __ . __ . __ . __ . __ . __ . __ . __
 72
    65
 73
     4
 40
1.0
 49
0.5
 49
-0.25
 49
0.0
 49
-0.25
  0
LTYPE
  2
DIVIDE
 70
    64
  3
__ . . __ . . __ . . __ . . __ . . __ . . __
 72
    65
 73
     6
 40
1.25
 49
0.5
 49
-0.25
 49
0.0
 49
-0.25
 49
0.0
 49
-0.25
  0
LTYPE
  2
CENTER
 70
    64
  3
____ _ ____ _ ____ _ ____ _ ____ _ ____ _ ____ 
 72
    65
 73
     4
 40
2.0
 49
1.25
 49
-0.25
 49
0.25
 49
-0.25
  0
LTYPE
  2
PHANTOM
 70
    64
  3
______  __  __  ______  __  __  ______  __  __ 
 72
    65
 73
     6
 40
2.5
 49
1.25
 49
-0.25
 49
0.25
 49
-0.25
 49
0.25
 49
-0.25
  0
LTYPE
  2
BORDER
 70
    64
  3
__ __ . __ __ . __ __ . __ __ . __ __ . __ __ .
 72
    65
 73
     6
 40
1.75
 49
0.5
 49
-0.25
 49
0.5
 49
-0.25
 49
0.0
 49
-0.25
  0
ENDTAB
  0
TABLE
  2
LAYER
 70
    16
  0
LAYER
  2
CSLAYER1
 70
    64
 62
     7
  6
CONTINUOUS
  0
LAYER
  2
CSLAYER2
 70
    64
 62
     7
  6
CONTINUOUS
  0
LAYER
  2
CSLAYER3
 70
    64
 62
     7
  6
CONTINUOUS
  0
LAYER
  2
CSLAYER4
 70
    64
 62
     7
  6
CONTINUOUS
  0
LAYER
  2
CSLAYER5
 70
    64
 62
     7
  6
CONTINUOUS
  0
LAYER
  2
CSLAYER6
 70
    64
 62
     7
  6
CONTINUOUS
  0
LAYER
  2
CSLAYER7
 70
    64
 62
     7
  6
CONTINUOUS
  0
LAYER
  2
CSLAYER8
 70
    64
 62
     7
  6
CONTINUOUS
  0
LAYER
  2
CSLAYER9
 70
    64
 62
     7
  6
CONTINUOUS
  0
LAYER
  2
CSLAYER10
 70
    64
 62
     7
  6
CONTINUOUS
  0
LAYER
  2
CSLAYER11
 70
    64
 62
     7
  6
CONTINUOUS
  0
LAYER
  2
CSLAYER12
 70
    64
 62
     7
  6
CONTINUOUS
  0
LAYER
  2
CSLAYER13
 70
    64
 62
     7
  6
CONTINUOUS
  0
LAYER
  2
CSLAYER14
 70
    64
 62
     7
  6
CONTINUOUS
  0
LAYER
  2
CSLAYER15
 70
    64
 62
     7
  6
CONTINUOUS
  0
LAYER
  2
CSLAYER16
 70
    64
 62
     7
  6
CONTINUOUS
  0
ENDTAB
  0
TABLE
  2
STYLE
 70
     1
  0
STYLE
  2
JX_FONT
 70
     0
 40
1.0
 41
1.0
 50
0.0
 71
     0
 42
1.0
  3
monotxt
  4
bigfont
  0
ENDTAB
  0
TABLE
  2
VIEW
 70
     0
  0
ENDTAB
  0
ENDSEC
  0
SECTION
  2
BLOCKS
  0
ENDSEC
  0
SECTION
  2
ENTITIES
  0
LINE
  8
CSLAYER1
  6
CENTER
 62
     3
 10
155.599849
 20
154.989037
 11
155.599849
 21
134.989037
  0
ARC
  8
CSLAYER1
  6
CONTINUOUS
 62
     6
 10
155.599849
 20
144.989034
 40
2.500000
 50
-90.000054
 51
89.942646
  0
LINE
  8
CSLAYER1
  6
CONTINUOUS
 62
     6
 10
155.599849
 20
142.489034
 11
143.827907
 21
142.489034
  0
LINE
  8
CSLAYER1
  6
CONTINUOUS
 62
     6
 10
155.599849
 20
147.489034
 11
143.827907
 21
147.489034
  0
ARC
  8
CSLAYER1
  6
CONTINUOUS
 62
     6
 10
140.064296
 20
131.220846
 40
11.353822
 50
82.958412
 51
124.633057
  0
ARC
  8
CSLAYER1
  6
CONTINUOUS
 62
     6
 10
140.064296
 20
131.220846
 40
16.327621
 50
85.109758
 51
124.633057
  0
LINE
  8
CSLAYER1
  6
CONTINUOUS
 62
     6
 10
133.611705
 20
140.562856
 11
130.785000
 21
144.655355
  0
ARC
  8
CSLAYER1
  6
CONTINUOUS
 62
     6
 10
145.992969
 20
146.239034
 40
2.500000
 50
149.999956
 51
209.999958
  0
ARC
  8
CSLAYER1
  6
CONTINUOUS
 62
     6
 10
145.992969
 20
143.739034
 40
2.500000
 50
149.999956
 51
209.999958
  0
ARC
  8
CSLAYER1
  6
CONTINUOUS
 62
     6
 10
141.662845
 20
143.739034
 40
2.500000
 50
-30.000039
 51
29.999950
  0
ARC
  8
CSLAYER1
  6
CONTINUOUS
 62
     6
 10
139.291095
 20
143.739034
 40
2.500000
 50
-30.000039
 51
29.999950
  0
ARC
  8
CSLAYER1
  6
CONTINUOUS
 62
     6
 10
139.291095
 20
146.239034
 40
2.500000
 50
-30.000039
 51
29.999950
  0
ARC
  8
CSLAYER1
  6
CONTINUOUS
 62
     6
 10
143.621219
 20
146.239034
 40
2.500000
 50
149.999970
 51
209.999972
  0
LINE
  8
CSLAYER1
  6
CONTINUOUS
 62
     6
 10
133.140575
 20
141.244924
 11
130.851665
 21
138.885396
  0
LINE
  8
CSLAYER1
  6
CONTINUOUS
 62
     6
 10
132.669460
 20
141.927022
 11
130.130321
 21
139.770681
  0
LINE
  8
CSLAYER1
  6
CONTINUOUS
 62
     6
 10
132.198345
 20
142.609090
 11
129.572902
 21
140.754354
  0
LINE
  8
CSLAYER1
  6
CONTINUOUS
 62
     6
 10
131.727230
 20
143.291189
 11
128.720394
 21
141.606862
  0
LINE
  8
CSLAYER1
  6
CONTINUOUS
 62
     6
 10
131.256115
 20
143.973256
 11
128.326931
 21
142.754476
  0
LINE
  8
CSLAYER1
  6
CONTINUOUS
 62
     6
 10
130.392620
 20
139.114919
 11
129.835216
 21
138.295186
  0
LINE
  8
CSLAYER1
  6
CONTINUOUS
 62
     6
 10
130.359844
 20
139.442800
 11
129.474544
 21
138.459127
  0
LINE
  8
CSLAYER1
  6
CONTINUOUS
 62
     6
 10
129.835216
 20
140.065786
 11
129.048290
 21
139.147695
  0
LINE
  8
CSLAYER1
  6
CONTINUOUS
 62
     6
 10
129.638485
 20
140.360891
 11
128.818767
 21
139.639516
  0
LINE
  8
CSLAYER1
  6
CONTINUOUS
 62
     6
 10
129.179439
 20
141.377340
 11
128.228557
 21
140.557607
  0
LINE
  8
CSLAYER1
  6
CONTINUOUS
 62
     6
 10
136.599895
 20
147.176686
 11
136.599895
 21
170.489034
  0
LINE
  8
CSLAYER1
  6
CONTINUOUS
 62
     6
 10
136.599895
 20
142.033194
 11
136.599895
 21
119.489034
  0
ARC
  8
CSLAYER1
  6
CONTINUOUS
 62
     6
 10
155.599849
 20
144.989037
 40
5.000000
 50
-150.000206
 51
150.343757
  0
LINE
  8
CSLAYER1
  6
CONTINUOUS
 62
     6
 10
386.599880
 20
176.989031
 11
334.599941
 21
176.989031
  0
LINE
  8
CSLAYER1
  6
CENTER
 62
     3
 10
360.599880
 20
109.989031
 11
360.599880
 21
179.989031
  0
LINE
  8
CSLAYER1
  6
CONTINUOUS
 62
     6
 10
392.599880
 20
118.989031
 11
392.599880
 21
170.989031
  0
ARC
  8
CSLAYER1
  6
CONTINUOUS
 62
     6
 10
386.599880
 20
170.989031
 40
6.000000
 50
0.000000
 51
90.000003
  0
LINE
  8
CSLAYER1
  6
CONTINUOUS
 62
     6
 10
386.599880
 20
112.989031
 11
334.599941
 21
112.989031
  0
CIRCLE
  8
CSLAYER1
  6
CONTINUOUS
 62
     6
 10
360.599880
 20
144.989047
 40
4.000000
  0
CIRCLE
  8
CSLAYER1
  6
CONTINUOUS
 62
     6
 10
360.599880
 20
144.989047
 40
15.000000
  0
CIRCLE
  8
CSLAYER1
  6
CONTINUOUS
 62
     6
 10
360.599880
 20
144.989047
 40
17.500000
  0
LINE
  8
CSLAYER1
  6
CONTINUOUS
 62
     6
 10
328.599941
 20
118.989031
 11
328.599941
 21
170.989031
  0
LINE
  8
CSLAYER1
  6
CENTER
 62
     3
 10
395.599849
 20
144.989031
 11
325.599971
 21
144.989031
  0
CIRCLE
  8
CSLAYER1
  6
CONTINUOUS
 62
     6
 10
360.599880
 20
144.989031
 40
11.000000
  0
ARC
  8
CSLAYER1
  6
CONTINUOUS
 62
     6
 10
334.599880
 20
170.989031
 40
6.000000
 50
90.000000
 51
180.000003
  0
ARC
  8
CSLAYER1
  6
CONTINUOUS
 62
     6
 10
334.599880
 20
118.989031
 40
6.000000
 50
180.000000
 51
270.000003
  0
ARC
  8
CSLAYER1
  6
CONTINUOUS
 62
     6
 10
386.599880
 20
118.989031
 40
6.000000
 50
269.999997
 51
360.000000
  0
LINE
  8
CSLAYER1
  6
CENTER
 62
     3
 10
391.539150
 20
118.989031
 11
381.599880
 21
118.989031
  0
LINE
  8
CSLAYER1
  6
CENTER
 62
     3
 10
386.599880
 20
123.989031
 11
386.599880
 21
113.989031
  0
CIRCLE
  8
CSLAYER1
  6
CONTINUOUS
 62
     6
 10
386.599880
 20
118.989031
 40
2.250000
  0
LINE
  8
CSLAYER1
  6
CENTER
 62
     3
 10
329.660610
 20
118.989031
 11
339.599880
 21
118.989031
  0
LINE
  8
CSLAYER1
  6
CENTER
 62
     3
 10
334.599880
 20
123.989031
 11
334.599880
 21
113.989031
  0
CIRCLE
  8
CSLAYER1
  6
CONTINUOUS
 62
     6
 10
334.599880
 20
118.989031
 40
2.250000
  0
LINE
  8
CSLAYER1
  6
CENTER
 62
     3
 10
334.599880
 20
175.928301
 11
334.599880
 21
165.989031
  0
LINE
  8
CSLAYER1
  6
CENTER
 62
     3
 10
339.599880
 20
170.989031
 11
329.599880
 21
170.989031
  0
CIRCLE
  8
CSLAYER1
  6
CONTINUOUS
 62
     6
 10
334.599880
 20
170.989031
 40
2.250000
  0
LINE
  8
CSLAYER1
  6
CENTER
 62
     3
 10
391.539150
 20
170.989031
 11
381.599880
 21
170.989031
  0
LINE
  8
CSLAYER1
  6
CENTER
 62
     3
 10
386.599880
 20
165.989031
 11
386.599880
 21
175.989031
  0
CIRCLE
  8
CSLAYER1
  6
CONTINUOUS
 62
     6
 10
386.599880
 20
170.989031
 40
2.250000
  0
ARC
  8
CSLAYER1
  6
CENTER
 62
     3
 10
360.599880
 20
144.989016
 40
24.000000
 50
24.927330
 51
65.072746
  0
CIRCLE
  8
CSLAYER1
  6
CONTINUOUS
 62
     6
 10
377.570400
 20
161.959582
 40
4.500000
  0
ARC
  8
CSLAYER1
  6
CONTINUOUS
 62
     6
 10
377.570400
 20
161.959582
 40
2.397500
 50
253.398405
 51
286.601566
  0
ARC
  8
CSLAYER1
  6
CONTINUOUS
 62
     6
 10
377.570400
 20
161.959582
 40
2.397500
 50
-16.601586
 51
16.601576
  0
ARC
  8
CSLAYER1
  6
CONTINUOUS
 62
     6
 10
377.570400
 20
161.959582
 40
2.397500
 50
73.398424
 51
106.601558
  0
ARC
  8
CSLAYER1
  6
CONTINUOUS
 62
     6
 10
377.570400
 20
161.959582
 40
2.397500
 50
163.398396
 51
196.601584
  0
LINE
  8
CSLAYER1
  6
CONTINUOUS
 62
     6
 10
378.255397
 20
163.329577
 11
378.255397
 21
164.257144
  0
LINE
  8
CSLAYER1
  6
CONTINUOUS
 62
     6
 10
378.255397
 20
160.589587
 11
378.255397
 21
159.662020
  0
LINE
  8
CSLAYER1
  6
CONTINUOUS
 62
     6
 10
376.885402
 20
163.329577
 11
376.885402
 21
164.257144
  0
LINE
  8
CSLAYER1
  6
CONTINUOUS
 62
     6
 10
376.885402
 20
160.589587
 11
376.885402
 21
159.662020
  0
LINE
  8
CSLAYER1
  6
CONTINUOUS
 62
     6
 10
378.940395
 20
161.274584
 11
379.867946
 21
161.274584
  0
LINE
  8
CSLAYER1
  6
CONTINUOUS
 62
     6
 10
376.200405
 20
161.274584
 11
375.272854
 21
161.274584
  0
LINE
  8
CSLAYER1
  6
CONTINUOUS
 62
     6
 10
378.940395
 20
162.644579
 11
379.867946
 21
162.644579
  0
LINE
  8
CSLAYER1
  6
CONTINUOUS
 62
     6
 10
376.200405
 20
162.644579
 11
375.272854
 21
162.644579
  0
ARC
  8
CSLAYER1
  6
CONTINUOUS
 62
     6
 10
378.940395
 20
163.329577
 40
0.685000
 50
180.057309
 51
269.999999
  0
ARC
  8
CSLAYER1
  6
CONTINUOUS
 62
     6
 10
376.200405
 20
163.329577
 40
0.685000
 50
269.999999
 51
359.999995
  0
ARC
  8
CSLAYER1
  6
CONTINUOUS
 62
     6
 10
376.200405
 20
160.589587
 40
0.685000
 50
-0.000005
 51
89.999991
  0
ARC
  8
CSLAYER1
  6
CONTINUOUS
 62
     6
 10
378.940395
 20
160.589587
 40
0.685000
 50
89.999991
 51
180.000000
  0
CIRCLE
  8
CSLAYER1
  6
CONTINUOUS
 62
     6
 10
377.570400
 20
161.959582
 40
5.500000
  0
LINE
  8
CSLAYER1
  6
CENTER
 62
     3
 10
382.550258
 20
166.939410
 11
372.590604
 21
156.979770
  0
ARC
  8
CSLAYER1
  6
CENTER
 62
     3
 10
360.599880
 20
144.989047
 40
24.000000
 50
204.927330
 51
245.072746
  0
CIRCLE
  8
CSLAYER1
  6
CONTINUOUS
 62
     6
 10
343.629360
 20
128.018481
 40
4.500000
  0
ARC
  8
CSLAYER1
  6
CONTINUOUS
 62
     6
 10
343.629360
 20
128.018481
 40
2.397500
 50
73.398405
 51
106.601566
  0
ARC
  8
CSLAYER1
  6
CONTINUOUS
 62
     6
 10
343.629360
 20
128.018481
 40
2.397500
 50
163.398414
 51
196.601576
  0
ARC
  8
CSLAYER1
  6
CONTINUOUS
 62
     6
 10
343.629360
 20
128.018481
 40
2.397500
 50
253.398424
 51
286.601558
  0
ARC
  8
CSLAYER1
  6
CONTINUOUS
 62
     6
 10
343.629360
 20
128.018481
 40
2.397500
 50
-16.601604
 51
16.601584
  0
LINE
  8
CSLAYER1
  6
CONTINUOUS
 62
     6
 10
342.944362
 20
126.648486
 11
342.944362
 21
125.720919
  0
LINE
  8
CSLAYER1
  6
CONTINUOUS
 62
     6
 10
342.944362
 20
129.388476
 11
342.944362
 21
130.316042
  0
LINE
  8
CSLAYER1
  6
CONTINUOUS
 62
     6
 10
344.314357
 20
126.648486
 11
344.314357
 21
125.720919
  0
LINE
  8
CSLAYER1
  6
CONTINUOUS
 62
     6
 10
344.314357
 20
129.388476
 11
344.314357
 21
130.316042
  0
LINE
  8
CSLAYER1
  6
CONTINUOUS
 62
     6
 10
342.259365
 20
128.703478
 11
341.331813
 21
128.703478
  0
LINE
  8
CSLAYER1
  6
CONTINUOUS
 62
     6
 10
344.999355
 20
128.703478
 11
345.926906
 21
128.703478
  0
LINE
  8
CSLAYER1
  6
CONTINUOUS
 62
     6
 10
342.259365
 20
127.333483
 11
341.331813
 21
127.333483
  0
LINE
  8
CSLAYER1
  6
CONTINUOUS
 62
     6
 10
344.999355
 20
127.333483
 11
345.926906
 21
127.333483
  0
ARC
  8
CSLAYER1
  6
CONTINUOUS
 62
     6
 10
342.259365
 20
126.648486
 40
0.685000
 50
0.057309
 51
89.999999
  0
ARC
  8
CSLAYER1
  6
CONTINUOUS
 62
     6
 10
344.999355
 20
126.648486
 40
0.685000
 50
89.999999
 51
179.999995
  0
ARC
  8
CSLAYER1
  6
CONTINUOUS
 62
     6
 10
344.999355
 20
129.388476
 40
0.685000
 50
179.999995
 51
269.999991
  0
ARC
  8
CSLAYER1
  6
CONTINUOUS
 62
     6
 10
342.259365
 20
129.388476
 40
0.685000
 50
269.999991
 51
360.000000
  0
CIRCLE
  8
CSLAYER1
  6
CONTINUOUS
 62
     6
 10
343.629360
 20
128.018481
 40
5.500000
  0
LINE
  8
CSLAYER1
  6
CENTER
 62
     3
 10
338.649501
 20
123.038653
 11
348.609155
 21
132.998292
  0
CIRCLE
  8
CSLAYER1
  6
CONTINUOUS
 62
     6
 10
365.360775
 20
136.719439
 40
0.999999
  0
ARC
  8
CSLAYER1
  6
CONTINUOUS
 62
     6
 10
365.360775
 20
136.719439
 40
2.143138
 50
50.235874
 51
203.481567
  0
LINE
  8
CSLAYER1
  6
CONTINUOUS
 62
     6
 10
363.395107
 20
135.865511
 11
363.822170
 21
134.471606
  0
CIRCLE
  8
CSLAYER1
  6
CONTINUOUS
 62
     6
 10
355.838985
 20
136.719439
 40
0.999999
  0
ARC
  8
CSLAYER1
  6
CONTINUOUS
 62
     6
 10
355.838985
 20
136.719439
 40
2.143138
 50
-23.481552
 51
129.764124
  0
LINE
  8
CSLAYER1
  6
CONTINUOUS
 62
     6
 10
357.804653
 20
135.865511
 11
357.377590
 21
134.471606
  0
ARC
  8
CSLAYER1
  6
CONTINUOUS
 62
     6
 10
360.599880
 20
144.407427
 40
9.581602
 50
-37.903087
 51
217.903071
  0
ARC
  8
CSLAYER1
  6
CONTINUOUS
 62
     6
 10
367.371212
 20
139.135531
 40
0.999999
 50
230.236306
 51
322.096613
  0
ARC
  8
CSLAYER1
  6
CONTINUOUS
 62
     6
 10
353.828548
 20
139.135531
 40
0.999999
 50
217.903402
 51
309.763723
  0
LINE
  8
CSLAYER1
  6
CONTINUOUS
 62
     6
 10
282.599849
 20
272.336149
 11
282.599849
 21
210.336149
  0
LINE
  8
CSLAYER1
  6
CONTINUOUS
 62
     6
 10
230.599849
 20
272.336149
 11
230.599849
 21
210.336149
  0
LINE
  8
CSLAYER1
  6
CENTER
 62
     3
 10
219.599849
 20
254.336149
 11
219.599849
 21
192.764631
  0
CIRCLE
  8
CSLAYER1
  6
CONTINUOUS
 62
     6
 10
219.599849
 20
241.336149
 40
8.000000
  0
CIRCLE
  8
CSLAYER1
  6
CONTINUOUS
 62
     6
 10
219.599849
 20
241.336149
 40
6.000000
  0
CIRCLE
  8
CSLAYER1
  6
CONTINUOUS
 62
     3
 10
219.599849
 20
241.336149
 40
5.500000
  0
LINE
  8
CSLAYER1
  6
CONTINUOUS
 62
     6
 10
222.349849
 20
242.136152
 11
216.849849
 21
242.136152
  0
LINE
  8
CSLAYER1
  6
CONTINUOUS
 62
     6
 10
222.349849
 20
240.536146
 11
216.849849
 21
240.536146
  0
LINE
  8
CSLAYER1
  6
CONTINUOUS
 62
     6
 10
216.849849
 20
242.136152
 11
216.849849
 21
240.536146
  0
LINE
  8
CSLAYER1
  6
CONTINUOUS
 62
     6
 10
222.349849
 20
242.136152
 11
222.349849
 21
240.536146
  0
ARC
  8
CSLAYER1
  6
CONTINUOUS
 62
     6
 10
204.941005
 20
202.900496
 40
15.758816
 50
332.536202
 51
359.942691
  0
ARC
  8
CSLAYER1
  6
CONTINUOUS
 62
     6
 10
204.941005
 20
202.900496
 40
13.558834
 50
332.536202
 51
359.942691
  0
ARC
  8
CSLAYER1
  6
CONTINUOUS
 62
     6
 10
220.149837
 20
201.947905
 40
1.099999
 50
60.000350
 51
120.000345
  0
ARC
  8
CSLAYER1
  6
CONTINUOUS
 62
     6
 10
219.049839
 20
201.947890
 40
1.099999
 50
60.000350
 51
120.000345
  0
ARC
  8
CSLAYER1
  6
CONTINUOUS
 62
     6
 10
219.049831
 20
203.853148
 40
1.099999
 50
240.000362
 51
300.000350
  0
LINE
  8
CSLAYER1
  6
CONTINUOUS
 62
     6
 10
217.629406
 20
196.305540
 11
216.012249
 21
193.367468
  0
LINE
  8
CSLAYER1
  6
CONTINUOUS
 62
     6
 10
218.118328
 20
196.051405
 11
216.541546
 21
193.043989
  0
LINE
  8
CSLAYER1
  6
CONTINUOUS
 62
     6
 10
218.516460
 20
195.844450
 11
217.114971
 21
192.764647
  0
LINE
  8
CSLAYER1
  6
CONTINUOUS
 62
     6
 10
216.971782
 20
196.647337
 11
218.923839
 21
195.632719
  0
ARC
  8
CSLAYER1
  6
CONTINUOUS
 62
     6
 10
234.258693
 20
202.900496
 40
15.758816
 50
202.422068
 51
207.463868
  0
ARC
  8
CSLAYER1
  6
CONTINUOUS
 62
     6
 10
234.258693
 20
202.900496
 40
13.558834
 50
179.999978
 51
207.463868
  0
LINE
  8
CSLAYER1
  6
CONTINUOUS
 62
     6
 10
221.570293
 20
196.305510
 11
223.187465
 21
193.367453
  0
LINE
  8
CSLAYER1
  6
CONTINUOUS
 62
     6
 10
221.081371
 20
196.051390
 11
222.658153
 21
193.043989
  0
LINE
  8
CSLAYER1
  6
CONTINUOUS
 62
     6
 10
220.683239
 20
195.844450
 11
222.084743
 21
192.764631
  0
LINE
  8
CSLAYER1
  6
CONTINUOUS
 62
     6
 10
222.227916
 20
196.647322
 11
220.275859
 21
195.632704
  0
ARC
  8
CSLAYER1
  6
CONTINUOUS
 62
     6
 10
219.049862
 20
206.765364
 40
1.100006
 50
240.000007
 51
299.999995
  0
ARC
  8
CSLAYER1
  6
CONTINUOUS
 62
     6
 10
220.149868
 20
206.765364
 40
1.100006
 50
240.000007
 51
299.999995
  0
ARC
  8
CSLAYER1
  6
CONTINUOUS
 62
     6
 10
220.149868
 20
204.860090
 40
1.100006
 50
60.000002
 51
120.000003
  0
LINE
  8
CSLAYER1
  6
CONTINUOUS
 62
     6
 10
220.699855
 20
211.508955
 11
220.699855
 21
205.812727
  0
LINE
  8
CSLAYER1
  6
CONTINUOUS
 62
     6
 10
218.499859
 20
211.547362
 11
218.499859
 21
205.812727
  0
LINE
  8
CSLAYER1
  6
CONTINUOUS
 62
     6
 10
282.599849
 20
272.336149
 11
230.599849
 21
272.336149
  0
LINE
  8
CSLAYER1
  6
CONTINUOUS
 62
     6
 10
282.599849
 20
210.336149
 11
230.599849
 21
210.336149
  0
LINE
  8
CSLAYER1
  6
CENTER
 62
     3
 10
133.599849
 20
241.336153
 11
321.099859
 21
241.336135
  0
LINE
  8
CSLAYER1
  6
CONTINUOUS
 62
     3
 10
237.599865
 20
272.336149
 11
237.599865
 21
257.836119
  0
LINE
  8
CSLAYER1
  6
CONTINUOUS
 62
     3
 10
238.599865
 20
256.836119
 11
274.599849
 21
256.836119
  0
ARC
  8
CSLAYER1
  6
CONTINUOUS
 62
     3
 10
238.599865
 20
257.836119
 40
1.000000
 50
180.000005
 51
270.000001
  0
TEXT
  8
CSLAYER1
 62
     3
 10
254.137589
 20
269.836121
 40
3.500000
 41
1.125000
  1
N P
 50
270.000000
 51
10.000000
  7
JX_FONT
 72
     5
 11
254.137589
 21
259.336121
  0
LINE
  8
CSLAYER1
  6
CONTINUOUS
 62
     3
 10
275.599849
 20
272.336149
 11
275.599849
 21
257.836119
  0
ARC
  8
CSLAYER1
  6
CONTINUOUS
 62
     3
 10
274.599849
 20
257.836119
 40
1.000000
 50
269.999999
 51
359.999995
  0
LINE
  8
CSLAYER1
  6
CONTINUOUS
 62
     6
 10
292.599849
 20
273.336139
 11
292.599849
 21
209.336139
  0
LINE
  8
CSLAYER1
  6
CONTINUOUS
 62
     6
 10
294.599849
 20
256.336139
 11
294.599849
 21
226.336139
  0
LINE
  8
CSLAYER1
  6
CONTINUOUS
 62
     6
 10
319.099849
 20
245.336139
 11
319.099849
 21
237.336139
  0
LINE
  8
CSLAYER1
  6
CONTINUOUS
 62
     6
 10
294.599849
 20
245.336139
 11
319.099849
 21
245.336139
  0
LINE
  8
CSLAYER1
  6
CONTINUOUS
 62
     6
 10
294.599849
 20
237.336139
 11
319.099849
 21
237.336139
  0
LINE
  8
CSLAYER1
  6
CONTINUOUS
 62
     6
 10
283.599849
 20
271.336139
 11
282.599849
 21
271.336139
  0
LINE
  8
CSLAYER1
  6
CONTINUOUS
 62
     6
 10
282.599849
 20
211.336139
 11
283.599849
 21
211.336139
  0
LINE
  8
CSLAYER1
  6
CONTINUOUS
 62
     6
 10
292.599849
 20
256.336139
 11
294.599849
 21
256.336139
  0
LINE
  8
CSLAYER1
  6
CONTINUOUS
 62
     6
 10
292.599849
 20
226.336139
 11
294.599849
 21
226.336139
  0
LINE
  8
CSLAYER1
  6
CONTINUOUS
 62
     6
 10
283.599849
 20
271.336139
 11
283.599849
 21
211.336139
  0
LINE
  8
CSLAYER1
  6
CONTINUOUS
 62
     6
 10
292.599849
 20
273.336139
 11
285.599849
 21
273.336139
  0
LINE
  8
CSLAYER1
  6
CONTINUOUS
 62
     6
 10
292.599849
 20
209.336139
 11
285.599849
 21
209.336139
  0
ARC
  8
CSLAYER1
  6
CONTINUOUS
 62
     6
 10
285.599849
 20
271.336139
 40
2.000000
 50
90.000000
 51
180.000000
  0
ARC
  8
CSLAYER1
  6
CONTINUOUS
 62
     6
 10
285.599849
 20
211.336139
 40
2.000000
 50
180.000000
 51
270.000000
  0
LINE
  8
CSLAYER1
  6
CENTER
 62
     3
 10
280.599849
 20
215.336136
 11
294.599849
 21
215.336136
  0
LINE
  8
CSLAYER1
  6
CENTER
 62
     3
 10
280.599856
 20
267.336146
 11
294.599856
 21
267.336142
  0
LINE
  8
CSLAYER1
  6
CONTINUOUS
 62
     6
 10
202.599849
 20
270.847384
 11
230.599849
 21
271.336145
  0
LINE
  8
CSLAYER1
  6
CONTINUOUS
 62
     6
 10
202.599849
 20
211.824908
 11
230.599849
 21
211.336145
  0
LINE
  8
CSLAYER1
  6
CONTINUOUS
 62
     6
 10
29.099880
 20
170.989038
 11
29.099880
 21
118.989099
  0
LINE
  8
CSLAYER1
  6
CONTINUOUS
 62
     6
 10
87.099880
 20
176.989038
 11
35.099880
 21
176.989038
  0
ARC
  8
CSLAYER1
  6
CONTINUOUS
 62
     6
 10
35.099880
 20
170.989038
 40
6.000000
 50
90.000000
 51
180.000003
  0
LINE
  8
CSLAYER1
  6
CONTINUOUS
 62
     6
 10
93.099880
 20
170.989038
 11
93.099880
 21
147.489052
  0
LINE
  8
CSLAYER1
  6
CONTINUOUS
 62
     6
 10
87.099880
 20
112.989099
 11
35.099880
 21
112.989099
  0
ARC
  8
CSLAYER1
  6
CONTINUOUS
 62
     6
 10
35.099880
 20
118.989038
 40
6.000000
 50
180.000000
 51
270.000003
  0
ARC
  8
CSLAYER1
  6
CONTINUOUS
 62
     6
 10
87.099880
 20
118.989038
 40
6.000000
 50
-90.000000
 51
0.000003
  0
ARC
  8
CSLAYER1
  6
CONTINUOUS
 62
     6
 10
87.099880
 20
170.989038
 40
6.000000
 50
-0.000003
 51
90.000000
  0
LINE
  8
CSLAYER1
  6
CENTER
 62
     3
 10
87.099880
 20
175.928308
 11
87.099880
 21
165.989038
  0
LINE
  8
CSLAYER1
  6
CENTER
 62
     3
 10
82.099880
 20
170.989038
 11
92.099880
 21
170.989038
  0
CIRCLE
  8
CSLAYER1
  6
CONTINUOUS
 62
     6
 10
87.099880
 20
170.989038
 40
2.250000
  0
LINE
  8
CSLAYER1
  6
CENTER
 62
     3
 10
87.099880
 20
114.049768
 11
87.099880
 21
123.989038
  0
LINE
  8
CSLAYER1
  6
CENTER
 62
     3
 10
82.099880
 20
118.989038
 11
92.099880
 21
118.989038
  0
CIRCLE
  8
CSLAYER1
  6
CONTINUOUS
 62
     6
 10
87.099880
 20
118.989038
 40
2.250000
  0
LINE
  8
CSLAYER1
  6
CENTER
 62
     3
 10
30.160610
 20
118.989038
 11
40.099880
 21
118.989038
  0
LINE
  8
CSLAYER1
  6
CENTER
 62
     3
 10
35.099880
 20
123.989038
 11
35.099880
 21
113.989038
  0
CIRCLE
  8
CSLAYER1
  6
CONTINUOUS
 62
     6
 10
35.099880
 20
118.989038
 40
2.250000
  0
LINE
  8
CSLAYER1
  6
CENTER
 62
     3
 10
35.099880
 20
175.928308
 11
35.099880
 21
165.989038
  0
LINE
  8
CSLAYER1
  6
CENTER
 62
     3
 10
40.099880
 20
170.989038
 11
30.099880
 21
170.989038
  0
CIRCLE
  8
CSLAYER1
  6
CONTINUOUS
 62
     6
 10
35.099880
 20
170.989038
 40
2.250000
  0
LINE
  8
CSLAYER1
  6
CENTER
 62
     3
 10
109.455921
 20
144.989038
 11
26.099880
 21
144.989038
  0
LINE
  8
CSLAYER1
  6
CENTER
 62
     3
 10
61.099880
 20
179.989038
 11
61.099880
 21
109.989038
  0
LINE
  8
CSLAYER1
  6
CONTINUOUS
 62
     6
 10
202.599849
 20
271.336162
 11
202.599849
 21
211.336162
  0
LINE
  8
CSLAYER1
  6
CONTINUOUS
 62
     6
 10
168.599849
 20
211.336162
 11
168.599849
 21
271.336162
  0
LINE
  8
CSLAYER1
  6
CONTINUOUS
 62
     6
 10
161.599849
 20
271.336162
 11
161.599849
 21
211.336162
  0
LINE
  8
CSLAYER1
  6
CONTINUOUS
 62
     6
 10
161.599849
 20
271.336162
 11
202.599849
 21
271.336162
  0
LINE
  8
CSLAYER1
  6
CONTINUOUS
 62
     6
 10
161.599849
 20
211.336162
 11
202.599849
 21
211.336162
  0
LINE
  8
CSLAYER1
  6
CENTER
 62
     3
 10
194.599849
 20
217.579196
 11
194.599849
 21
195.374244
  0
LINE
  8
CSLAYER1
  6
CONTINUOUS
 62
     3
 10
195.479900
 20
213.836547
 11
195.479900
 21
213.336547
  0
ARC
  8
CSLAYER1
  6
CONTINUOUS
 62
     6
 10
182.872829
 20
203.482917
 40
12.607053
 50
332.536202
 51
359.942691
  0
ARC
  8
CSLAYER1
  6
CONTINUOUS
 62
     6
 10
182.872829
 20
203.482917
 40
10.847068
 50
332.536202
 51
359.942691
  0
ARC
  8
CSLAYER1
  6
CONTINUOUS
 62
     6
 10
195.039882
 20
202.720848
 40
0.879999
 50
60.000350
 51
120.000345
  0
ARC
  8
CSLAYER1
  6
CONTINUOUS
 62
     6
 10
194.159877
 20
202.720848
 40
0.879999
 50
60.000350
 51
120.000345
  0
ARC
  8
CSLAYER1
  6
CONTINUOUS
 62
     6
 10
194.159877
 20
204.245048
 40
0.879999
 50
240.000362
 51
300.000350
  0
LINE
  8
CSLAYER1
  6
CONTINUOUS
 62
     6
 10
193.023525
 20
198.206962
 11
191.729793
 21
195.856498
  0
LINE
  8
CSLAYER1
  6
CONTINUOUS
 62
     6
 10
193.414669
 20
198.003654
 11
192.153240
 21
195.597724
  0
LINE
  8
CSLAYER1
  6
CONTINUOUS
 62
     6
 10
193.733181
 20
197.838096
 11
192.611980
 21
195.374259
  0
LINE
  8
CSLAYER1
  6
CONTINUOUS
 62
     6
 10
192.497432
 20
198.480400
 11
194.059078
 21
197.668708
  0
ARC
  8
CSLAYER1
  6
CONTINUOUS
 62
     6
 10
206.326961
 20
203.482917
 40
12.607053
 50
201.534171
 51
207.463868
  0
ARC
  8
CSLAYER1
  6
CONTINUOUS
 62
     6
 10
206.326961
 20
203.482917
 40
10.847068
 50
179.999978
 51
207.463868
  0
LINE
  8
CSLAYER1
  6
CONTINUOUS
 62
     6
 10
196.176235
 20
198.206947
 11
197.469997
 21
195.856498
  0
LINE
  8
CSLAYER1
  6
CONTINUOUS
 62
     6
 10
195.785091
 20
198.003654
 11
197.046535
 21
195.597724
  0
LINE
  8
CSLAYER1
  6
CONTINUOUS
 62
     6
 10
195.466594
 20
197.838096
 11
196.587810
 21
195.374244
  0
LINE
  8
CSLAYER1
  6
CONTINUOUS
 62
     6
 10
196.702327
 20
198.480400
 11
195.140682
 21
197.668693
  0
ARC
  8
CSLAYER1
  6
CONTINUOUS
 62
     6
 10
194.159893
 20
206.574821
 40
0.880005
 50
240.000007
 51
299.999995
  0
ARC
  8
CSLAYER1
  6
CONTINUOUS
 62
     6
 10
195.039898
 20
206.574821
 40
0.880005
 50
240.000007
 51
299.999995
  0
ARC
  8
CSLAYER1
  6
CONTINUOUS
 62
     6
 10
195.039898
 20
205.050621
 40
0.880005
 50
60.000002
 51
120.000003
  0
LINE
  8
CSLAYER1
  6
CENTER
 62
     3
 10
186.349849
 20
212.335391
 11
202.849849
 21
212.335391
  0
POLYLINE
  8
CSLAYER1
  6
CONTINUOUS
 62
     3
 66
     1
 10
0.0
 20
0.0
 30
0.0
  0
VERTEX
  8
CSLAYER1
  6
CONTINUOUS
 62
     3
 10
199.849849
 20
212.335387
 30
0.0
  0
VERTEX
  8
CSLAYER1
  6
CONTINUOUS
 62
     3
 10
199.829872
 20
212.553277
 30
0.0
  0
VERTEX
  8
CSLAYER1
  6
CONTINUOUS
 62
     3
 10
199.770091
 20
212.769508
 30
0.0
  0
VERTEX
  8
CSLAYER1
  6
CONTINUOUS
 62
     3
 10
199.735005
 20
212.855438
 30
0.0
  0
SEQEND
  0
LINE
  8
CSLAYER1
  6
CONTINUOUS
 62
     6
 10
195.479900
 20
210.856618
 11
195.479900
 21
205.812721
  0
LINE
  8
CSLAYER1
  6
CONTINUOUS
 62
     6
 10
193.719890
 20
210.856613
 11
193.719890
 21
205.812721
  0
POLYLINE
  8
CSLAYER1
  6
CONTINUOUS
 62
     3
 66
     1
 10
0.0
 20
0.0
 30
0.0
  0
VERTEX
  8
CSLAYER1
  6
CONTINUOUS
 62
     3
 10
189.626998
 20
211.854472
 30
0.0
  0
VERTEX
  8
CSLAYER1
  6
CONTINUOUS
 62
     3
 10
189.792623
 20
211.732470
 30
0.0
  0
VERTEX
  8
CSLAYER1
  6
CONTINUOUS
 62
     3
 10
189.994835
 20
211.615056
 30
0.0
  0
VERTEX
  8
CSLAYER1
  6
CONTINUOUS
 62
     3
 10
190.147600
 20
211.540512
 30
0.0
  0
SEQEND
  0
POLYLINE
  8
CSLAYER1
  6
CONTINUOUS
 62
     3
 66
     1
 10
0.0
 20
0.0
 30
0.0
  0
VERTEX
  8
CSLAYER1
  6
CONTINUOUS
 62
     3
 10
199.464260
 20
213.275792
 30
0.0
  0
VERTEX
  8
CSLAYER1
  6
CONTINUOUS
 62
     3
 10
199.273631
 20
213.474100
 30
0.0
  0
VERTEX
  8
CSLAYER1
  6
CONTINUOUS
 62
     3
 10
199.047431
 20
213.663742
 30
0.0
  0
VERTEX
  8
CSLAYER1
  6
CONTINUOUS
 62
     3
 10
198.787383
 20
213.843274
 30
0.0
  0
VERTEX
  8
CSLAYER1
  6
CONTINUOUS
 62
     3
 10
198.689617
 20
213.902940
 30
0.0
  0
SEQEND
  0
POLYLINE
  8
CSLAYER1
  6
CONTINUOUS
 62
     3
 66
     1
 10
0.0
 20
0.0
 30
0.0
  0
VERTEX
  8
CSLAYER1
  6
CONTINUOUS
 62
     3
 10
198.244789
 20
214.134667
 30
0.0
  0
VERTEX
  8
CSLAYER1
  6
CONTINUOUS
 62
     3
 10
197.901603
 20
214.279095
 30
0.0
  0
VERTEX
  8
CSLAYER1
  6
CONTINUOUS
 62
     3
 10
197.533288
 20
214.408731
 30
0.0
  0
VERTEX
  8
CSLAYER1
  6
CONTINUOUS
 62
     3
 10
197.307701
 20
214.477192
 30
0.0
  0
SEQEND
  0
POLYLINE
  8
CSLAYER1
  6
CONTINUOUS
 62
     3
 66
     1
 10
0.0
 20
0.0
 30
0.0
  0
VERTEX
  8
CSLAYER1
  6
CONTINUOUS
 62
     3
 10
196.823060
 20
214.600168
 30
0.0
  0
VERTEX
  8
CSLAYER1
  6
CONTINUOUS
 62
     3
 10
196.400084
 20
214.683819
 30
0.0
  0
VERTEX
  8
CSLAYER1
  6
CONTINUOUS
 62
     3
 10
195.963408
 20
214.749597
 30
0.0
  0
VERTEX
  8
CSLAYER1
  6
CONTINUOUS
 62
     3
 10
195.837076
 20
214.764978
 30
0.0
  0
SEQEND
  0
POLYLINE
  8
CSLAYER1
  6
CONTINUOUS
 62
     3
 66
     1
 10
0.0
 20
0.0
 30
0.0
  0
VERTEX
  8
CSLAYER1
  6
CONTINUOUS
 62
     3
 10
195.339150
 20
214.810479
 30
0.0
  0
VERTEX
  8
CSLAYER1
  6
CONTINUOUS
 62
     3
 10
194.883329
 20
214.831744
 30
0.0
  0
VERTEX
  8
CSLAYER1
  6
CONTINUOUS
 62
     3
 10
194.425350
 20
214.834009
 30
0.0
  0
VERTEX
  8
CSLAYER1
  6
CONTINUOUS
 62
     3
 10
194.339648
 20
214.832318
 30
0.0
  0
SEQEND
  0
POLYLINE
  8
CSLAYER1
  6
CONTINUOUS
 62
     3
 66
     1
 10
0.0
 20
0.0
 30
0.0
  0
VERTEX
  8
CSLAYER1
  6
CONTINUOUS
 62
     3
 10
193.835693
 20
214.808767
 30
0.0
  0
VERTEX
  8
CSLAYER1
  6
CONTINUOUS
 62
     3
 10
193.385906
 20
214.767640
 30
0.0
  0
VERTEX
  8
CSLAYER1
  6
CONTINUOUS
 62
     3
 10
192.945358
 20
214.708003
 30
0.0
  0
VERTEX
  8
CSLAYER1
  6
CONTINUOUS
 62
     3
 10
192.847365
 20
214.691995
 30
0.0
  0
SEQEND
  0
POLYLINE
  8
CSLAYER1
  6
CONTINUOUS
 62
     3
 66
     1
 10
0.0
 20
0.0
 30
0.0
  0
VERTEX
  8
CSLAYER1
  6
CONTINUOUS
 62
     3
 10
192.356723
 20
214.595710
 30
0.0
  0
VERTEX
  8
CSLAYER1
  6
CONTINUOUS
 62
     3
 10
191.951559
 20
214.494013
 30
0.0
  0
VERTEX
  8
CSLAYER1
  6
CONTINUOUS
 62
     3
 10
191.566550
 20
214.375888
 30
0.0
  0
VERTEX
  8
CSLAYER1
  6
CONTINUOUS
 62
     3
 10
191.396599
 20
214.316119
 30
0.0
  0
SEQEND
  0
POLYLINE
  8
CSLAYER1
  6
CONTINUOUS
 62
     3
 66
     1
 10
0.0
 20
0.0
 30
0.0
  0
VERTEX
  8
CSLAYER1
  6
CONTINUOUS
 62
     3
 10
190.933179
 20
214.124627
 30
0.0
  0
VERTEX
  8
CSLAYER1
  6
CONTINUOUS
 62
     3
 10
190.619653
 20
213.965642
 30
0.0
  0
VERTEX
  8
CSLAYER1
  6
CONTINUOUS
 62
     3
 10
190.336419
 20
213.794249
 30
0.0
  0
VERTEX
  8
CSLAYER1
  6
CONTINUOUS
 62
     3
 10
190.085632
 20
213.611754
 30
0.0
  0
VERTEX
  8
CSLAYER1
  6
CONTINUOUS
 62
     3
 10
190.081222
 20
213.608210
 30
0.0
  0
SEQEND
  0
POLYLINE
  8
CSLAYER1
  6
CONTINUOUS
 62
     3
 66
     1
 10
0.0
 20
0.0
 30
0.0
  0
VERTEX
  8
CSLAYER1
  6
CONTINUOUS
 62
     3
 10
189.722244
 20
213.260165
 30
0.0
  0
VERTEX
  8
CSLAYER1
  6
CONTINUOUS
 62
     3
 10
189.571546
 20
213.054212
 30
0.0
  0
VERTEX
  8
CSLAYER1
  6
CONTINUOUS
 62
     3
 10
189.459117
 20
212.842789
 30
0.0
  0
VERTEX
  8
CSLAYER1
  6
CONTINUOUS
 62
     3
 10
189.385811
 20
212.627503
 30
0.0
  0
VERTEX
  8
CSLAYER1
  6
CONTINUOUS
 62
     3
 10
189.352188
 20
212.409995
 30
0.0
  0
VERTEX
  8
CSLAYER1
  6
CONTINUOUS
 62
     3
 10
189.349849
 20
212.335387
 30
0.0
  0
SEQEND
  0
LINE
  8
CSLAYER1
  6
CONTINUOUS
 62
     3
 10
195.479900
 20
212.836547
 11
195.479900
 21
212.335776
  0
LINE
  8
CSLAYER1
  6
CONTINUOUS
 62
     3
 10
195.479900
 20
211.836547
 11
195.479900
 21
211.336547
  0
LINE
  8
CSLAYER1
  6
CONTINUOUS
 62
     3
 10
193.719799
 20
213.836547
 11
193.719799
 21
213.336547
  0
LINE
  8
CSLAYER1
  6
CONTINUOUS
 62
     3
 10
193.719799
 20
212.836547
 11
193.719799
 21
212.335776
  0
LINE
  8
CSLAYER1
  6
CONTINUOUS
 62
     3
 10
193.719799
 20
211.836547
 11
193.719799
 21
211.336547
  0
POLYLINE
  8
CSLAYER1
  6
CONTINUOUS
 62
     3
 66
     1
 10
0.0
 20
0.0
 30
0.0
  0
VERTEX
  8
CSLAYER1
  6
CONTINUOUS
 62
     3
 10
199.038896
 20
211.534508
 30
0.0
  0
VERTEX
  8
CSLAYER1
  6
CONTINUOUS
 62
     3
 10
199.266310
 20
211.648095
 30
0.0
  0
VERTEX
  8
CSLAYER1
  6
CONTINUOUS
 62
     3
 10
199.458210
 20
211.766913
 30
0.0
  0
VERTEX
  8
CSLAYER1
  6
CONTINUOUS
 62
     3
 10
199.570615
 20
211.852715
 30
0.0
  0
SEQEND
  0
POLYLINE
  8
CSLAYER1
  6
CONTINUOUS
 62
     6
 66
     1
 10
0.0
 20
0.0
 30
0.0
  0
VERTEX
  8
CSLAYER1
  6
CONTINUOUS
 62
     6
 10
190.684326
 20
211.336162
 30
0.0
  0
VERTEX
  8
CSLAYER1
  6
CONTINUOUS
 62
     6
 10
191.004037
 20
211.242461
 30
0.0
  0
VERTEX
  8
CSLAYER1
  6
CONTINUOUS
 62
     6
 10
191.351113
 20
211.157078
 30
0.0
  0
VERTEX
  8
CSLAYER1
  6
CONTINUOUS
 62
     6
 10
191.722915
 20
211.080663
 30
0.0
  0
VERTEX
  8
CSLAYER1
  6
CONTINUOUS
 62
     6
 10
192.116612
 20
211.013798
 30
0.0
  0
VERTEX
  8
CSLAYER1
  6
CONTINUOUS
 62
     6
 10
192.529207
 20
210.956990
 30
0.0
  0
VERTEX
  8
CSLAYER1
  6
CONTINUOUS
 62
     6
 10
192.957562
 20
210.910673
 30
0.0
  0
VERTEX
  8
CSLAYER1
  6
CONTINUOUS
 62
     6
 10
193.398415
 20
210.875199
 30
0.0
  0
VERTEX
  8
CSLAYER1
  6
CONTINUOUS
 62
     6
 10
193.848412
 20
210.850837
 30
0.0
  0
VERTEX
  8
CSLAYER1
  6
CONTINUOUS
 62
     6
 10
194.304128
 20
210.837775
 30
0.0
  0
VERTEX
  8
CSLAYER1
  6
CONTINUOUS
 62
     6
 10
194.762095
 20
210.836109
 30
0.0
  0
VERTEX
  8
CSLAYER1
  6
CONTINUOUS
 62
     6
 10
195.218826
 20
210.845855
 30
0.0
  0
VERTEX
  8
CSLAYER1
  6
CONTINUOUS
 62
     6
 10
195.670847
 20
210.866937
 30
0.0
  0
VERTEX
  8
CSLAYER1
  6
CONTINUOUS
 62
     6
 10
196.114717
 20
210.899194
 30
0.0
  0
VERTEX
  8
CSLAYER1
  6
CONTINUOUS
 62
     6
 10
196.547058
 20
210.942382
 30
0.0
  0
VERTEX
  8
CSLAYER1
  6
CONTINUOUS
 62
     6
 10
196.964580
 20
210.996171
 30
0.0
  0
VERTEX
  8
CSLAYER1
  6
CONTINUOUS
 62
     6
 10
197.364104
 20
211.060153
 30
0.0
  0
VERTEX
  8
CSLAYER1
  6
CONTINUOUS
 62
     6
 10
197.742591
 20
211.133840
 30
0.0
  0
VERTEX
  8
CSLAYER1
  6
CONTINUOUS
 62
     6
 10
198.097160
 20
211.216672
 30
0.0
  0
VERTEX
  8
CSLAYER1
  6
CONTINUOUS
 62
     6
 10
198.425112
 20
211.308018
 30
0.0
  0
VERTEX
  8
CSLAYER1
  6
CONTINUOUS
 62
     6
 10
198.515373
 20
211.336162
 30
0.0
  0
SEQEND
  0
ARC
  8
CSLAYER1
  6
CONTINUOUS
 62
     6
 10
61.099880
 20
144.989038
 40
31.000000
 50
4.625676
 51
334.995759
  0
ARC
  8
CSLAYER1
  6
CONTINUOUS
 62
     6
 10
61.099880
 20
144.989038
 40
30.000017
 50
4.780215
 51
355.219837
  0
LINE
  8
CSLAYER1
  6
CONTINUOUS
 62
     6
 10
88.613571
 20
131.929163
 11
91.413563
 21
142.048948
  0
LINE
  8
CSLAYER1
  6
CONTINUOUS
 62
     6
 10
90.459253
 20
132.974848
 11
92.459248
 21
140.203265
  0
ARC
  8
CSLAYER1
  6
CONTINUOUS
 62
     6
 10
91.013564
 20
140.603264
 40
1.500000
 50
-15.465967
 51
74.534033
  0
ARC
  8
CSLAYER1
  6
CONTINUOUS
 62
     6
 10
89.013570
 20
133.374847
 40
1.500000
 50
254.534033
 51
344.534033
  0
LINE
  8
CSLAYER1
  6
CONTINUOUS
 62
     6
 10
90.786787
 20
140.666010
 11
91.013564
 21
140.603264
  0
LINE
  8
CSLAYER1
  6
CONTINUOUS
 62
     6
 10
88.786792
 20
133.437592
 11
89.013570
 21
133.374847
  0
ARC
  8
CSLAYER1
  6
CONTINUOUS
 62
     6
 10
61.099880
 20
144.989038
 40
31.000000
 50
354.072307
 51
355.374374
  0
LINE
  8
CSLAYER1
  6
CONTINUOUS
 62
     6
 10
93.099880
 20
137.961255
 11
93.099880
 21
142.489052
  0
LINE
  8
CSLAYER1
  6
CONTINUOUS
 62
     6
 10
93.099880
 20
134.308983
 11
93.099880
 21
118.989099
  0
LINE
  8
CSLAYER1
  6
CENTER
 62
     3
 10
136.049830
 20
144.989034
 11
322.099880
 21
144.989034
  0
LINE
  8
CSLAYER1
  6
CONTINUOUS
 62
     6
 10
292.599880
 20
176.989034
 11
292.599880
 21
112.989034
  0
LINE
  8
CSLAYER1
  6
CONTINUOUS
 62
     6
 10
294.599880
 20
159.989034
 11
294.599880
 21
129.989034
  0
LINE
  8
CSLAYER1
  6
CONTINUOUS
 62
     6
 10
319.099880
 20
148.989034
 11
319.099880
 21
140.989034
  0
LINE
  8
CSLAYER1
  6
CONTINUOUS
 62
     6
 10
230.599849
 20
175.989034
 11
230.599849
 21
113.989034
  0
LINE
  8
CSLAYER1
  6
CONTINUOUS
 62
     6
 10
294.599880
 20
148.989034
 11
319.099880
 21
148.989034
  0
LINE
  8
CSLAYER1
  6
CONTINUOUS
 62
     6
 10
294.599880
 20
140.989034
 11
319.099880
 21
140.989034
  0
LINE
  8
CSLAYER1
  6
CONTINUOUS
 62
     6
 10
283.599880
 20
174.989034
 11
282.599880
 21
174.989034
  0
LINE
  8
CSLAYER1
  6
CONTINUOUS
 62
     6
 10
282.599880
 20
114.989034
 11
283.599880
 21
114.989034
  0
LINE
  8
CSLAYER1
  6
CONTINUOUS
 62
     6
 10
292.599880
 20
159.989034
 11
294.599880
 21
159.989034
  0
LINE
  8
CSLAYER1
  6
CONTINUOUS
 62
     6
 10
292.599880
 20
129.989034
 11
294.599880
 21
129.989034
  0
LINE
  8
CSLAYER1
  6
CONTINUOUS
 62
     6
 10
230.599849
 20
113.989034
 11
282.599880
 21
113.989034
  0
LINE
  8
CSLAYER1
  6
CONTINUOUS
 62
     6
 10
230.599849
 20
175.989034
 11
282.599880
 21
175.989034
  0
LINE
  8
CSLAYER1
  6
CONTINUOUS
 62
     6
 10
283.599880
 20
174.989034
 11
283.599880
 21
114.989034
  0
LINE
  8
CSLAYER1
  6
CONTINUOUS
 62
     6
 10
292.599880
 20
176.989034
 11
285.599880
 21
176.989034
  0
LINE
  8
CSLAYER1
  6
CONTINUOUS
 62
     6
 10
282.599880
 20
175.989034
 11
282.599880
 21
113.989034
  0
LINE
  8
CSLAYER1
  6
CONTINUOUS
 62
     6
 10
292.599880
 20
112.989034
 11
285.599880
 21
112.989034
  0
ARC
  8
CSLAYER1
  6
CONTINUOUS
 62
     6
 10
285.599880
 20
174.989034
 40
2.000000
 50
90.000000
 51
180.000000
  0
ARC
  8
CSLAYER1
  6
CONTINUOUS
 62
     6
 10
285.599880
 20
114.989034
 40
2.000000
 50
180.000000
 51
270.000000
  0
LINE
  8
CSLAYER1
  6
CENTER
 62
     3
 10
280.599880
 20
118.989030
 11
294.599880
 21
118.989030
  0
LINE
  8
CSLAYER1
  6
CENTER
 62
     3
 10
280.599886
 20
170.989041
 11
294.599886
 21
170.989037
  0
LINE
  8
CSLAYER1
  6
CENTER
 62
     3
 10
219.599895
 20
133.989051
 11
219.599895
 21
155.989051
  0
LINE
  8
CSLAYER1
  6
CONTINUOUS
 62
     6
 10
202.599849
 20
174.500281
 11
230.599895
 21
174.989051
  0
LINE
  8
CSLAYER1
  6
CONTINUOUS
 62
     6
 10
202.599849
 20
115.477821
 11
230.599895
 21
114.989051
  0
ARC
  8
CSLAYER1
  6
CONTINUOUS
 62
     6
 10
219.599895
 20
146.089057
 40
1.100000
 50
-89.999999
 51
90.000019
  0
ARC
  8
CSLAYER1
  6
CONTINUOUS
 62
     6
 10
219.599895
 20
143.889045
 40
1.100000
 50
-89.999999
 51
90.000019
  0
LINE
  8
CSLAYER1
  6
CONTINUOUS
 62
     6
 10
220.699871
 20
146.089057
 11
220.699871
 21
143.889045
  0
ARC
  8
CSLAYER1
  6
CONTINUOUS
 62
     6
 10
219.599895
 20
144.989051
 40
8.000000
 50
-164.038007
 51
164.038013
  0
LINE
  8
CSLAYER1
  6
CONTINUOUS
 62
     6
 10
202.599849
 20
114.989051
 11
202.599849
 21
174.989051
  0
LINE
  8
CSLAYER1
  6
CONTINUOUS
 62
     6
 10
168.599895
 20
114.989051
 11
168.599895
 21
174.989051
  0
LINE
  8
CSLAYER1
  6
CONTINUOUS
 62
     6
 10
161.599895
 20
174.989051
 11
161.599895
 21
114.989051
  0
LINE
  8
CSLAYER1
  6
CONTINUOUS
 62
     6
 10
161.599895
 20
174.989051
 11
202.599895
 21
174.989051
  0
LINE
  8
CSLAYER1
  6
CONTINUOUS
 62
     6
 10
161.599895
 20
114.989051
 11
202.599895
 21
114.989051
  0
ARC
  8
CSLAYER1
  6
CONTINUOUS
 62
     6
 10
213.164287
 20
160.747901
 40
15.758816
 50
242.536193
 51
270.000110
  0
ARC
  8
CSLAYER1
  6
CONTINUOUS
 62
     6
 10
213.164287
 20
160.747901
 40
13.558834
 50
242.536193
 51
270.000083
  0
ARC
  8
CSLAYER1
  6
CONTINUOUS
 62
     6
 10
212.211666
 20
145.539085
 40
1.099999
 50
-29.999656
 51
30.000332
  0
ARC
  8
CSLAYER1
  6
CONTINUOUS
 62
     6
 10
212.211651
 20
146.639076
 40
1.099999
 50
-29.999656
 51
30.000332
  0
ARC
  8
CSLAYER1
  6
CONTINUOUS
 62
     6
 10
214.116909
 20
146.639091
 40
1.099999
 50
150.000353
 51
210.000354
  0
LINE
  8
CSLAYER1
  6
CONTINUOUS
 62
     6
 10
204.166820
 20
149.381873
 11
206.569317
 21
148.059486
  0
LINE
  8
CSLAYER1
  6
CONTINUOUS
 62
     6
 10
203.885173
 20
148.844642
 11
206.315166
 21
147.570594
  0
LINE
  8
CSLAYER1
  6
CONTINUOUS
 62
     6
 10
203.636150
 20
148.297401
 11
206.108196
 21
147.172462
  0
LINE
  8
CSLAYER1
  6
CONTINUOUS
 62
     6
 10
206.911113
 20
148.717140
 11
205.896465
 21
146.765052
  0
ARC
  8
CSLAYER1
  6
CONTINUOUS
 62
     6
 10
217.029094
 20
146.639030
 40
1.100006
 50
149.999997
 51
209.999999
  0
ARC
  8
CSLAYER1
  6
CONTINUOUS
 62
     6
 10
217.029094
 20
145.539024
 40
1.100006
 50
149.999997
 51
209.999999
  0
ARC
  8
CSLAYER1
  6
CONTINUOUS
 62
     6
 10
215.123821
 20
145.539024
 40
1.100006
 50
-30.000011
 51
29.999977
  0
ARC
  8
CSLAYER1
  6
CONTINUOUS
 62
     6
 10
213.164287
 20
129.230201
 40
15.758816
 50
89.999900
 51
117.463817
  0
ARC
  8
CSLAYER1
  6
CONTINUOUS
 62
     6
 10
213.164287
 20
129.230201
 40
13.558834
 50
89.999927
 51
117.463817
  0
ARC
  8
CSLAYER1
  6
CONTINUOUS
 62
     6
 10
212.211651
 20
143.339027
 40
1.099999
 50
-30.000346
 51
29.999656
  0
ARC
  8
CSLAYER1
  6
CONTINUOUS
 62
     6
 10
212.211666
 20
144.439018
 40
1.099999
 50
-30.000346
 51
29.999656
  0
ARC
  8
CSLAYER1
  6
CONTINUOUS
 62
     6
 10
214.116924
 20
144.439002
 40
1.099999
 50
149.999656
 51
209.999658
  0
LINE
  8
CSLAYER1
  6
CONTINUOUS
 62
     6
 10
204.362651
 20
140.704017
 11
206.569317
 21
141.918617
  0
LINE
  8
CSLAYER1
  6
CONTINUOUS
 62
     6
 10
204.072246
 20
141.231574
 11
206.315166
 21
142.407508
  0
LINE
  8
CSLAYER1
  6
CONTINUOUS
 62
     6
 10
203.798137
 20
141.754432
 11
206.108196
 21
142.805641
  0
LINE
  8
CSLAYER1
  6
CONTINUOUS
 62
     6
 10
206.911113
 20
141.260963
 11
205.896465
 21
143.213050
  0
ARC
  8
CSLAYER1
  6
CONTINUOUS
 62
     6
 10
217.029094
 20
144.439079
 40
1.100006
 50
149.999997
 51
209.999999
  0
ARC
  8
CSLAYER1
  6
CONTINUOUS
 62
     6
 10
217.029094
 20
143.339073
 40
1.100006
 50
149.999997
 51
209.999999
  0
ARC
  8
CSLAYER1
  6
CONTINUOUS
 62
     6
 10
215.123821
 20
143.339073
 40
1.100006
 50
-30.000011
 51
29.999977
  0
LINE
  8
CSLAYER1
  6
CONTINUOUS
 62
     6
 10
216.076458
 20
144.989051
 11
219.599895
 21
144.989051
  0
LINE
  8
CSLAYER1
  6
CONTINUOUS
 62
     6
 10
216.076458
 20
147.189063
 11
219.599895
 21
147.189063
  0
LINE
  8
CSLAYER1
  6
CONTINUOUS
 62
     6
 10
216.076458
 20
142.789039
 11
219.599895
 21
142.789039
  0
LINE
  8
CSLAYER1
  6
CENTER
 62
     3
 10
183.540462
 20
136.989046
 11
205.849895
 21
136.989051
  0
ARC
  8
CSLAYER1
  6
CONTINUOUS
 62
     6
 10
194.599849
 20
137.869051
 40
0.880000
 50
-89.999999
 51
90.000019
  0
ARC
  8
CSLAYER1
  6
CONTINUOUS
 62
     6
 10
194.599849
 20
136.109041
 40
0.880000
 50
-89.999999
 51
90.000019
  0
ARC
  8
CSLAYER1
  6
CONTINUOUS
 62
     6
 10
190.451351
 20
149.596133
 40
12.607053
 50
242.536193
 51
270.000110
  0
ARC
  8
CSLAYER1
  6
CONTINUOUS
 62
     6
 10
190.451351
 20
149.596133
 40
10.847068
 50
242.536193
 51
270.000083
  0
ARC
  8
CSLAYER1
  6
CONTINUOUS
 62
     6
 10
189.689251
 20
137.429049
 40
0.879999
 50
-29.999656
 51
30.000332
  0
ARC
  8
CSLAYER1
  6
CONTINUOUS
 62
     6
 10
189.689251
 20
138.309054
 40
0.879999
 50
-29.999656
 51
30.000332
  0
ARC
  8
CSLAYER1
  6
CONTINUOUS
 62
     6
 10
191.213451
 20
138.309054
 40
0.879999
 50
150.000353
 51
210.000354
  0
LINE
  8
CSLAYER1
  6
CONTINUOUS
 62
     6
 10
183.253383
 20
140.503298
 11
185.175380
 21
139.445406
  0
LINE
  8
CSLAYER1
  6
CONTINUOUS
 62
     6
 10
183.028072
 20
140.073519
 11
184.972072
 21
139.054262
  0
LINE
  8
CSLAYER1
  6
CONTINUOUS
 62
     6
 10
182.828853
 20
139.635714
 11
184.806514
 21
138.735750
  0
LINE
  8
CSLAYER1
  6
CONTINUOUS
 62
     6
 10
185.448818
 20
139.971499
 11
184.637111
 21
138.409853
  0
ARC
  8
CSLAYER1
  6
CONTINUOUS
 62
     6
 10
192.543224
 20
138.309054
 40
0.880005
 50
149.999997
 51
209.999999
  0
ARC
  8
CSLAYER1
  6
CONTINUOUS
 62
     6
 10
192.543224
 20
137.429049
 40
0.880005
 50
149.999997
 51
209.999999
  0
ARC
  8
CSLAYER1
  6
CONTINUOUS
 62
     6
 10
191.019024
 20
137.429049
 40
0.880005
 50
-30.000011
 51
29.999977
  0
ARC
  8
CSLAYER1
  6
CONTINUOUS
 62
     6
 10
190.451351
 20
124.381960
 40
12.607053
 50
89.999900
 51
117.463817
  0
ARC
  8
CSLAYER1
  6
CONTINUOUS
 62
     6
 10
190.451351
 20
124.381960
 40
10.847068
 50
89.999927
 51
117.463817
  0
ARC
  8
CSLAYER1
  6
CONTINUOUS
 62
     6
 10
189.689251
 20
135.669039
 40
0.879999
 50
-30.000346
 51
29.999656
  0
ARC
  8
CSLAYER1
  6
CONTINUOUS
 62
     6
 10
189.689251
 20
136.549044
 40
0.879999
 50
-30.000346
 51
29.999656
  0
ARC
  8
CSLAYER1
  6
CONTINUOUS
 62
     6
 10
191.213451
 20
136.549044
 40
0.879999
 50
149.999656
 51
209.999658
  0
LINE
  8
CSLAYER1
  6
CONTINUOUS
 62
     6
 10
183.410030
 20
133.561007
 11
185.175380
 21
134.532686
  0
LINE
  8
CSLAYER1
  6
CONTINUOUS
 62
     6
 10
183.177730
 20
133.983065
 11
184.972072
 21
134.923830
  0
LINE
  8
CSLAYER1
  6
CONTINUOUS
 62
     6
 10
182.958431
 20
134.401339
 11
184.806514
 21
135.242342
  0
LINE
  8
CSLAYER1
  6
CONTINUOUS
 62
     6
 10
185.448818
 20
134.006594
 11
184.637111
 21
135.568239
  0
ARC
  8
CSLAYER1
  6
CONTINUOUS
 62
     6
 10
192.543224
 20
136.549044
 40
0.880005
 50
149.999997
 51
209.999999
  0
ARC
  8
CSLAYER1
  6
CONTINUOUS
 62
     6
 10
192.543224
 20
135.669039
 40
0.880005
 50
149.999997
 51
209.999999
  0
ARC
  8
CSLAYER1
  6
CONTINUOUS
 62
     6
 10
191.019024
 20
135.669039
 40
0.880005
 50
-30.000011
 51
29.999977
  0
LINE
  8
CSLAYER1
  6
CONTINUOUS
 62
     6
 10
191.781124
 20
136.989046
 11
194.599849
 21
136.989046
  0
LINE
  8
CSLAYER1
  6
CONTINUOUS
 62
     6
 10
191.781124
 20
138.749056
 11
194.599849
 21
138.749056
  0
LINE
  8
CSLAYER1
  6
CONTINUOUS
 62
     6
 10
191.781124
 20
135.229037
 11
194.599849
 21
135.229037
  0
LINE
  8
CSLAYER1
  6
CENTER
 62
     3
 10
194.599849
 20
144.208620
 11
194.599849
 21
129.600130
  0
ARC
  8
CSLAYER1
  6
CONTINUOUS
 62
     6
 10
194.599849
 20
136.989041
 40
5.250000
 50
-160.080973
 51
160.080864
  0
ARC
  8
CSLAYER1
  6
CONTINUOUS
 62
     6
 10
194.599849
 20
136.989041
 40
2.500000
 50
-135.251029
 51
135.250717
  0
ARC
  8
CSLAYER1
  6
CONTINUOUS
 62
     6
 10
194.599849
 20
136.989041
 40
5.250000
 50
179.473624
 51
180.526271
  0
LINE
  8
CSLAYER1
  6
DASHED
 62
     3
 10
238.967266
 20
118.142253
 11
274.967266
 21
118.142253
  0
LINE
  8
CSLAYER1
  6
DASHED
 62
     3
 10
237.967266
 20
170.835821
 11
237.967266
 21
119.142253
  0
LINE
  8
CSLAYER1
  6
DASHED
 62
     3
 10
275.967266
 20
170.835821
 11
275.967266
 21
119.142253
  0
TEXT
  8
CSLAYER1
 62
     3
 10
255.746170
 20
150.487427
 40
3.500000
 41
1.125000
  1
N P
 50
-90.000000
 51
10.000000
  7
JX_FONT
 72
     5
 11
255.746170
 21
139.987427
  0
ARC
  8
CSLAYER1
  6
DASHED
 62
     3
 10
238.967266
 20
119.142253
 40
1.000000
 50
180.000005
 51
270.000001
  0
ARC
  8
CSLAYER1
  6
DASHED
 62
     3
 10
274.967266
 20
119.142253
 40
1.000000
 50
270.000001
 51
359.942691
  0
LINE
  8
CSLAYER1
  6
DASHED
 62
     3
 10
238.967266
 20
171.835821
 11
274.967266
 21
171.835821
  0
ARC
  8
CSLAYER1
  6
DASHED
 62
     3
 10
238.967266
 20
170.835821
 40
1.000000
 50
90.000009
 51
180.000005
  0
ARC
  8
CSLAYER1
  6
DASHED
 62
     3
 10
274.967266
 20
170.835821
 40
1.000000
 50
0.057319
 51
90.000009
  0
LINE
  8
CSLAYER1
  6
CONTINUOUS
 62
     6
 10
105.758510
 20
148.229102
 11
108.779509
 21
150.005946
  0
LINE
  8
CSLAYER1
  6
CONTINUOUS
 62
     6
 10
106.012157
 20
147.741086
 11
109.117715
 21
149.355263
  0
LINE
  8
CSLAYER1
  6
CONTINUOUS
 62
     6
 10
106.521422
 20
147.369377
 11
109.455921
 21
148.704580
  0
LINE
  8
CSLAYER1
  6
CONTINUOUS
 62
     6
 10
105.758511
 20
141.748979
 11
108.779511
 21
139.972135
  0
LINE
  8
CSLAYER1
  6
CONTINUOUS
 62
     6
 10
106.012159
 20
142.236995
 11
109.117716
 21
140.622819
  0
LINE
  8
CSLAYER1
  6
CONTINUOUS
 62
     6
 10
106.096615
 20
142.399467
 11
105.504873
 21
141.260998
  0
LINE
  8
CSLAYER1
  6
CONTINUOUS
 62
     6
 10
106.180833
 20
147.416584
 11
105.504859
 21
148.717107
  0
ARC
  8
CSLAYER1
  6
CONTINUOUS
 62
     6
 10
99.251565
 20
160.748043
 40
15.759004
 50
274.063997
 51
282.084441
  0
ARC
  8
CSLAYER1
  6
CONTINUOUS
 62
     6
 10
99.251565
 20
160.748043
 40
13.559023
 50
275.156199
 51
297.464006
  0
ARC
  8
CSLAYER1
  6
CONTINUOUS
 62
     6
 10
99.251738
 20
129.230060
 40
15.758933
 50
77.916194
 51
85.936489
  0
ARC
  8
CSLAYER1
  6
CONTINUOUS
 62
     6
 10
99.251738
 20
129.230060
 40
13.558951
 50
62.536637
 51
84.844607
  0
ARC
  8
CSLAYER1
  6
CENTER
 62
     3
 10
61.099885
 20
144.989039
 40
23.000000
 50
26.106555
 51
53.525640
  0
LINE
  8
CSLAYER1
  6
CONTINUOUS
 62
     6
 10
77.575852
 20
160.540501
 11
77.958913
 21
160.921111
  0
LINE
  8
CSLAYER1
  6
CONTINUOUS
 62
     6
 10
79.486256
 20
160.916209
 11
79.866866
 21
160.533148
  0
LINE
  8
CSLAYER1
  6
CONTINUOUS
 62
     6
 10
79.478902
 20
158.625195
 11
79.861964
 21
159.005805
  0
LINE
  8
CSLAYER1
  6
CONTINUOUS
 62
     6
 10
77.570950
 20
159.013158
 11
77.951560
 21
158.630097
  0
ARC
  8
CSLAYER1
  6
CONTINUOUS
 62
     6
 10
76.809729
 20
159.779281
 40
1.080000
 50
-45.183902
 51
44.816098
  0
ARC
  8
CSLAYER1
  6
CONTINUOUS
 62
     6
 10
78.725036
 20
161.682331
 40
1.080000
 50
224.816098
 51
314.816098
  0
ARC
  8
CSLAYER1
  6
CONTINUOUS
 62
     6
 10
80.628086
 20
159.767025
 40
1.080000
 50
134.816098
 51
224.816098
  0
ARC
  8
CSLAYER1
  6
CONTINUOUS
 62
     6
 10
78.712780
 20
157.863974
 40
1.080000
 50
44.816098
 51
134.816098
  0
CIRCLE
  8
CSLAYER1
  6
CONTINUOUS
 62
     6
 10
78.718908
 20
159.773153
 40
2.500000
  0
LINE
  8
CSLAYER1
  6
CENTER
 62
     3
 10
74.513068
 20
156.244034
 11
82.924566
 21
163.302119
  0
ARC
  8
CSLAYER1
  6
CENTER
 62
     3
 10
61.099888
 20
144.989039
 40
23.000000
 50
206.106555
 51
233.525640
  0
LINE
  8
CSLAYER1
  6
CONTINUOUS
 62
     6
 10
44.623921
 20
129.437576
 11
44.240860
 21
129.056966
  0
LINE
  8
CSLAYER1
  6
CONTINUOUS
 62
     6
 10
42.713517
 20
129.061868
 11
42.332907
 21
129.444930
  0
LINE
  8
CSLAYER1
  6
CONTINUOUS
 62
     6
 10
42.720871
 20
131.352883
 11
42.337809
 21
130.972273
  0
LINE
  8
CSLAYER1
  6
CONTINUOUS
 62
     6
 10
44.628824
 20
130.964919
 11
44.248213
 21
131.347980
  0
ARC
  8
CSLAYER1
  6
CONTINUOUS
 62
     6
 10
45.390044
 20
130.198796
 40
1.080000
 50
134.816098
 51
224.816098
  0
ARC
  8
CSLAYER1
  6
CONTINUOUS
 62
     6
 10
43.474737
 20
128.295746
 40
1.080000
 50
44.816098
 51
134.816098
  0
ARC
  8
CSLAYER1
  6
CONTINUOUS
 62
     6
 10
41.571687
 20
130.211052
 40
1.080000
 50
-45.183902
 51
44.816098
  0
ARC
  8
CSLAYER1
  6
CONTINUOUS
 62
     6
 10
43.486993
 20
132.114103
 40
1.080000
 50
224.816098
 51
314.816098
  0
CIRCLE
  8
CSLAYER1
  6
CONTINUOUS
 62
     6
 10
43.480865
 20
130.204924
 40
2.500000
  0
LINE
  8
CSLAYER1
  6
CENTER
 62
     3
 10
47.686705
 20
133.734043
 11
39.275207
 21
126.675958
  0
LINE
  8
CSLAYER1
  6
CONTINUOUS
 62
     6
 10
136.599849
 20
266.836150
 11
136.599849
 21
215.836150
  0
LINE
  8
CSLAYER1
  6
CONTINUOUS
 62
     6
 10
153.099849
 20
212.335881
 11
153.099849
 21
206.997648
  0
LINE
  8
CSLAYER1
  6
CONTINUOUS
 62
     6
 10
158.099849
 20
212.335887
 11
158.099849
 21
206.997648
  0
ARC
  8
CSLAYER1
  6
CONTINUOUS
 62
     6
 10
141.831662
 20
203.234025
 40
11.353822
 50
-34.633120
 51
7.041553
  0
ARC
  8
CSLAYER1
  6
CONTINUOUS
 62
     6
 10
141.831662
 20
203.234025
 40
16.327621
 50
-34.633093
 51
4.890180
  0
LINE
  8
CSLAYER1
  6
CONTINUOUS
 62
     6
 10
151.173688
 20
196.781434
 11
155.266171
 21
193.954728
  0
ARC
  8
CSLAYER1
  6
CONTINUOUS
 62
     6
 10
154.349849
 20
209.162718
 40
2.500000
 50
240.000007
 51
299.999995
  0
ARC
  8
CSLAYER1
  6
CONTINUOUS
 62
     6
 10
156.849849
 20
209.162718
 40
2.500000
 50
240.000007
 51
299.999995
  0
ARC
  8
CSLAYER1
  6
CONTINUOUS
 62
     6
 10
156.849849
 20
204.832579
 40
2.500000
 50
60.000002
 51
120.000003
  0
ARC
  8
CSLAYER1
  6
CONTINUOUS
 62
     6
 10
156.849849
 20
202.460829
 40
2.500000
 50
59.999995
 51
119.999990
  0
ARC
  8
CSLAYER1
  6
CONTINUOUS
 62
     6
 10
154.349849
 20
202.460829
 40
2.500000
 50
59.999995
 51
119.999990
  0
ARC
  8
CSLAYER1
  6
CONTINUOUS
 62
     6
 10
154.349849
 20
206.790968
 40
2.500000
 50
240.000007
 51
299.999995
  0
LINE
  8
CSLAYER1
  6
CONTINUOUS
 62
     6
 10
151.855756
 20
196.310304
 11
149.496197
 21
194.021394
  0
LINE
  8
CSLAYER1
  6
CONTINUOUS
 62
     6
 10
152.537823
 20
195.839189
 11
150.381512
 21
193.300050
  0
LINE
  8
CSLAYER1
  6
CONTINUOUS
 62
     6
 10
153.219922
 20
195.368074
 11
151.365170
 21
192.742631
  0
LINE
  8
CSLAYER1
  6
CONTINUOUS
 62
     6
 10
153.901990
 20
194.896959
 11
152.217679
 21
191.890123
  0
LINE
  8
CSLAYER1
  6
CONTINUOUS
 62
     6
 10
154.584088
 20
194.425844
 11
153.365292
 21
191.496660
  0
LINE
  8
CSLAYER1
  6
CONTINUOUS
 62
     6
 10
149.725720
 20
193.562349
 11
148.906018
 21
193.004945
  0
LINE
  8
CSLAYER1
  6
CONTINUOUS
 62
     6
 10
150.053616
 20
193.529573
 11
149.069958
 21
192.644273
  0
LINE
  8
CSLAYER1
  6
CONTINUOUS
 62
     6
 10
150.676602
 20
193.004945
 11
149.758527
 21
192.218019
  0
LINE
  8
CSLAYER1
  6
CONTINUOUS
 62
     6
 10
150.971707
 20
192.808214
 11
150.250348
 21
191.988496
  0
LINE
  8
CSLAYER1
  6
CONTINUOUS
 62
     6
 10
151.988156
 20
192.349168
 11
151.168439
 21
191.398286
  0
LINE
  8
CSLAYER1
  6
CONTINUOUS
 62
     6
 10
152.775098
 20
191.595033
 11
152.447201
 21
190.644136
  0
LINE
  8
CSLAYER1
  6
CENTER
 62
     3
 10
155.599849
 20
200.893558
 11
155.599849
 21
217.330038
  0
LINE
  8
CSLAYER1
  6
CONTINUOUS
 62
     6
 10
282.599849
 20
22.641919
 11
282.599849
 21
84.641919
  0
LINE
  8
CSLAYER1
  6
CONTINUOUS
 62
     6
 10
230.599849
 20
22.641919
 11
230.599849
 21
84.641919
  0
LINE
  8
CSLAYER1
  6
CENTER
 62
     3
 10
219.599849
 20
40.641919
 11
219.599849
 21
102.213421
  0
CIRCLE
  8
CSLAYER1
  6
CONTINUOUS
 62
     6
 10
219.599849
 20
53.641919
 40
8.000000
  0
CIRCLE
  8
CSLAYER1
  6
CONTINUOUS
 62
     6
 10
219.599849
 20
53.641919
 40
6.000000
  0
CIRCLE
  8
CSLAYER1
  6
CONTINUOUS
 62
     3
 10
219.599849
 20
53.641919
 40
5.500000
  0
LINE
  8
CSLAYER1
  6
CONTINUOUS
 62
     6
 10
222.349849
 20
52.841916
 11
216.849849
 21
52.841916
  0
LINE
  8
CSLAYER1
  6
CONTINUOUS
 62
     6
 10
222.349849
 20
54.441922
 11
216.849849
 21
54.441922
  0
LINE
  8
CSLAYER1
  6
CONTINUOUS
 62
     6
 10
216.849849
 20
52.841916
 11
216.849849
 21
54.441922
  0
LINE
  8
CSLAYER1
  6
CONTINUOUS
 62
     6
 10
222.349849
 20
52.841916
 11
222.349849
 21
54.441922
  0
ARC
  8
CSLAYER1
  6
CONTINUOUS
 62
     6
 10
204.941005
 20
92.077572
 40
15.758816
 50
0.057309
 51
27.463798
  0
ARC
  8
CSLAYER1
  6
CONTINUOUS
 62
     6
 10
204.941005
 20
92.077572
 40
13.558834
 50
0.057309
 51
27.463798
  0
ARC
  8
CSLAYER1
  6
CONTINUOUS
 62
     6
 10
220.149837
 20
93.030163
 40
1.099999
 50
239.999655
 51
299.999650
  0
ARC
  8
CSLAYER1
  6
CONTINUOUS
 62
     6
 10
219.049839
 20
93.030179
 40
1.099999
 50
239.999655
 51
299.999650
  0
ARC
  8
CSLAYER1
  6
CONTINUOUS
 62
     6
 10
219.049831
 20
91.124920
 40
1.099999
 50
59.999650
 51
119.999638
  0
LINE
  8
CSLAYER1
  6
CONTINUOUS
 62
     6
 10
217.629406
 20
98.672528
 11
216.012249
 21
101.610600
  0
LINE
  8
CSLAYER1
  6
CONTINUOUS
 62
     6
 10
218.118328
 20
98.926663
 11
216.541546
 21
101.934079
  0
LINE
  8
CSLAYER1
  6
CONTINUOUS
 62
     6
 10
218.516460
 20
99.133618
 11
217.114971
 21
102.213421
  0
LINE
  8
CSLAYER1
  6
CONTINUOUS
 62
     6
 10
216.971782
 20
98.330731
 11
218.923839
 21
99.345349
  0
ARC
  8
CSLAYER1
  6
CONTINUOUS
 62
     6
 10
234.258693
 20
92.077572
 40
15.758816
 50
152.536132
 51
157.577932
  0
ARC
  8
CSLAYER1
  6
CONTINUOUS
 62
     6
 10
234.258693
 20
92.077572
 40
13.558834
 50
152.536132
 51
180.000022
  0
LINE
  8
CSLAYER1
  6
CONTINUOUS
 62
     6
 10
221.570293
 20
98.672558
 11
223.187465
 21
101.610615
  0
LINE
  8
CSLAYER1
  6
CONTINUOUS
 62
     6
 10
221.081371
 20
98.926678
 11
222.658153
 21
101.934079
  0
LINE
  8
CSLAYER1
  6
CONTINUOUS
 62
     6
 10
220.683239
 20
99.133618
 11
222.084743
 21
102.213437
  0
LINE
  8
CSLAYER1
  6
CONTINUOUS
 62
     6
 10
222.227916
 20
98.330746
 11
220.275859
 21
99.345364
  0
ARC
  8
CSLAYER1
  6
CONTINUOUS
 62
     6
 10
219.049862
 20
88.212704
 40
1.100006
 50
60.000005
 51
119.999993
  0
ARC
  8
CSLAYER1
  6
CONTINUOUS
 62
     6
 10
220.149868
 20
88.212704
 40
1.100006
 50
60.000005
 51
119.999993
  0
ARC
  8
CSLAYER1
  6
CONTINUOUS
 62
     6
 10
220.149868
 20
90.117978
 40
1.100006
 50
239.999997
 51
299.999998
  0
LINE
  8
CSLAYER1
  6
CONTINUOUS
 62
     6
 10
220.699855
 20
83.469113
 11
220.699855
 21
89.165341
  0
LINE
  8
CSLAYER1
  6
CONTINUOUS
 62
     6
 10
218.499859
 20
83.430707
 11
218.499859
 21
89.165341
  0
LINE
  8
CSLAYER1
  6
CONTINUOUS
 62
     6
 10
282.599849
 20
22.641919
 11
230.599849
 21
22.641919
  0
LINE
  8
CSLAYER1
  6
CONTINUOUS
 62
     6
 10
282.599849
 20
84.641919
 11
230.599849
 21
84.641919
  0
LINE
  8
CSLAYER1
  6
CENTER
 62
     3
 10
133.599849
 20
53.641916
 11
321.099859
 21
53.641933
  0
LINE
  8
CSLAYER1
  6
CONTINUOUS
 62
     3
 10
237.599865
 20
22.641919
 11
237.599865
 21
37.141949
  0
LINE
  8
CSLAYER1
  6
CONTINUOUS
 62
     3
 10
238.599865
 20
38.141949
 11
274.599849
 21
38.141949
  0
ARC
  8
CSLAYER1
  6
CONTINUOUS
 62
     3
 10
238.599865
 20
37.141949
 40
1.000000
 50
89.999999
 51
179.999995
  0
TEXT
  8
CSLAYER1
 62
     3
 10
254.137589
 20
35.641949
 40
3.500000
 41
1.125000
  1
N P
 50
270.000000
 51
10.000000
  7
JX_FONT
 72
     5
 11
254.137589
 21
25.141949
  0
LINE
  8
CSLAYER1
  6
CONTINUOUS
 62
     3
 10
275.599849
 20
22.641919
 11
275.599849
 21
37.141949
  0
ARC
  8
CSLAYER1
  6
CONTINUOUS
 62
     3
 10
274.599849
 20
37.141949
 40
1.000000
 50
0.000005
 51
90.000001
  0
LINE
  8
CSLAYER1
  6
CONTINUOUS
 62
     6
 10
292.599849
 20
21.641929
 11
292.599849
 21
85.641929
  0
LINE
  8
CSLAYER1
  6
CONTINUOUS
 62
     6
 10
294.599849
 20
38.641929
 11
294.599849
 21
68.641929
  0
LINE
  8
CSLAYER1
  6
CONTINUOUS
 62
     6
 10
319.099849
 20
49.641929
 11
319.099849
 21
57.641929
  0
LINE
  8
CSLAYER1
  6
CONTINUOUS
 62
     6
 10
294.599849
 20
49.641929
 11
319.099849
 21
49.641929
  0
LINE
  8
CSLAYER1
  6
CONTINUOUS
 62
     6
 10
294.599849
 20
57.641929
 11
319.099849
 21
57.641929
  0
LINE
  8
CSLAYER1
  6
CONTINUOUS
 62
     6
 10
283.599849
 20
23.641929
 11
282.599849
 21
23.641929
  0
LINE
  8
CSLAYER1
  6
CONTINUOUS
 62
     6
 10
282.599849
 20
83.641929
 11
283.599849
 21
83.641929
  0
LINE
  8
CSLAYER1
  6
CONTINUOUS
 62
     6
 10
292.599849
 20
38.641929
 11
294.599849
 21
38.641929
  0
LINE
  8
CSLAYER1
  6
CONTINUOUS
 62
     6
 10
292.599849
 20
68.641929
 11
294.599849
 21
68.641929
  0
LINE
  8
CSLAYER1
  6
CONTINUOUS
 62
     6
 10
283.599849
 20
23.641929
 11
283.599849
 21
83.641929
  0
LINE
  8
CSLAYER1
  6
CONTINUOUS
 62
     6
 10
292.599849
 20
21.641929
 11
285.599849
 21
21.641929
  0
LINE
  8
CSLAYER1
  6
CONTINUOUS
 62
     6
 10
292.599849
 20
85.641929
 11
285.599849
 21
85.641929
  0
ARC
  8
CSLAYER1
  6
CONTINUOUS
 62
     6
 10
285.599849
 20
23.641929
 40
2.000000
 50
180.000000
 51
270.000000
  0
ARC
  8
CSLAYER1
  6
CONTINUOUS
 62
     6
 10
285.599849
 20
83.641929
 40
2.000000
 50
90.000000
 51
180.000000
  0
LINE
  8
CSLAYER1
  6
CENTER
 62
     3
 10
280.599849
 20
79.641933
 11
294.599849
 21
79.641933
  0
LINE
  8
CSLAYER1
  6
CENTER
 62
     3
 10
280.599856
 20
27.641922
 11
294.599856
 21
27.641926
  0
LINE
  8
CSLAYER1
  6
CONTINUOUS
 62
     6
 10
202.599849
 20
24.130684
 11
230.599849
 21
23.641923
  0
LINE
  8
CSLAYER1
  6
CONTINUOUS
 62
     6
 10
202.599849
 20
83.153161
 11
230.599849
 21
83.641923
  0
LINE
  8
CSLAYER1
  6
CONTINUOUS
 62
     6
 10
202.599849
 20
23.641907
 11
202.599849
 21
83.641907
  0
LINE
  8
CSLAYER1
  6
CONTINUOUS
 62
     6
 10
168.599849
 20
83.641907
 11
168.599849
 21
23.641907
  0
LINE
  8
CSLAYER1
  6
CONTINUOUS
 62
     6
 10
161.599849
 20
23.641907
 11
161.599849
 21
83.641907
  0
LINE
  8
CSLAYER1
  6
CONTINUOUS
 62
     6
 10
161.599849
 20
23.641907
 11
202.599849
 21
23.641907
  0
LINE
  8
CSLAYER1
  6
CONTINUOUS
 62
     6
 10
161.599849
 20
83.641907
 11
190.684375
 21
83.641907
  0
LINE
  8
CSLAYER1
  6
CONTINUOUS
 62
     6
 10
136.599849
 20
28.141918
 11
136.599849
 21
79.141918
  0
LINE
  8
CSLAYER1
  6
CONTINUOUS
 62
     6
 10
198.515274
 20
83.641922
 11
202.602503
 21
83.641922
  0
LINE
  8
CSLAYER1
  6
CENTER
 62
     3
 10
194.599849
 20
77.398857
 11
194.599849
 21
99.603782
  0
LINE
  8
CSLAYER1
  6
CONTINUOUS
 62
     6
 10
195.479900
 20
81.706669
 11
195.479900
 21
89.165305
  0
LINE
  8
CSLAYER1
  6
CONTINUOUS
 62
     6
 10
193.719890
 20
81.706656
 11
193.719890
 21
89.165305
  0
ARC
  8
CSLAYER1
  6
CONTINUOUS
 62
     6
 10
182.872829
 20
91.495109
 40
12.607053
 50
0.057309
 51
27.463798
  0
ARC
  8
CSLAYER1
  6
CONTINUOUS
 62
     6
 10
182.872829
 20
91.495109
 40
10.847068
 50
0.057309
 51
27.463798
  0
ARC
  8
CSLAYER1
  6
CONTINUOUS
 62
     6
 10
195.039882
 20
92.257179
 40
0.879999
 50
239.999655
 51
299.999650
  0
ARC
  8
CSLAYER1
  6
CONTINUOUS
 62
     6
 10
194.159877
 20
92.257179
 40
0.879999
 50
239.999655
 51
299.999650
  0
ARC
  8
CSLAYER1
  6
CONTINUOUS
 62
     6
 10
194.159877
 20
90.732978
 40
0.879999
 50
59.999650
 51
119.999638
  0
LINE
  8
CSLAYER1
  6
CONTINUOUS
 62
     6
 10
193.023525
 20
96.771064
 11
191.729793
 21
99.121528
  0
LINE
  8
CSLAYER1
  6
CONTINUOUS
 62
     6
 10
193.414669
 20
96.974372
 11
192.153240
 21
99.380302
  0
LINE
  8
CSLAYER1
  6
CONTINUOUS
 62
     6
 10
193.733181
 20
97.139930
 11
192.611980
 21
99.603767
  0
LINE
  8
CSLAYER1
  6
CONTINUOUS
 62
     6
 10
192.497432
 20
96.497627
 11
194.059078
 21
97.309318
  0
ARC
  8
CSLAYER1
  6
CONTINUOUS
 62
     6
 10
206.326961
 20
91.495109
 40
12.607053
 50
152.536132
 51
158.465829
  0
ARC
  8
CSLAYER1
  6
CONTINUOUS
 62
     6
 10
206.326961
 20
91.495109
 40
10.847068
 50
152.536132
 51
180.000022
  0
LINE
  8
CSLAYER1
  6
CONTINUOUS
 62
     6
 10
196.176235
 20
96.771079
 11
197.469997
 21
99.121528
  0
LINE
  8
CSLAYER1
  6
CONTINUOUS
 62
     6
 10
195.785091
 20
96.974372
 11
197.046535
 21
99.380302
  0
LINE
  8
CSLAYER1
  6
CONTINUOUS
 62
     6
 10
195.466594
 20
97.139930
 11
196.587810
 21
99.603782
  0
LINE
  8
CSLAYER1
  6
CONTINUOUS
 62
     6
 10
196.702327
 20
96.497627
 11
195.140682
 21
97.309333
  0
ARC
  8
CSLAYER1
  6
CONTINUOUS
 62
     6
 10
194.159893
 20
88.403205
 40
0.880005
 50
60.000005
 51
119.999993
  0
ARC
  8
CSLAYER1
  6
CONTINUOUS
 62
     6
 10
195.039898
 20
88.403205
 40
0.880005
 50
60.000005
 51
119.999993
  0
ARC
  8
CSLAYER1
  6
CONTINUOUS
 62
     6
 10
195.039898
 20
89.927406
 40
0.880005
 50
239.999997
 51
299.999998
  0
LINE
  8
CSLAYER1
  6
CENTER
 62
     3
 10
186.349849
 20
82.642662
 11
202.849849
 21
82.642662
  0
POLYLINE
  8
CSLAYER1
  6
CONTINUOUS
 62
     6
 66
     1
 10
0.0
 20
0.0
 30
0.0
  0
VERTEX
  8
CSLAYER1
  6
CONTINUOUS
 62
     6
 10
189.349849
 20
82.642665
 30
0.0
  0
VERTEX
  8
CSLAYER1
  6
CONTINUOUS
 62
     6
 10
189.369827
 20
82.424776
 30
0.0
  0
VERTEX
  8
CSLAYER1
  6
CONTINUOUS
 62
     6
 10
189.429607
 20
82.208545
 30
0.0
  0
VERTEX
  8
CSLAYER1
  6
CONTINUOUS
 62
     6
 10
189.528737
 20
81.995618
 30
0.0
  0
VERTEX
  8
CSLAYER1
  6
CONTINUOUS
 62
     6
 10
189.666461
 20
81.787615
 30
0.0
  0
VERTEX
  8
CSLAYER1
  6
CONTINUOUS
 62
     6
 10
189.841730
 20
81.586119
 30
0.0
  0
VERTEX
  8
CSLAYER1
  6
CONTINUOUS
 62
     6
 10
190.053212
 20
81.392665
 30
0.0
  0
VERTEX
  8
CSLAYER1
  6
CONTINUOUS
 62
     6
 10
190.299297
 20
81.208724
 30
0.0
  0
VERTEX
  8
CSLAYER1
  6
CONTINUOUS
 62
     6
 10
190.578111
 20
81.035696
 30
0.0
  0
VERTEX
  8
CSLAYER1
  6
CONTINUOUS
 62
     6
 10
190.887533
 20
80.874897
 30
0.0
  0
VERTEX
  8
CSLAYER1
  6
CONTINUOUS
 62
     6
 10
191.225209
 20
80.727553
 30
0.0
  0
VERTEX
  8
CSLAYER1
  6
CONTINUOUS
 62
     6
 10
191.588567
 20
80.594784
 30
0.0
  0
VERTEX
  8
CSLAYER1
  6
CONTINUOUS
 62
     6
 10
191.974843
 20
80.477600
 30
0.0
  0
VERTEX
  8
CSLAYER1
  6
CONTINUOUS
 62
     6
 10
192.381097
 20
80.376894
 30
0.0
  0
VERTEX
  8
CSLAYER1
  6
CONTINUOUS
 62
     6
 10
192.804237
 20
80.293432
 30
0.0
  0
VERTEX
  8
CSLAYER1
  6
CONTINUOUS
 62
     6
 10
193.241042
 20
80.227848
 30
0.0
  0
VERTEX
  8
CSLAYER1
  6
CONTINUOUS
 62
     6
 10
193.688189
 20
80.180643
 30
0.0
  0
VERTEX
  8
CSLAYER1
  6
CONTINUOUS
 62
     6
 10
194.142274
 20
80.152175
 30
0.0
  0
VERTEX
  8
CSLAYER1
  6
CONTINUOUS
 62
     6
 10
194.599842
 20
80.142662
 30
0.0
  0
VERTEX
  8
CSLAYER1
  6
CONTINUOUS
 62
     6
 10
195.057410
 20
80.152175
 30
0.0
  0
VERTEX
  8
CSLAYER1
  6
CONTINUOUS
 62
     6
 10
195.511495
 20
80.180642
 30
0.0
  0
VERTEX
  8
CSLAYER1
  6
CONTINUOUS
 62
     6
 10
195.958642
 20
80.227846
 30
0.0
  0
VERTEX
  8
CSLAYER1
  6
CONTINUOUS
 62
     6
 10
196.395448
 20
80.293429
 30
0.0
  0
VERTEX
  8
CSLAYER1
  6
CONTINUOUS
 62
     6
 10
196.818588
 20
80.376891
 30
0.0
  0
VERTEX
  8
CSLAYER1
  6
CONTINUOUS
 62
     6
 10
197.224843
 20
80.477597
 30
0.0
  0
VERTEX
  8
CSLAYER1
  6
CONTINUOUS
 62
     6
 10
197.611119
 20
80.594780
 30
0.0
  0
VERTEX
  8
CSLAYER1
  6
CONTINUOUS
 62
     6
 10
197.974479
 20
80.727548
 30
0.0
  0
VERTEX
  8
CSLAYER1
  6
CONTINUOUS
 62
     6
 10
198.312155
 20
80.874892
 30
0.0
  0
VERTEX
  8
CSLAYER1
  6
CONTINUOUS
 62
     6
 10
198.621578
 20
81.035690
 30
0.0
  0
VERTEX
  8
CSLAYER1
  6
CONTINUOUS
 62
     6
 10
198.900393
 20
81.208718
 30
0.0
  0
VERTEX
  8
CSLAYER1
  6
CONTINUOUS
 62
     6
 10
199.146479
 20
81.392659
 30
0.0
  0
VERTEX
  8
CSLAYER1
  6
CONTINUOUS
 62
     6
 10
199.357962
 20
81.586113
 30
0.0
  0
VERTEX
  8
CSLAYER1
  6
CONTINUOUS
 62
     6
 10
199.533233
 20
81.787608
 30
0.0
  0
VERTEX
  8
CSLAYER1
  6
CONTINUOUS
 62
     6
 10
199.670958
 20
81.995611
 30
0.0
  0
VERTEX
  8
CSLAYER1
  6
CONTINUOUS
 62
     6
 10
199.770089
 20
82.208538
 30
0.0
  0
VERTEX
  8
CSLAYER1
  6
CONTINUOUS
 62
     6
 10
199.829871
 20
82.424769
 30
0.0
  0
VERTEX
  8
CSLAYER1
  6
CONTINUOUS
 62
     6
 10
199.849849
 20
82.642658
 30
0.0
  0
VERTEX
  8
CSLAYER1
  6
CONTINUOUS
 62
     6
 10
199.849849
 20
82.642665
 30
0.0
  0
SEQEND
  0
POLYLINE
  8
CSLAYER1
  6
CONTINUOUS
 62
     6
 66
     1
 10
0.0
 20
0.0
 30
0.0
  0
VERTEX
  8
CSLAYER1
  6
CONTINUOUS
 62
     6
 10
199.849849
 20
82.642660
 30
0.0
  0
VERTEX
  8
CSLAYER1
  6
CONTINUOUS
 62
     6
 10
199.829872
 20
82.773393
 30
0.0
  0
VERTEX
  8
CSLAYER1
  6
CONTINUOUS
 62
     6
 10
199.770090
 20
82.903132
 30
0.0
  0
VERTEX
  8
CSLAYER1
  6
CONTINUOUS
 62
     6
 10
199.670960
 20
83.030888
 30
0.0
  0
VERTEX
  8
CSLAYER1
  6
CONTINUOUS
 62
     6
 10
199.533236
 20
83.155690
 30
0.0
  0
VERTEX
  8
CSLAYER1
  6
CONTINUOUS
 62
     6
 10
199.357965
 20
83.276587
 30
0.0
  0
VERTEX
  8
CSLAYER1
  6
CONTINUOUS
 62
     6
 10
199.146483
 20
83.392660
 30
0.0
  0
VERTEX
  8
CSLAYER1
  6
CONTINUOUS
 62
     6
 10
198.900398
 20
83.503024
 30
0.0
  0
VERTEX
  8
CSLAYER1
  6
CONTINUOUS
 62
     6
 10
198.621583
 20
83.606841
 30
0.0
  0
VERTEX
  8
CSLAYER1
  6
CONTINUOUS
 62
     6
 10
198.312160
 20
83.703320
 30
0.0
  0
VERTEX
  8
CSLAYER1
  6
CONTINUOUS
 62
     6
 10
197.974484
 20
83.791726
 30
0.0
  0
VERTEX
  8
CSLAYER1
  6
CONTINUOUS
 62
     6
 10
197.611126
 20
83.871388
 30
0.0
  0
VERTEX
  8
CSLAYER1
  6
CONTINUOUS
 62
     6
 10
197.224849
 20
83.941698
 30
0.0
  0
VERTEX
  8
CSLAYER1
  6
CONTINUOUS
 62
     6
 10
196.818595
 20
84.002121
 30
0.0
  0
VERTEX
  8
CSLAYER1
  6
CONTINUOUS
 62
     6
 10
196.395455
 20
84.052199
 30
0.0
  0
VERTEX
  8
CSLAYER1
  6
CONTINUOUS
 62
     6
 10
195.958649
 20
84.091548
 30
0.0
  0
VERTEX
  8
CSLAYER1
  6
CONTINUOUS
 62
     6
 10
195.511502
 20
84.119871
 30
0.0
  0
VERTEX
  8
CSLAYER1
  6
CONTINUOUS
 62
     6
 10
195.479900
 20
84.121435
 30
0.0
  0
SEQEND
  0
POLYLINE
  8
CSLAYER1
  6
CONTINUOUS
 62
     6
 66
     1
 10
0.0
 20
0.0
 30
0.0
  0
VERTEX
  8
CSLAYER1
  6
CONTINUOUS
 62
     6
 10
193.719890
 20
84.121439
 30
0.0
  0
VERTEX
  8
CSLAYER1
  6
CONTINUOUS
 62
     6
 10
193.272144
 20
84.093900
 30
0.0
  0
VERTEX
  8
CSLAYER1
  6
CONTINUOUS
 62
     6
 10
192.834503
 20
84.055315
 30
0.0
  0
VERTEX
  8
CSLAYER1
  6
CONTINUOUS
 62
     6
 10
192.410297
 20
84.005980
 30
0.0
  0
VERTEX
  8
CSLAYER1
  6
CONTINUOUS
 62
     6
 10
192.002755
 20
83.946268
 30
0.0
  0
VERTEX
  8
CSLAYER1
  6
CONTINUOUS
 62
     6
 10
191.614978
 20
83.876636
 30
0.0
  0
VERTEX
  8
CSLAYER1
  6
CONTINUOUS
 62
     6
 10
191.249918
 20
83.797612
 30
0.0
  0
VERTEX
  8
CSLAYER1
  6
CONTINUOUS
 62
     6
 10
190.910353
 20
83.709798
 30
0.0
  0
VERTEX
  8
CSLAYER1
  6
CONTINUOUS
 62
     6
 10
190.598867
 20
83.613863
 30
0.0
  0
VERTEX
  8
CSLAYER1
  6
CONTINUOUS
 62
     6
 10
190.317831
 20
83.510536
 30
0.0
  0
VERTEX
  8
CSLAYER1
  6
CONTINUOUS
 62
     6
 10
190.069384
 20
83.400604
 30
0.0
  0
VERTEX
  8
CSLAYER1
  6
CONTINUOUS
 62
     6
 10
189.855416
 20
83.284904
 30
0.0
  0
VERTEX
  8
CSLAYER1
  6
CONTINUOUS
 62
     6
 10
189.677557
 20
83.164316
 30
0.0
  0
VERTEX
  8
CSLAYER1
  6
CONTINUOUS
 62
     6
 10
189.537159
 20
83.039758
 30
0.0
  0
VERTEX
  8
CSLAYER1
  6
CONTINUOUS
 62
     6
 10
189.435291
 20
82.912177
 30
0.0
  0
VERTEX
  8
CSLAYER1
  6
CONTINUOUS
 62
     6
 10
189.372729
 20
82.782546
 30
0.0
  0
VERTEX
  8
CSLAYER1
  6
CONTINUOUS
 62
     6
 10
189.349948
 20
82.651850
 30
0.0
  0
VERTEX
  8
CSLAYER1
  6
CONTINUOUS
 62
     6
 10
189.349849
 20
82.642662
 30
0.0
  0
SEQEND
  0
POLYLINE
  8
CSLAYER1
  6
CONTINUOUS
 62
     6
 66
     1
 10
0.0
 20
0.0
 30
0.0
  0
VERTEX
  8
CSLAYER1
  6
CONTINUOUS
 62
     6
 10
193.719890
 20
83.578668
 30
0.0
  0
VERTEX
  8
CSLAYER1
  6
CONTINUOUS
 62
     6
 10
193.519293
 20
83.544429
 30
0.0
  0
VERTEX
  8
CSLAYER1
  6
CONTINUOUS
 62
     6
 10
193.326919
 20
83.503327
 30
0.0
  0
VERTEX
  8
CSLAYER1
  6
CONTINUOUS
 62
     6
 10
193.144234
 20
83.455674
 30
0.0
  0
VERTEX
  8
CSLAYER1
  6
CONTINUOUS
 62
     6
 10
192.972626
 20
83.401834
 30
0.0
  0
VERTEX
  8
CSLAYER1
  6
CONTINUOUS
 62
     6
 10
192.813402
 20
83.342217
 30
0.0
  0
VERTEX
  8
CSLAYER1
  6
CONTINUOUS
 62
     6
 10
192.667775
 20
83.277275
 30
0.0
  0
VERTEX
  8
CSLAYER1
  6
CONTINUOUS
 62
     6
 10
192.536851
 20
83.207504
 30
0.0
  0
VERTEX
  8
CSLAYER1
  6
CONTINUOUS
 62
     6
 10
192.421629
 20
83.133433
 30
0.0
  0
VERTEX
  8
CSLAYER1
  6
CONTINUOUS
 62
     6
 10
192.322984
 20
83.055628
 30
0.0
  0
VERTEX
  8
CSLAYER1
  6
CONTINUOUS
 62
     6
 10
192.241667
 20
82.974680
 30
0.0
  0
VERTEX
  8
CSLAYER1
  6
CONTINUOUS
 62
     6
 10
192.178297
 20
82.891205
 30
0.0
  0
VERTEX
  8
CSLAYER1
  6
CONTINUOUS
 62
     6
 10
192.133357
 20
82.805838
 30
0.0
  0
VERTEX
  8
CSLAYER1
  6
CONTINUOUS
 62
     6
 10
192.107188
 20
82.719230
 30
0.0
  0
VERTEX
  8
CSLAYER1
  6
CONTINUOUS
 62
     6
 10
192.099990
 20
82.632038
 30
0.0
  0
VERTEX
  8
CSLAYER1
  6
CONTINUOUS
 62
     6
 10
192.111818
 20
82.544928
 30
0.0
  0
VERTEX
  8
CSLAYER1
  6
CONTINUOUS
 62
     6
 10
192.142581
 20
82.458561
 30
0.0
  0
VERTEX
  8
CSLAYER1
  6
CONTINUOUS
 62
     6
 10
192.192045
 20
82.373596
 30
0.0
  0
VERTEX
  8
CSLAYER1
  6
CONTINUOUS
 62
     6
 10
192.259834
 20
82.290678
 30
0.0
  0
VERTEX
  8
CSLAYER1
  6
CONTINUOUS
 62
     6
 10
192.345432
 20
82.210439
 30
0.0
  0
VERTEX
  8
CSLAYER1
  6
CONTINUOUS
 62
     6
 10
192.448187
 20
82.133490
 30
0.0
  0
VERTEX
  8
CSLAYER1
  6
CONTINUOUS
 62
     6
 10
192.567318
 20
82.060416
 30
0.0
  0
VERTEX
  8
CSLAYER1
  6
CONTINUOUS
 62
     6
 10
192.701918
 20
81.991772
 30
0.0
  0
VERTEX
  8
CSLAYER1
  6
CONTINUOUS
 62
     6
 10
192.850962
 20
81.928083
 30
0.0
  0
VERTEX
  8
CSLAYER1
  6
CONTINUOUS
 62
     6
 10
193.013316
 20
81.869832
 30
0.0
  0
VERTEX
  8
CSLAYER1
  6
CONTINUOUS
 62
     6
 10
193.187745
 20
81.817463
 30
0.0
  0
VERTEX
  8
CSLAYER1
  6
CONTINUOUS
 62
     6
 10
193.372920
 20
81.771374
 30
0.0
  0
VERTEX
  8
CSLAYER1
  6
CONTINUOUS
 62
     6
 10
193.567434
 20
81.731916
 30
0.0
  0
VERTEX
  8
CSLAYER1
  6
CONTINUOUS
 62
     6
 10
193.769804
 20
81.699389
 30
0.0
  0
VERTEX
  8
CSLAYER1
  6
CONTINUOUS
 62
     6
 10
193.978492
 20
81.674041
 30
0.0
  0
VERTEX
  8
CSLAYER1
  6
CONTINUOUS
 62
     6
 10
194.191909
 20
81.656065
 30
0.0
  0
VERTEX
  8
CSLAYER1
  6
CONTINUOUS
 62
     6
 10
194.408430
 20
81.645597
 30
0.0
  0
VERTEX
  8
CSLAYER1
  6
CONTINUOUS
 62
     6
 10
194.626408
 20
81.642718
 30
0.0
  0
VERTEX
  8
CSLAYER1
  6
CONTINUOUS
 62
     6
 10
194.844184
 20
81.647449
 30
0.0
  0
VERTEX
  8
CSLAYER1
  6
CONTINUOUS
 62
     6
 10
195.060101
 20
81.659754
 30
0.0
  0
VERTEX
  8
CSLAYER1
  6
CONTINUOUS
 62
     6
 10
195.272514
 20
81.679540
 30
0.0
  0
VERTEX
  8
CSLAYER1
  6
CONTINUOUS
 62
     6
 10
195.479808
 20
81.706656
 30
0.0
  0
VERTEX
  8
CSLAYER1
  6
CONTINUOUS
 62
     6
 10
195.680406
 20
81.740895
 30
0.0
  0
VERTEX
  8
CSLAYER1
  6
CONTINUOUS
 62
     6
 10
195.872779
 20
81.781997
 30
0.0
  0
VERTEX
  8
CSLAYER1
  6
CONTINUOUS
 62
     6
 10
196.055465
 20
81.829649
 30
0.0
  0
VERTEX
  8
CSLAYER1
  6
CONTINUOUS
 62
     6
 10
196.227073
 20
81.883489
 30
0.0
  0
VERTEX
  8
CSLAYER1
  6
CONTINUOUS
 62
     6
 10
196.386296
 20
81.943107
 30
0.0
  0
VERTEX
  8
CSLAYER1
  6
CONTINUOUS
 62
     6
 10
196.531924
 20
82.008049
 30
0.0
  0
VERTEX
  8
CSLAYER1
  6
CONTINUOUS
 62
     6
 10
196.662847
 20
82.077820
 30
0.0
  0
VERTEX
  8
CSLAYER1
  6
CONTINUOUS
 62
     6
 10
196.778070
 20
82.151890
 30
0.0
  0
VERTEX
  8
CSLAYER1
  6
CONTINUOUS
 62
     6
 10
196.876715
 20
82.229696
 30
0.0
  0
VERTEX
  8
CSLAYER1
  6
CONTINUOUS
 62
     6
 10
196.958032
 20
82.310644
 30
0.0
  0
VERTEX
  8
CSLAYER1
  6
CONTINUOUS
 62
     6
 10
197.021402
 20
82.394119
 30
0.0
  0
VERTEX
  8
CSLAYER1
  6
CONTINUOUS
 62
     6
 10
197.066342
 20
82.479486
 30
0.0
  0
VERTEX
  8
CSLAYER1
  6
CONTINUOUS
 62
     6
 10
197.092510
 20
82.566094
 30
0.0
  0
VERTEX
  8
CSLAYER1
  6
CONTINUOUS
 62
     6
 10
197.099708
 20
82.653285
 30
0.0
  0
VERTEX
  8
CSLAYER1
  6
CONTINUOUS
 62
     6
 10
197.087881
 20
82.740396
 30
0.0
  0
VERTEX
  8
CSLAYER1
  6
CONTINUOUS
 62
     6
 10
197.057118
 20
82.826762
 30
0.0
  0
VERTEX
  8
CSLAYER1
  6
CONTINUOUS
 62
     6
 10
197.007654
 20
82.911728
 30
0.0
  0
VERTEX
  8
CSLAYER1
  6
CONTINUOUS
 62
     6
 10
196.939865
 20
82.994646
 30
0.0
  0
VERTEX
  8
CSLAYER1
  6
CONTINUOUS
 62
     6
 10
196.854267
 20
83.074884
 30
0.0
  0
VERTEX
  8
CSLAYER1
  6
CONTINUOUS
 62
     6
 10
196.751511
 20
83.151834
 30
0.0
  0
VERTEX
  8
CSLAYER1
  6
CONTINUOUS
 62
     6
 10
196.632380
 20
83.224908
 30
0.0
  0
VERTEX
  8
CSLAYER1
  6
CONTINUOUS
 62
     6
 10
196.497781
 20
83.293551
 30
0.0
  0
VERTEX
  8
CSLAYER1
  6
CONTINUOUS
 62
     6
 10
196.348737
 20
83.357241
 30
0.0
  0
VERTEX
  8
CSLAYER1
  6
CONTINUOUS
 62
     6
 10
196.186383
 20
83.415492
 30
0.0
  0
VERTEX
  8
CSLAYER1
  6
CONTINUOUS
 62
     6
 10
196.011954
 20
83.467861
 30
0.0
  0
VERTEX
  8
CSLAYER1
  6
CONTINUOUS
 62
     6
 10
195.826778
 20
83.513950
 30
0.0
  0
VERTEX
  8
CSLAYER1
  6
CONTINUOUS
 62
     6
 10
195.632265
 20
83.553408
 30
0.0
  0
VERTEX
  8
CSLAYER1
  6
CONTINUOUS
 62
     6
 10
195.479900
 20
83.578654
 30
0.0
  0
SEQEND
  0
POLYLINE
  8
CSLAYER1
  6
CONTINUOUS
 62
     3
 66
     1
 10
0.0
 20
0.0
 30
0.0
  0
VERTEX
  8
CSLAYER1
  6
CONTINUOUS
 62
     3
 10
196.472239
 20
82.805282
 30
0.0
  0
VERTEX
  8
CSLAYER1
  6
CONTINUOUS
 62
     3
 10
196.320736
 20
82.868036
 30
0.0
  0
VERTEX
  8
CSLAYER1
  6
CONTINUOUS
 62
     3
 10
196.156136
 20
82.925270
 30
0.0
  0
VERTEX
  8
CSLAYER1
  6
CONTINUOUS
 62
     3
 10
195.979692
 20
82.976548
 30
0.0
  0
VERTEX
  8
CSLAYER1
  6
CONTINUOUS
 62
     3
 10
195.792746
 20
83.021479
 30
0.0
  0
VERTEX
  8
CSLAYER1
  6
CONTINUOUS
 62
     3
 10
195.596722
 20
83.059722
 30
0.0
  0
VERTEX
  8
CSLAYER1
  6
CONTINUOUS
 62
     3
 10
195.479900
 20
83.078654
 30
0.0
  0
SEQEND
  0
POLYLINE
  8
CSLAYER1
  6
CONTINUOUS
 62
     3
 66
     1
 10
0.0
 20
0.0
 30
0.0
  0
VERTEX
  8
CSLAYER1
  6
CONTINUOUS
 62
     3
 10
193.719890
 20
83.078668
 30
0.0
  0
VERTEX
  8
CSLAYER1
  6
CONTINUOUS
 62
     3
 10
193.519293
 20
83.044429
 30
0.0
  0
VERTEX
  8
CSLAYER1
  6
CONTINUOUS
 62
     3
 10
193.326919
 20
83.003327
 30
0.0
  0
VERTEX
  8
CSLAYER1
  6
CONTINUOUS
 62
     3
 10
193.144234
 20
82.955674
 30
0.0
  0
VERTEX
  8
CSLAYER1
  6
CONTINUOUS
 62
     3
 10
192.972626
 20
82.901834
 30
0.0
  0
VERTEX
  8
CSLAYER1
  6
CONTINUOUS
 62
     3
 10
192.813402
 20
82.842217
 30
0.0
  0
VERTEX
  8
CSLAYER1
  6
CONTINUOUS
 62
     3
 10
192.727460
 20
82.805282
 30
0.0
  0
SEQEND
  0
POLYLINE
  8
CSLAYER1
  6
CONTINUOUS
 62
     3
 66
     1
 10
0.0
 20
0.0
 30
0.0
  0
VERTEX
  8
CSLAYER1
  6
CONTINUOUS
 62
     3
 10
190.679994
 20
81.479589
 30
0.0
  0
VERTEX
  8
CSLAYER1
  6
CONTINUOUS
 62
     3
 10
190.999298
 20
81.323232
 30
0.0
  0
VERTEX
  8
CSLAYER1
  6
CONTINUOUS
 62
     3
 10
191.346004
 20
81.180723
 30
0.0
  0
VERTEX
  8
CSLAYER1
  6
CONTINUOUS
 62
     3
 10
191.717473
 20
81.053145
 30
0.0
  0
VERTEX
  8
CSLAYER1
  6
CONTINUOUS
 62
     3
 10
192.110880
 20
80.941470
 30
0.0
  0
VERTEX
  8
CSLAYER1
  6
CONTINUOUS
 62
     3
 10
192.523229
 20
80.846547
 30
0.0
  0
VERTEX
  8
CSLAYER1
  6
CONTINUOUS
 62
     3
 10
192.951382
 20
80.769099
 30
0.0
  0
VERTEX
  8
CSLAYER1
  6
CONTINUOUS
 62
     3
 10
193.392081
 20
80.709716
 30
0.0
  0
VERTEX
  8
CSLAYER1
  6
CONTINUOUS
 62
     3
 10
193.841972
 20
80.668848
 30
0.0
  0
VERTEX
  8
CSLAYER1
  6
CONTINUOUS
 62
     3
 10
194.297631
 20
80.646808
 30
0.0
  0
VERTEX
  8
CSLAYER1
  6
CONTINUOUS
 62
     3
 10
194.755590
 20
80.643762
 30
0.0
  0
VERTEX
  8
CSLAYER1
  6
CONTINUOUS
 62
     3
 10
195.212363
 20
80.659735
 30
0.0
  0
VERTEX
  8
CSLAYER1
  6
CONTINUOUS
 62
     3
 10
195.664475
 20
80.694604
 30
0.0
  0
VERTEX
  8
CSLAYER1
  6
CONTINUOUS
 62
     3
 10
196.108485
 20
80.748105
 30
0.0
  0
VERTEX
  8
CSLAYER1
  6
CONTINUOUS
 62
     3
 10
196.541013
 20
80.819829
 30
0.0
  0
VERTEX
  8
CSLAYER1
  6
CONTINUOUS
 62
     3
 10
196.958767
 20
80.909232
 30
0.0
  0
VERTEX
  8
CSLAYER1
  6
CONTINUOUS
 62
     3
 10
197.358569
 20
81.015632
 30
0.0
  0
VERTEX
  8
CSLAYER1
  6
CONTINUOUS
 62
     3
 10
197.737375
 20
81.138221
 30
0.0
  0
VERTEX
  8
CSLAYER1
  6
CONTINUOUS
 62
     3
 10
198.092303
 20
81.276064
 30
0.0
  0
VERTEX
  8
CSLAYER1
  6
CONTINUOUS
 62
     3
 10
198.420651
 20
81.428113
 30
0.0
  0
VERTEX
  8
CSLAYER1
  6
CONTINUOUS
 62
     3
 10
198.519705
 20
81.479589
 30
0.0
  0
SEQEND
  0
LINE
  8
CSLAYER1
  6
CONTINUOUS
 62
     6
 10
90.099880
 20
142.489052
 11
100.346023
 21
142.489052
  0
LINE
  8
CSLAYER1
  6
CONTINUOUS
 62
     6
 10
90.099880
 20
147.489052
 11
100.346023
 21
147.489052
  0
ARC
  8
CSLAYER1
  6
CONTINUOUS
 62
     6
 10
104.109633
 20
131.220863
 40
11.353822
 50
55.366943
 51
97.041588
  0
ARC
  8
CSLAYER1
  6
CONTINUOUS
 62
     6
 10
104.109633
 20
131.220863
 40
16.327621
 50
55.366943
 51
94.890242
  0
LINE
  8
CSLAYER1
  6
CONTINUOUS
 62
     6
 10
110.562224
 20
140.562874
 11
113.388930
 21
144.655373
  0
ARC
  8
CSLAYER1
  6
CONTINUOUS
 62
     6
 10
98.180961
 20
146.239052
 40
2.500000
 50
-29.999958
 51
30.000044
  0
ARC
  8
CSLAYER1
  6
CONTINUOUS
 62
     6
 10
98.180961
 20
143.739052
 40
2.500000
 50
-29.999958
 51
30.000044
  0
ARC
  8
CSLAYER1
  6
CONTINUOUS
 62
     6
 10
102.511085
 20
143.739052
 40
2.500000
 50
150.000050
 51
210.000039
  0
ARC
  8
CSLAYER1
  6
CONTINUOUS
 62
     6
 10
104.882834
 20
143.739052
 40
2.500000
 50
150.000050
 51
210.000039
  0
ARC
  8
CSLAYER1
  6
CONTINUOUS
 62
     6
 10
104.882834
 20
146.239052
 40
2.500000
 50
150.000050
 51
210.000039
  0
ARC
  8
CSLAYER1
  6
CONTINUOUS
 62
     6
 10
100.552711
 20
146.239052
 40
2.500000
 50
-29.999972
 51
30.000030
  0
LINE
  8
CSLAYER1
  6
CONTINUOUS
 62
     6
 10
111.033355
 20
141.244942
 11
113.322265
 21
138.885414
  0
LINE
  8
CSLAYER1
  6
CONTINUOUS
 62
     6
 10
111.504470
 20
141.927040
 11
114.043609
 21
139.770699
  0
LINE
  8
CSLAYER1
  6
CONTINUOUS
 62
     6
 10
111.975585
 20
142.609108
 11
114.601028
 21
140.754372
  0
LINE
  8
CSLAYER1
  6
CONTINUOUS
 62
     6
 10
112.446700
 20
143.291206
 11
115.453536
 21
141.606880
  0
LINE
  8
CSLAYER1
  6
CONTINUOUS
 62
     6
 10
112.917815
 20
143.973274
 11
115.846999
 21
142.754494
  0
LINE
  8
CSLAYER1
  6
CONTINUOUS
 62
     6
 10
113.781310
 20
139.114937
 11
114.338714
 21
138.295204
  0
LINE
  8
CSLAYER1
  6
CONTINUOUS
 62
     6
 10
113.814086
 20
139.442818
 11
114.699386
 21
138.459145
  0
LINE
  8
CSLAYER1
  6
CONTINUOUS
 62
     6
 10
114.338714
 20
140.065804
 11
115.125640
 21
139.147713
  0
LINE
  8
CSLAYER1
  6
CONTINUOUS
 62
     6
 10
114.535445
 20
140.360909
 11
115.355163
 21
139.639534
  0
LINE
  8
CSLAYER1
  6
CONTINUOUS
 62
     6
 10
114.994491
 20
141.377358
 11
115.945373
 21
140.557625
  0
LINE
  8
CSLAYER1
  6
CONTINUOUS
 62
     6
 10
128.425304
 20
142.164281
 11
127.474407
 21
141.836385
  0
LINE
  8
CSLAYER1
  6
CONTINUOUS
 62
     6
 10
115.748626
 20
142.164299
 11
116.699523
 21
141.836403
  0
LINE
  8
CSLAYER1
  6
CONTINUOUS
 62
     6
 10
198.000211
 20
140.989046
 11
202.599849
 21
140.989051
  0
LINE
  8
CSLAYER1
  6
CONTINUOUS
 62
     6
 10
198.000223
 20
132.989046
 11
202.599849
 21
132.989051
  0
LINE
  8
CSLAYER1
  6
CONTINUOUS
 62
     6
 10
161.599849
 20
268.836150
 11
138.599849
 21
268.836150
  0
LINE
  8
CSLAYER1
  6
CONTINUOUS
 62
     6
 10
161.599849
 20
213.836150
 11
138.599849
 21
213.836150
  0
ARC
  8
CSLAYER1
  6
CONTINUOUS
 62
     6
 10
138.599849
 20
266.836150
 40
2.000000
 50
90.000000
 51
180.000000
  0
ARC
  8
CSLAYER1
  6
CONTINUOUS
 62
     6
 10
138.599849
 20
215.836150
 40
2.000000
 50
180.000000
 51
270.000000
  0
LINE
  8
CSLAYER1
  6
CONTINUOUS
 62
     6
 10
150.599849
 20
212.336150
 11
150.599849
 21
213.836151
  0
LINE
  8
CSLAYER1
  6
CONTINUOUS
 62
     6
 10
160.599849
 20
212.336150
 11
160.599849
 21
213.836164
  0
LINE
  8
CSLAYER1
  6
CONTINUOUS
 62
     6
 10
161.599849
 20
172.489034
 11
138.599895
 21
172.489034
  0
LINE
  8
CSLAYER1
  6
CONTINUOUS
 62
     6
 10
161.599849
 20
117.489034
 11
138.599895
 21
117.489034
  0
ARC
  8
CSLAYER1
  6
CONTINUOUS
 62
     6
 10
138.599895
 20
170.489034
 40
2.000000
 50
90.000000
 51
180.000000
  0
ARC
  8
CSLAYER1
  6
CONTINUOUS
 62
     6
 10
138.599895
 20
119.489034
 40
2.000000
 50
180.000000
 51
270.000000
  0
LINE
  8
CSLAYER1
  6
CONTINUOUS
 62
     6
 10
160.599849
 20
212.336150
 11
150.599849
 21
212.336150
  0
LINE
  8
CSLAYER1
  6
CONTINUOUS
 62
     6
 10
153.099849
 20
82.642188
 11
153.099849
 21
87.980420
  0
LINE
  8
CSLAYER1
  6
CONTINUOUS
 62
     6
 10
158.099849
 20
82.642181
 11
158.099849
 21
87.980420
  0
ARC
  8
CSLAYER1
  6
CONTINUOUS
 62
     6
 10
141.831662
 20
91.744043
 40
11.353822
 50
-7.041553
 51
34.633120
  0
ARC
  8
CSLAYER1
  6
CONTINUOUS
 62
     6
 10
141.831662
 20
91.744043
 40
16.327621
 50
-4.890180
 51
34.633093
  0
LINE
  8
CSLAYER1
  6
CONTINUOUS
 62
     6
 10
151.173688
 20
98.196634
 11
155.266171
 21
101.023340
  0
ARC
  8
CSLAYER1
  6
CONTINUOUS
 62
     6
 10
154.349849
 20
85.815350
 40
2.500000
 50
60.000005
 51
119.999993
  0
ARC
  8
CSLAYER1
  6
CONTINUOUS
 62
     6
 10
156.849849
 20
85.815350
 40
2.500000
 50
60.000005
 51
119.999993
  0
ARC
  8
CSLAYER1
  6
CONTINUOUS
 62
     6
 10
156.849849
 20
90.145490
 40
2.500000
 50
239.999997
 51
299.999998
  0
ARC
  8
CSLAYER1
  6
CONTINUOUS
 62
     6
 10
156.849849
 20
92.517239
 40
2.500000
 50
240.000010
 51
300.000005
  0
ARC
  8
CSLAYER1
  6
CONTINUOUS
 62
     6
 10
154.349849
 20
92.517239
 40
2.500000
 50
240.000010
 51
300.000005
  0
ARC
  8
CSLAYER1
  6
CONTINUOUS
 62
     6
 10
154.349849
 20
88.187100
 40
2.500000
 50
60.000005
 51
119.999993
  0
LINE
  8
CSLAYER1
  6
CONTINUOUS
 62
     6
 10
151.855756
 20
98.667764
 11
149.496197
 21
100.956674
  0
LINE
  8
CSLAYER1
  6
CONTINUOUS
 62
     6
 10
152.537823
 20
99.138879
 11
150.381512
 21
101.678018
  0
LINE
  8
CSLAYER1
  6
CONTINUOUS
 62
     6
 10
153.219922
 20
99.609994
 11
151.365170
 21
102.235437
  0
LINE
  8
CSLAYER1
  6
CONTINUOUS
 62
     6
 10
153.901990
 20
100.081110
 11
152.217679
 21
103.087945
  0
LINE
  8
CSLAYER1
  6
CONTINUOUS
 62
     6
 10
154.584088
 20
100.552225
 11
153.365292
 21
103.481409
  0
LINE
  8
CSLAYER1
  6
CONTINUOUS
 62
     6
 10
149.725720
 20
101.415719
 11
148.906018
 21
101.973123
  0
LINE
  8
CSLAYER1
  6
CONTINUOUS
 62
     6
 10
150.053616
 20
101.448495
 11
149.069958
 21
102.333795
  0
LINE
  8
CSLAYER1
  6
CONTINUOUS
 62
     6
 10
150.676602
 20
101.973123
 11
149.758527
 21
102.760049
  0
LINE
  8
CSLAYER1
  6
CONTINUOUS
 62
     6
 10
150.971707
 20
102.169855
 11
150.250348
 21
102.989572
  0
LINE
  8
CSLAYER1
  6
CONTINUOUS
 62
     6
 10
151.988156
 20
102.628900
 11
151.168439
 21
103.579782
  0
LINE
  8
CSLAYER1
  6
CONTINUOUS
 62
     6
 10
152.775098
 20
103.383035
 11
152.447201
 21
104.333932
  0
LINE
  8
CSLAYER1
  6
CENTER
 62
     3
 10
155.599849
 20
92.563236
 11
155.599849
 21
77.673793
  0
LINE
  8
CSLAYER1
  6
CONTINUOUS
 62
     6
 10
150.599849
 20
82.641918
 11
150.599849
 21
81.167679
  0
LINE
  8
CSLAYER1
  6
CONTINUOUS
 62
     6
 10
160.599849
 20
82.641918
 11
160.599849
 21
81.167666
  0
LINE
  8
CSLAYER1
  6
CONTINUOUS
 62
     6
 10
160.599849
 20
82.641918
 11
150.599849
 21
82.641918
  0
LINE
  8
CSLAYER1
  6
CONTINUOUS
 62
     6
 10
138.599849
 20
81.141918
 11
161.599849
 21
81.141918
  0
LINE
  8
CSLAYER1
  6
CONTINUOUS
 62
     6
 10
161.599849
 20
26.141918
 11
138.599849
 21
26.141918
  0
ARC
  8
CSLAYER1
  6
CONTINUOUS
 62
     6
 10
138.599849
 20
79.141918
 40
2.000000
 50
90.000000
 51
180.000000
  0
ARC
  8
CSLAYER1
  6
CONTINUOUS
 62
     6
 10
138.599849
 20
28.141918
 40
2.000000
 50
180.000000
 51
270.000000
  0
CIRCLE
  8
CSLAYER1
  6
CONTINUOUS
 62
     6
 10
61.099880
 20
144.989038
 40
27.500000
  0
LINE
  8
CSLAYER1
  6
CONTINUOUS
 62
     6
 10
90.099880
 20
139.989038
 11
90.099880
 21
149.989038
  0
LINE
  8
CSLAYER1
  6
CONTINUOUS
 62
     6
 10
90.099880
 20
149.989038
 11
88.141514
 21
149.989038
  0
LINE
  8
CSLAYER1
  6
CONTINUOUS
 62
     6
 10
90.099880
 20
139.989038
 11
88.141514
 21
139.989038
  0
LINE
  8
CSLAYER1
  6
CENTER
 62
     3
 10
87.170194
 20
137.775774
 11
105.126524
 21
132.807527
  0
ARC
  8
CSLAYER1
  6
CONTINUOUS
 62
     6
 10
94.543050
 20
122.655063
 40
12.607053
 50
47.070225
 51
74.534143
  0
ARC
  8
CSLAYER1
  6
CONTINUOUS
 62
     6
 10
94.543050
 20
122.655063
 40
10.847068
 50
47.070225
 51
74.534116
  0
ARC
  8
CSLAYER1
  6
CONTINUOUS
 62
     6
 10
98.522100
 20
134.178338
 40
0.879999
 50
134.534377
 51
194.534365
  0
ARC
  8
CSLAYER1
  6
CONTINUOUS
 62
     6
 10
98.287433
 20
133.330199
 40
0.879999
 50
134.534377
 51
194.534365
  0
ARC
  8
CSLAYER1
  6
CONTINUOUS
 62
     6
 10
96.818425
 20
133.736651
 40
0.879999
 50
-45.465615
 51
14.534387
  0
LINE
  8
CSLAYER1
  6
CONTINUOUS
 62
     6
 10
103.905121
 20
129.499184
 11
102.334825
 21
131.031299
  0
LINE
  8
CSLAYER1
  6
CONTINUOUS
 62
     6
 10
104.236881
 20
129.853317
 11
102.635076
 21
131.354064
  0
LINE
  8
CSLAYER1
  6
CONTINUOUS
 62
     6
 10
104.545634
 20
130.222144
 11
102.879575
 21
131.616894
  0
LINE
  8
CSLAYER1
  6
CONTINUOUS
 62
     6
 10
101.930998
 20
130.597174
 11
103.129750
 21
131.885816
  0
ARC
  8
CSLAYER1
  6
CONTINUOUS
 62
     6
 10
95.536805
 20
134.091257
 40
0.880005
 50
-45.465970
 51
14.534032
  0
ARC
  8
CSLAYER1
  6
CONTINUOUS
 62
     6
 10
95.771472
 20
134.939396
 40
0.880005
 50
-45.465970
 51
14.534032
  0
ARC
  8
CSLAYER1
  6
CONTINUOUS
 62
     6
 10
97.240480
 20
134.532943
 40
0.880005
 50
134.534022
 51
194.534010
  0
ARC
  8
CSLAYER1
  6
CONTINUOUS
 62
     6
 10
101.266811
 20
146.956205
 40
12.607053
 50
254.533933
 51
281.997850
  0
ARC
  8
CSLAYER1
  6
CONTINUOUS
 62
     6
 10
101.266811
 20
146.956205
 40
10.847068
 50
254.533960
 51
281.997850
  0
ARC
  8
CSLAYER1
  6
CONTINUOUS
 62
     6
 10
98.991435
 20
135.874616
 40
0.879999
 50
134.533687
 51
194.533689
  0
ARC
  8
CSLAYER1
  6
CONTINUOUS
 62
     6
 10
98.756768
 20
135.026477
 40
0.879999
 50
134.533687
 51
194.533689
  0
ARC
  8
CSLAYER1
  6
CONTINUOUS
 62
     6
 10
97.287760
 20
135.432929
 40
0.879999
 50
-45.466311
 51
14.533690
  0
LINE
  8
CSLAYER1
  6
CONTINUOUS
 62
     6
 10
105.605419
 20
136.231860
 11
103.644880
 21
135.766125
  0
LINE
  8
CSLAYER1
  6
CONTINUOUS
 62
     6
 10
105.716759
 20
135.763139
 11
103.736522
 21
135.334929
  0
LINE
  8
CSLAYER1
  6
CONTINUOUS
 62
     6
 10
105.816578
 20
135.301531
 11
103.811148
 21
134.983802
  0
LINE
  8
CSLAYER1
  6
CONTINUOUS
 62
     6
 10
103.521635
 20
136.346083
 11
103.887511
 21
134.624532
  0
ARC
  8
CSLAYER1
  6
CONTINUOUS
 62
     6
 10
96.006139
 20
135.787535
 40
0.880005
 50
-45.465970
 51
14.534032
  0
ARC
  8
CSLAYER1
  6
CONTINUOUS
 62
     6
 10
96.240807
 20
136.635674
 40
0.880005
 50
-45.465970
 51
14.534032
  0
ARC
  8
CSLAYER1
  6
CONTINUOUS
 62
     6
 10
97.709814
 20
136.229221
 40
0.880005
 50
134.534022
 51
194.534010
  0
LINE
  8
CSLAYER1
  6
CONTINUOUS
 62
     6
 10
96.623310
 20
135.160239
 11
91.459234
 21
136.589061
  0
LINE
  8
CSLAYER1
  6
CONTINUOUS
 62
     6
 10
96.153975
 20
133.463961
 11
90.989899
 21
134.892783
  0
LINE
  8
CSLAYER1
  6
CONTINUOUS
 62
     6
 10
97.092644
 20
136.856517
 11
91.928568
 21
138.285339
  0
ARC
  8
CSLAYER1
  6
CONTINUOUS
 62
     6
 10
93.906654
 20
135.911902
 40
5.250000
 50
344.007657
 51
345.060304
  0
ENDSEC
  0
EOF
