  0
SECTION
  2
HEADER
  9
$ACADVER
  1
AC1006
  9
$INSBASE
 10
0.000000
 20
0.000000
 30
0.0
  9
$EXTMIN
 10
0.000000
 20
0.000000
  9
$EXTMAX
 10
594.000000
 20
420.000000
  9
$LIMMIN
 10
0.000000
 20
0.000000
  9
$LIMMAX
 10
594.000000
 20
420.000000
  9
$VIEWCTR
 10
297.000000
 20
210.000000
  9
$VIEWSIZE
 40
420.000000
  9
$SNAPMODE
 70
     0
  9
$SNAPUNIT
 10
1.0
 20
1.0
  9
$SNAPBASE
 10
0.0
 20
0.0
  9
$SNAPANG
 50
0.0
  9
$SNAPSTYLE
 70
     0
  9
$SNAPISOPAIR
 70
     0
  9
$GRIDMODE
 70
     0
  9
$GRIDUNIT
 10
0.0
 20
0.0
  9
$ORTHOMODE
 70
     0
  9
$REGENMODE
 70
     1
  9
$FILLMODE
 70
     1
  9
$QTEXTMODE
 70
     0
  9
$DRAGMODE
 70
     2
  9
$LTSCALE
 40
15.000000
  9
$OSMODE
 70
     0
  9
$ATTMODE
 70
     1
  9
$TEXTSIZE
 40
0.2
  9
$TRACEWID
 40
0.05
  9
$TEXTSTYLE
  7
STANDARD
  9
$CLAYER
  8
CSLAYER1
  9
$CELTYPE
  6
BYLAYER
  9
$CECOLOR
 62
   256
  9
$DIMSCALE
 40
1.0
  9
$DIMASZ
 40
0.18
  9
$DIMEXO
 40
0.0625
  9
$DIMDLI
 40
0.38
  9
$DIMRND
 40
0.0
  9
$DIMDLE
 40
0.0
  9
$DIMEXE
 40
0.18
  9
$DIMTP
 40
0.0
  9
$DIMTM
 40
0.0
  9
$DIMTXT
 40
0.18
  9
$DIMCEN
 40
0.09
  9
$DIMTSZ
 40
0.0
  9
$DIMTOL
 70
     0
  9
$DIMLIM
 70
     0
  9
$DIMTIH
 70
     1
  9
$DIMTOH
 70
     1
  9
$DIMSE1
 70
     0
  9
$DIMSE2
 70
     0
  9
$DIMTAD
 70
     0
  9
$DIMZIN
 70
     0
  9
$DIMBLK
  1

  9
$LUNITS
 70
     2
  9
$LUPREC
 70
     4
  9
$AXISMODE
 70
     0
  9
$AXISUNIT
 10
0.0
 20
0.0
  9
$SKETCHINC
 40
0.1
  9
$FILLETRAD
 40
0.0
  9
$AUNITS
 70
     0
  9
$AUPREC
 70
     0
  9
$MENU
  1
ACAD
  9
$ELEVATION
 40
0.0
  9
$THICKNESS
 40
0.0
  9
$VIEWDIR
 10
0.0
 20
0.0
 30
1.0
  9
$LIMCHECK
 70
     0
  9
$BLIPMODE
 70
     1
  9
$CHAMFERA
 40
0.0
  9
$CHAMFERB
 40
0.0
  9
$FASTZOOM
 70
     1
  9
$SKPOLY
 70
     0
  9
$TDCREATE
 40
0.000000
  9
$TDUPDATE
 40
0.000000
  9
$TDINDWG
 40
0.0
  9
$TDUSRTIMER
 40
0.0
  9
$USRTIMER
 70
     1
  9
$ANGBASE
 50
0.0
  9
$ANGDIR
 70
     0
  9
$PDMODE
 70
     0
  9
$PDSIZE
 40
0.0
  9
$PLINEWID
 40
0.0
  9
$COORDS
 70
     0
  9
$USERI1
 70
     0
  9
$USERI2
 70
     0
  9
$USERI3
 70
     0
  9
$USERI4
 70
     0
  9
$USERI5
 70
     0
  9
$USERR1
 40
0.0
  9
$USERR2
 40
0.0
  9
$USERR3
 40
0.0
  9
$USERR4
 40
0.0
  9
$USERR5
 40
0.0
  0
ENDSEC
  0
SECTION
  2
TABLES
  0
TABLE
  2
LTYPE
 70
     9
  0
LTYPE
  2
CONTINUOUS
 70
    64
  3
Solid line
 72
    65
 73
     0
 40
0.0
  0
LTYPE
  2
DASHED
 70
    64
  3
__ __ __ __ __ __ __ __ __ __ __ __ __ __ __
 72
    65
 73
     2
 40
0.75
 49
0.5
 49
-0.25
  0
LTYPE
  2
HIDDEN
 70
    64
  3
_ _ _ _ _ _ _ _ _ _ _ _ _ _ _ _ _ _ _ _ _ _ _
 72
    65
 73
     2
 40
0.375
 49
0.25
 49
-0.125
  0
LTYPE
  2
DOT
 70
    64
  3
...............................................
 72
    65
 73
     2
 40
0.25
 49
0.0
 49
-0.25
  0
LTYPE
  2
DASHDOT
 70
    64
  3
__ . __ . __ . __ . __ . __ . __ . __ . __ . __
 72
    65
 73
     4
 40
1.0
 49
0.5
 49
-0.25
 49
0.0
 49
-0.25
  0
LTYPE
  2
DIVIDE
 70
    64
  3
__ . . __ . . __ . . __ . . __ . . __ . . __
 72
    65
 73
     6
 40
1.25
 49
0.5
 49
-0.25
 49
0.0
 49
-0.25
 49
0.0
 49
-0.25
  0
LTYPE
  2
CENTER
 70
    64
  3
____ _ ____ _ ____ _ ____ _ ____ _ ____ _ ____ 
 72
    65
 73
     4
 40
2.0
 49
1.25
 49
-0.25
 49
0.25
 49
-0.25
  0
LTYPE
  2
PHANTOM
 70
    64
  3
______  __  __  ______  __  __  ______  __  __ 
 72
    65
 73
     6
 40
2.5
 49
1.25
 49
-0.25
 49
0.25
 49
-0.25
 49
0.25
 49
-0.25
  0
LTYPE
  2
BORDER
 70
    64
  3
__ __ . __ __ . __ __ . __ __ . __ __ . __ __ .
 72
    65
 73
     6
 40
1.75
 49
0.5
 49
-0.25
 49
0.5
 49
-0.25
 49
0.0
 49
-0.25
  0
ENDTAB
  0
TABLE
  2
LAYER
 70
    16
  0
LAYER
  2
CSLAYER1
 70
    64
 62
     7
  6
CONTINUOUS
  0
LAYER
  2
CSLAYER2
 70
    64
 62
     7
  6
CONTINUOUS
  0
LAYER
  2
CSLAYER3
 70
    64
 62
     7
  6
CONTINUOUS
  0
LAYER
  2
CSLAYER4
 70
    64
 62
     7
  6
CONTINUOUS
  0
LAYER
  2
CSLAYER5
 70
    64
 62
     7
  6
CONTINUOUS
  0
LAYER
  2
CSLAYER6
 70
    64
 62
     7
  6
CONTINUOUS
  0
LAYER
  2
CSLAYER7
 70
    64
 62
     7
  6
CONTINUOUS
  0
LAYER
  2
CSLAYER8
 70
    64
 62
     7
  6
CONTINUOUS
  0
LAYER
  2
CSLAYER9
 70
    64
 62
     7
  6
CONTINUOUS
  0
LAYER
  2
CSLAYER10
 70
    64
 62
     7
  6
CONTINUOUS
  0
LAYER
  2
CSLAYER11
 70
    64
 62
     7
  6
CONTINUOUS
  0
LAYER
  2
CSLAYER12
 70
    64
 62
     7
  6
CONTINUOUS
  0
LAYER
  2
CSLAYER13
 70
    64
 62
     7
  6
CONTINUOUS
  0
LAYER
  2
CSLAYER14
 70
    64
 62
     7
  6
CONTINUOUS
  0
LAYER
  2
CSLAYER15
 70
    64
 62
     7
  6
CONTINUOUS
  0
LAYER
  2
CSLAYER16
 70
    64
 62
     7
  6
CONTINUOUS
  0
ENDTAB
  0
TABLE
  2
STYLE
 70
     1
  0
STYLE
  2
JX_FONT
 70
     0
 40
1.0
 41
1.0
 50
0.0
 71
     0
 42
1.0
  3
monotxt
  4
bigfont
  0
ENDTAB
  0
TABLE
  2
VIEW
 70
     0
  0
ENDTAB
  0
ENDSEC
  0
SECTION
  2
BLOCKS
  0
ENDSEC
  0
SECTION
  2
ENTITIES
  0
LINE
  8
CSLAYER1
  6
CENTER
 62
     3
 10
311.479772
 20
108.439363
 11
379.835378
 21
108.439363
  0
CIRCLE
  8
CSLAYER1
  6
CONTINUOUS
 62
     6
 10
353.786352
 20
108.439363
 40
13.000000
  0
LINE
  8
CSLAYER1
  6
CONTINUOUS
 62
     6
 10
320.186361
 20
84.239366
 11
372.186361
 21
84.239366
  0
LINE
  8
CSLAYER1
  6
CONTINUOUS
 62
     6
 10
348.186346
 20
80.239382
 11
322.186346
 21
80.239382
  0
LINE
  8
CSLAYER1
  6
CONTINUOUS
 62
     6
 10
349.186346
 20
81.239382
 11
321.186346
 21
81.239382
  0
LINE
  8
CSLAYER1
  6
CONTINUOUS
 62
     6
 10
314.467641
 20
132.227892
 11
315.479131
 21
133.239366
  0
LINE
  8
CSLAYER1
  6
CONTINUOUS
 62
     6
 10
322.186346
 20
80.239382
 11
321.186346
 21
81.239366
  0
LINE
  8
CSLAYER1
  6
CONTINUOUS
 62
     6
 10
321.133977
 20
84.239366
 11
321.186346
 21
81.239366
  0
LINE
  8
CSLAYER1
  6
CONTINUOUS
 62
     6
 10
317.471761
 20
104.533296
 11
317.652044
 21
94.204469
  0
ARC
  8
CSLAYER1
  6
CONTINUOUS
 62
     6
 10
316.467321
 20
108.216570
 40
2.000000
 50
178.999988
 51
250.165205
  0
ARC
  8
CSLAYER1
  6
CONTINUOUS
 62
     6
 10
319.651739
 20
94.239382
 40
2.000000
 50
181.000004
 51
222.887779
  0
ARC
  8
CSLAYER1
  6
CONTINUOUS
 62
     6
 10
315.547689
 20
104.421831
 40
1.927410
 50
3.315119
 51
82.828302
  0
LINE
  8
CSLAYER1
  6
CONTINUOUS
 62
     6
 10
348.186346
 20
80.239382
 11
349.186346
 21
81.239366
  0
LINE
  8
CSLAYER1
  6
CONTINUOUS
 62
     6
 10
349.238714
 20
84.239366
 11
349.186346
 21
81.239366
  0
LINE
  8
CSLAYER1
  6
CONTINUOUS
 62
     6
 10
349.212530
 20
82.739366
 11
363.314199
 21
81.836137
  0
ARC
  8
CSLAYER1
  6
CONTINUOUS
 62
     6
 10
363.186361
 20
79.840227
 40
2.000000
 50
0.000005
 51
86.335140
  0
ARC
  8
CSLAYER1
  6
CONTINUOUS
 62
     6
 10
320.186361
 20
86.239366
 40
2.000000
 50
180.000010
 51
270.000016
  0
ARC
  8
CSLAYER1
  6
CONTINUOUS
 62
     6
 10
372.186361
 20
86.239366
 40
2.000000
 50
-89.999984
 51
0.000005
  0
LINE
  8
CSLAYER1
  6
CONTINUOUS
 62
     6
 10
341.130926
 20
123.239366
 11
330.186346
 21
123.239366
  0
LINE
  8
CSLAYER1
  6
CONTINUOUS
 62
     6
 10
321.186361
 20
96.239366
 11
321.186361
 21
114.239382
  0
LINE
  8
CSLAYER1
  6
CONTINUOUS
 62
     6
 10
330.186346
 20
87.239366
 11
362.186361
 21
87.239366
  0
LINE
  8
CSLAYER1
  6
CONTINUOUS
 62
     6
 10
371.186361
 20
99.120577
 11
371.186361
 21
96.239366
  0
ARC
  8
CSLAYER1
  6
CONTINUOUS
 62
     6
 10
353.786352
 20
108.439363
 40
16.000000
 50
134.674601
 51
328.821226
  0
ARC
  8
CSLAYER1
  6
CONTINUOUS
 62
     6
 10
323.186346
 20
121.239382
 40
5.000000
 50
270.000180
 51
359.999896
  0
ARC
  8
CSLAYER1
  6
CONTINUOUS
 62
     6
 10
323.186346
 20
89.239366
 40
5.000000
 50
0.000005
 51
89.999837
  0
ARC
  8
CSLAYER1
  6
CONTINUOUS
 62
     6
 10
369.186361
 20
89.239366
 40
5.000000
 50
90.000001
 51
179.942691
  0
ARC
  8
CSLAYER1
  6
CONTINUOUS
 62
     6
 10
330.186346
 20
121.239366
 40
2.000000
 50
90.000001
 51
179.942691
  0
ARC
  8
CSLAYER1
  6
CONTINUOUS
 62
     6
 10
323.186361
 20
114.239382
 40
2.000000
 50
90.000001
 51
179.942691
  0
ARC
  8
CSLAYER1
  6
CONTINUOUS
 62
     6
 10
323.186361
 20
96.239366
 40
2.000000
 50
180.000010
 51
270.000016
  0
ARC
  8
CSLAYER1
  6
CONTINUOUS
 62
     6
 10
330.186346
 20
89.239366
 40
2.000000
 50
180.000010
 51
270.000016
  0
ARC
  8
CSLAYER1
  6
CONTINUOUS
 62
     6
 10
362.186361
 20
89.239366
 40
2.000000
 50
-89.999984
 51
0.000005
  0
ARC
  8
CSLAYER1
  6
CONTINUOUS
 62
     6
 10
369.186361
 20
96.239366
 40
2.000000
 50
-89.999984
 51
0.000005
  0
ARC
  8
CSLAYER1
  6
CONTINUOUS
 62
     6
 10
341.130926
 20
121.239366
 40
2.000000
 50
-45.325458
 51
90.000028
  0
ARC
  8
CSLAYER1
  6
CONTINUOUS
 62
     6
 10
369.186361
 20
99.120577
 40
2.000000
 50
0.000005
 51
148.821043
  0
LINE
  8
CSLAYER1
  6
CONTINUOUS
 62
     6
 10
365.186361
 20
84.239366
 11
365.186376
 21
65.239366
  0
LINE
  8
CSLAYER1
  6
CONTINUOUS
 62
     6
 10
382.186376
 20
63.239366
 11
367.186376
 21
63.239366
  0
ARC
  8
CSLAYER1
  6
CONTINUOUS
 62
     6
 10
367.186376
 20
65.239366
 40
2.000000
 50
180.000010
 51
270.000016
  0
LINE
  8
CSLAYER1
  6
CENTER
 62
     3
 10
353.786352
 20
130.129106
 11
353.786352
 21
90.139436
  0
LINE
  8
CSLAYER1
  6
CONTINUOUS
 62
     6
 10
355.497869
 20
132.227876
 11
354.486349
 21
133.239382
  0
ARC
  8
CSLAYER1
  6
CONTINUOUS
 62
     6
 10
382.186376
 20
65.239382
 40
2.000000
 50
-89.999997
 51
0.000005
  0
LINE
  8
CSLAYER1
  6
CONTINUOUS
 62
     6
 10
385.186376
 20
65.239397
 11
384.186376
 21
65.239397
  0
LINE
  8
CSLAYER1
  6
CENTER
 62
     3
 10
335.186346
 20
77.239382
 11
335.186346
 21
155.453050
  0
LINE
  8
CSLAYER1
  6
CONTINUOUS
 62
     6
 10
355.497869
 20
132.227876
 11
314.467626
 21
132.227876
  0
LINE
  8
CSLAYER1
  6
CENTER
 62
     3
 10
316.706090
 20
89.239366
 11
331.082815
 21
89.239366
  0
LINE
  8
CSLAYER1
  6
CENTER
 62
     3
 10
323.186346
 20
82.668352
 11
323.186346
 21
96.672456
  0
CIRCLE
  8
CSLAYER1
  6
CONTINUOUS
 62
     3
 10
323.186361
 20
89.239366
 40
2.500000
  0
CIRCLE
  8
CSLAYER1
  6
CONTINUOUS
 62
     6
 10
323.186361
 20
89.239366
 40
2.000000
  0
LINE
  8
CSLAYER1
  6
CENTER
 62
     3
 10
316.706090
 20
121.239366
 11
331.082815
 21
121.239366
  0
CIRCLE
  8
CSLAYER1
  6
CONTINUOUS
 62
     3
 10
323.186361
 20
121.239366
 40
2.500000
  0
CIRCLE
  8
CSLAYER1
  6
CONTINUOUS
 62
     6
 10
323.186361
 20
121.239366
 40
2.000000
  0
LINE
  8
CSLAYER1
  6
CENTER
 62
     3
 10
369.186346
 20
82.668352
 11
369.186346
 21
96.672456
  0
LINE
  8
CSLAYER1
  6
CENTER
 62
     3
 10
362.706090
 20
89.239366
 11
377.082815
 21
89.239366
  0
CIRCLE
  8
CSLAYER1
  6
CONTINUOUS
 62
     3
 10
369.186361
 20
89.239366
 40
2.500000
  0
CIRCLE
  8
CSLAYER1
  6
CONTINUOUS
 62
     6
 10
369.186361
 20
89.239366
 40
2.000000
  0
LINE
  8
CSLAYER1
  6
CENTER
 62
     3
 10
390.972951
 20
121.239366
 11
362.706090
 21
121.239366
  0
CIRCLE
  8
CSLAYER1
  6
CONTINUOUS
 62
     3
 10
369.186361
 20
121.239366
 40
2.500000
  0
CIRCLE
  8
CSLAYER1
  6
CONTINUOUS
 62
     6
 10
369.186361
 20
121.239366
 40
2.000000
  0
ARC
  8
CSLAYER1
  6
CONTINUOUS
 62
     6
 10
382.186361
 20
125.239382
 40
2.000000
 50
0.000005
 51
90.000001
  0
ARC
  8
CSLAYER1
  6
CONTINUOUS
 62
     6
 10
320.186361
 20
125.239366
 40
2.000000
 50
90.000001
 51
179.942691
  0
ARC
  8
CSLAYER1
  6
CONTINUOUS
 62
     6
 10
372.186361
 20
125.239366
 40
2.000000
 50
0.000005
 51
90.000001
  0
LINE
  8
CSLAYER1
  6
CONTINUOUS
 62
     6
 10
374.686361
 20
127.239366
 11
320.186361
 21
127.239366
  0
LINE
  8
CSLAYER1
  6
CONTINUOUS
 62
     6
 10
375.186361
 20
126.739366
 11
374.686361
 21
127.239366
  0
LINE
  8
CSLAYER1
  6
CONTINUOUS
 62
     6
 10
318.186361
 20
125.239366
 11
318.186361
 21
86.239366
  0
LINE
  8
CSLAYER1
  6
CONTINUOUS
 62
     6
 10
374.186361
 20
125.239366
 11
374.186361
 21
86.239366
  0
LINE
  8
CSLAYER1
  6
CONTINUOUS
 62
     6
 10
375.186361
 20
127.239382
 11
375.186376
 21
63.239366
  0
LINE
  8
CSLAYER1
  6
CONTINUOUS
 62
     6
 10
355.497854
 20
132.227861
 11
355.574087
 21
127.239366
  0
LINE
  8
CSLAYER1
  6
CENTER
 62
     3
 10
323.186346
 20
114.668352
 11
323.186346
 21
128.172456
  0
LINE
  8
CSLAYER1
  6
CENTER
 62
     3
 10
369.186346
 20
114.668352
 11
369.186346
 21
128.172456
  0
LINE
  8
CSLAYER1
  6
CONTINUOUS
 62
     6
 10
382.186361
 20
127.239382
 11
375.186361
 21
127.239382
  0
LINE
  8
CSLAYER1
  6
CENTER
 62
     3
 10
471.686361
 20
95.239382
 11
338.426778
 21
95.239382
  0
LINE
  8
CSLAYER1
  6
CONTINUOUS
 62
     6
 10
437.186370
 20
64.239382
 11
437.186370
 21
126.239382
  0
LINE
  8
CSLAYER1
  6
CENTER
 62
     3
 10
448.186378
 20
82.239382
 11
448.186420
 21
148.847347
  0
CIRCLE
  8
CSLAYER1
  6
CONTINUOUS
 62
     6
 10
448.186378
 20
95.239382
 40
8.000000
  0
CIRCLE
  8
CSLAYER1
  6
CONTINUOUS
 62
     6
 10
448.186378
 20
95.239382
 40
6.000000
  0
CIRCLE
  8
CSLAYER1
  6
CONTINUOUS
 62
     3
 10
448.186378
 20
95.239382
 40
5.500000
  0
LINE
  8
CSLAYER1
  6
CONTINUOUS
 62
     6
 10
445.436378
 20
94.439378
 11
450.936378
 21
94.439378
  0
LINE
  8
CSLAYER1
  6
CONTINUOUS
 62
     6
 10
445.436378
 20
96.039385
 11
450.936378
 21
96.039385
  0
LINE
  8
CSLAYER1
  6
CONTINUOUS
 62
     6
 10
450.936378
 20
94.439378
 11
450.936378
 21
96.039385
  0
LINE
  8
CSLAYER1
  6
CONTINUOUS
 62
     6
 10
445.436378
 20
94.439378
 11
445.436378
 21
96.039385
  0
LINE
  8
CSLAYER1
  6
CONTINUOUS
 62
     6
 10
447.086408
 20
135.799265
 11
447.086371
 21
125.066561
  0
LINE
  8
CSLAYER1
  6
CONTINUOUS
 62
     6
 10
449.286390
 20
135.799265
 11
449.286353
 21
125.028161
  0
ARC
  8
CSLAYER1
  6
CONTINUOUS
 62
     6
 10
462.845258
 20
138.711497
 40
15.758816
 50
152.536202
 51
179.942691
  0
ARC
  8
CSLAYER1
  6
CONTINUOUS
 62
     6
 10
462.845258
 20
138.711497
 40
13.558834
 50
152.536202
 51
179.942691
  0
ARC
  8
CSLAYER1
  6
CONTINUOUS
 62
     6
 10
447.636411
 20
139.664088
 40
1.099999
 50
240.000350
 51
300.000345
  0
ARC
  8
CSLAYER1
  6
CONTINUOUS
 62
     6
 10
448.736410
 20
139.664095
 40
1.099999
 50
240.000350
 51
300.000345
  0
ARC
  8
CSLAYER1
  6
CONTINUOUS
 62
     6
 10
448.736418
 20
137.758845
 40
1.099999
 50
60.000362
 51
120.000350
  0
LINE
  8
CSLAYER1
  6
CONTINUOUS
 62
     6
 10
450.156843
 20
145.306452
 11
451.774000
 21
148.244532
  0
LINE
  8
CSLAYER1
  6
CONTINUOUS
 62
     6
 10
449.667921
 20
145.560587
 11
451.244703
 21
148.568003
  0
LINE
  8
CSLAYER1
  6
CONTINUOUS
 62
     6
 10
449.269789
 20
145.767542
 11
450.671278
 21
148.847346
  0
LINE
  8
CSLAYER1
  6
CONTINUOUS
 62
     6
 10
450.814466
 20
144.964655
 11
448.862409
 21
145.979273
  0
ARC
  8
CSLAYER1
  6
CONTINUOUS
 62
     6
 10
433.527563
 20
138.711497
 40
15.758816
 50
22.422068
 51
27.463868
  0
ARC
  8
CSLAYER1
  6
CONTINUOUS
 62
     6
 10
433.527563
 20
138.711497
 40
13.558834
 50
-0.000022
 51
27.463868
  0
LINE
  8
CSLAYER1
  6
CONTINUOUS
 62
     6
 10
446.215956
 20
145.306483
 11
444.598799
 21
148.244532
  0
LINE
  8
CSLAYER1
  6
CONTINUOUS
 62
     6
 10
446.704878
 20
145.560603
 11
445.128095
 21
148.568003
  0
LINE
  8
CSLAYER1
  6
CONTINUOUS
 62
     6
 10
447.103010
 20
145.767542
 11
445.701521
 21
148.847361
  0
LINE
  8
CSLAYER1
  6
CONTINUOUS
 62
     6
 10
445.558332
 20
144.964671
 11
447.510389
 21
145.979289
  0
ARC
  8
CSLAYER1
  6
CONTINUOUS
 62
     6
 10
448.736387
 20
134.846629
 40
1.100006
 50
60.000007
 51
119.999995
  0
ARC
  8
CSLAYER1
  6
CONTINUOUS
 62
     6
 10
447.636381
 20
134.846629
 40
1.100006
 50
60.000007
 51
119.999995
  0
ARC
  8
CSLAYER1
  6
CONTINUOUS
 62
     6
 10
447.636381
 20
136.751902
 40
1.100006
 50
240.000002
 51
300.000003
  0
LINE
  8
CSLAYER1
  6
CONTINUOUS
 62
     6
 10
468.186378
 20
123.715715
 11
468.186378
 21
66.763048
  0
LINE
  8
CSLAYER1
  6
CONTINUOUS
 62
     6
 10
467.186378
 20
124.715715
 11
467.186378
 21
65.763048
  0
LINE
  8
CSLAYER1
  6
CONTINUOUS
 62
     6
 10
467.186378
 20
65.763048
 11
437.186355
 21
65.239397
  0
LINE
  8
CSLAYER1
  6
CONTINUOUS
 62
     6
 10
467.186378
 20
65.763048
 11
468.186378
 21
66.763048
  0
LINE
  8
CSLAYER1
  6
CONTINUOUS
 62
     6
 10
467.186378
 20
124.715715
 11
437.186355
 21
125.239366
  0
LINE
  8
CSLAYER1
  6
CONTINUOUS
 62
     6
 10
467.186378
 20
124.715715
 11
468.186378
 21
123.715715
  0
LINE
  8
CSLAYER1
  6
CONTINUOUS
 62
     6
 10
385.186338
 20
64.239382
 11
437.186370
 21
64.239382
  0
LINE
  8
CSLAYER1
  6
CONTINUOUS
 62
     6
 10
385.186338
 20
126.239382
 11
437.186370
 21
126.239382
  0
LINE
  8
CSLAYER1
  6
CONTINUOUS
 62
     3
 10
430.818914
 20
79.739412
 11
394.818937
 21
79.739412
  0
LINE
  8
CSLAYER1
  6
CONTINUOUS
 62
     3
 10
431.818914
 20
64.239382
 11
431.818914
 21
78.739412
  0
ARC
  8
CSLAYER1
  6
CONTINUOUS
 62
     3
 10
430.818914
 20
78.739412
 40
1.000000
 50
0.000019
 51
90.000028
  0
ARC
  8
CSLAYER1
  6
CONTINUOUS
 62
     3
 10
394.818937
 20
78.739412
 40
1.000000
 50
90.000028
 51
179.942691
  0
LINE
  8
CSLAYER1
  6
CONTINUOUS
 62
     3
 10
393.818937
 20
78.739412
 11
393.818937
 21
64.239382
  0
LINE
  8
CSLAYER1
  6
CENTER
 62
     3
 10
390.972951
 20
69.239397
 11
362.706090
 21
69.239397
  0
ARC
  8
CSLAYER1
  6
CONTINUOUS
 62
     6
 10
385.061377
 20
117.740297
 40
0.125000
 50
-89.999997
 51
0.000005
  0
ARC
  8
CSLAYER1
  6
CONTINUOUS
 62
     6
 10
385.061377
 20
124.740267
 40
0.125000
 50
0.000005
 51
90.000001
  0
ARC
  8
CSLAYER1
  6
CONTINUOUS
 62
     6
 10
384.311377
 20
117.740297
 40
0.125000
 50
180.000000
 51
270.000003
  0
ARC
  8
CSLAYER1
  6
CONTINUOUS
 62
     6
 10
384.311377
 20
124.740267
 40
0.125000
 50
90.000001
 51
179.942691
  0
LINE
  8
CSLAYER1
  6
CONTINUOUS
 62
     6
 10
385.061377
 20
117.615282
 11
384.311377
 21
117.615282
  0
LINE
  8
CSLAYER1
  6
CONTINUOUS
 62
     6
 10
385.061377
 20
124.865282
 11
384.311377
 21
124.865282
  0
LINE
  8
CSLAYER1
  6
CONTINUOUS
 62
     6
 10
385.186377
 20
121.985201
 11
384.186377
 21
121.430376
  0
LINE
  8
CSLAYER1
  6
CONTINUOUS
 62
     6
 10
385.186377
 20
121.360201
 11
384.186377
 21
120.805376
  0
LINE
  8
CSLAYER1
  6
CONTINUOUS
 62
     6
 10
385.469030
 20
117.741228
 11
386.287802
 21
117.811815
  0
ARC
  8
CSLAYER1
  6
CONTINUOUS
 62
     6
 10
386.174505
 20
119.088197
 40
1.290623
 50
275.000118
 51
343.742789
  0
ARC
  8
CSLAYER1
  6
CONTINUOUS
 62
     6
 10
385.446386
 20
117.996492
 40
0.258129
 50
179.999983
 51
274.999718
  0
LINE
  8
CSLAYER1
  6
CONTINUOUS
 62
     6
 10
385.469030
 20
124.739336
 11
386.287802
 21
124.668749
  0
ARC
  8
CSLAYER1
  6
CONTINUOUS
 62
     6
 10
386.174505
 20
123.392366
 40
1.290623
 50
16.257208
 51
84.999892
  0
ARC
  8
CSLAYER1
  6
CONTINUOUS
 62
     6
 10
385.446386
 20
124.484071
 40
0.258129
 50
85.000275
 51
179.942691
  0
ARC
  8
CSLAYER1
  6
CONTINUOUS
 62
     6
 10
385.061391
 20
65.739412
 40
0.125000
 50
-89.999997
 51
0.000005
  0
ARC
  8
CSLAYER1
  6
CONTINUOUS
 62
     6
 10
385.061391
 20
72.739382
 40
0.125000
 50
0.000005
 51
90.000001
  0
ARC
  8
CSLAYER1
  6
CONTINUOUS
 62
     6
 10
384.311391
 20
65.739412
 40
0.125000
 50
180.000000
 51
270.000003
  0
ARC
  8
CSLAYER1
  6
CONTINUOUS
 62
     6
 10
384.311391
 20
72.739382
 40
0.125000
 50
90.000001
 51
179.942691
  0
LINE
  8
CSLAYER1
  6
CONTINUOUS
 62
     6
 10
385.061391
 20
65.614397
 11
384.311391
 21
65.614397
  0
LINE
  8
CSLAYER1
  6
CONTINUOUS
 62
     6
 10
385.061391
 20
72.864397
 11
384.311391
 21
72.864397
  0
LINE
  8
CSLAYER1
  6
CONTINUOUS
 62
     6
 10
385.186391
 20
69.984316
 11
384.186391
 21
69.429491
  0
LINE
  8
CSLAYER1
  6
CONTINUOUS
 62
     6
 10
385.186391
 20
69.359316
 11
384.186391
 21
68.804491
  0
LINE
  8
CSLAYER1
  6
CONTINUOUS
 62
     6
 10
385.469045
 20
65.740343
 11
386.287816
 21
65.810930
  0
ARC
  8
CSLAYER1
  6
CONTINUOUS
 62
     6
 10
386.174520
 20
67.087312
 40
1.290623
 50
275.000118
 51
343.742789
  0
ARC
  8
CSLAYER1
  6
CONTINUOUS
 62
     6
 10
385.446401
 20
65.995607
 40
0.258129
 50
179.999983
 51
274.999718
  0
LINE
  8
CSLAYER1
  6
CONTINUOUS
 62
     6
 10
385.469045
 20
72.738451
 11
386.287816
 21
72.667864
  0
ARC
  8
CSLAYER1
  6
CONTINUOUS
 62
     6
 10
386.174520
 20
71.391481
 40
1.290623
 50
16.257208
 51
84.999892
  0
ARC
  8
CSLAYER1
  6
CONTINUOUS
 62
     6
 10
385.446401
 20
72.483186
 40
0.258129
 50
85.000275
 51
179.942691
  0
LINE
  8
CSLAYER1
  6
CONTINUOUS
 62
     6
 10
384.186368
 20
125.239382
 11
384.186368
 21
65.239397
  0
LINE
  8
CSLAYER1
  6
CONTINUOUS
 62
     6
 10
385.186361
 20
125.239366
 11
384.186361
 21
125.239366
  0
LINE
  8
CSLAYER1
  6
CONTINUOUS
 62
     6
 10
315.479115
 20
133.239397
 11
354.486333
 21
133.239397
  0
LINE
  8
CSLAYER1
  6
CONTINUOUS
 62
     6
 10
331.186346
 20
153.239397
 11
339.186346
 21
153.239397
  0
LINE
  8
CSLAYER1
  6
CONTINUOUS
 62
     6
 10
331.186346
 20
153.239397
 11
331.186346
 21
133.239397
  0
LINE
  8
CSLAYER1
  6
CONTINUOUS
 62
     6
 10
339.186346
 20
153.239397
 11
339.186346
 21
133.239397
  0
LINE
  8
CSLAYER1
  6
CONTINUOUS
 62
     6
 10
337.122838
 20
135.239397
 11
333.249853
 21
135.239397
  0
LINE
  8
CSLAYER1
  6
CONTINUOUS
 62
     6
 10
333.249853
 20
135.239397
 11
333.249853
 21
153.239397
  0
LINE
  8
CSLAYER1
  6
CONTINUOUS
 62
     6
 10
337.122838
 20
135.239397
 11
337.122838
 21
153.239397
  0
LINE
  8
CSLAYER1
  6
CONTINUOUS
 62
     3
 10
333.249853
 20
135.239397
 11
337.122838
 21
153.239397
  0
LINE
  8
CSLAYER1
  6
CONTINUOUS
 62
     3
 10
337.122838
 20
135.239397
 11
333.249853
 21
153.239397
  0
TEXT
  8
CSLAYER1
 62
     3
 10
411.127930
 20
77.020920
 40
3.500000
 41
1.125000
  1
N P
 50
270.000000
 51
10.000000
  7
JX_FONT
 72
     5
 11
411.127930
 21
66.520920
  0
LINE
  8
CSLAYER1
  6
CENTER
 62
     3
 10
284.921109
 20
220.239366
 11
208.921140
 21
220.239397
  0
LINE
  8
CSLAYER1
  6
CENTER
 62
     3
 10
243.921140
 20
174.239366
 11
243.921140
 21
255.239366
  0
LINE
  8
CSLAYER1
  6
CENTER
 62
     3
 10
257.121121
 20
174.239336
 11
257.121121
 21
255.239366
  0
LINE
  8
CSLAYER1
  6
CENTER
 62
     3
 10
217.921109
 20
255.239397
 11
217.921109
 21
240.575395
  0
LINE
  8
CSLAYER1
  6
CENTER
 62
     3
 10
208.921140
 20
246.239397
 11
224.183377
 21
246.239397
  0
CIRCLE
  8
CSLAYER1
  6
CONTINUOUS
 62
     3
 10
217.921109
 20
246.239397
 40
2.000000
  0
CIRCLE
  8
CSLAYER1
  6
CONTINUOUS
 62
     6
 10
217.921109
 20
246.239397
 40
1.600000
  0
ARC
  8
CSLAYER1
  6
CONTINUOUS
 62
     6
 10
217.921109
 20
246.239397
 40
6.000000
 50
90.000000
 51
180.000003
  0
LINE
  8
CSLAYER1
  6
CENTER
 62
     3
 10
217.921109
 20
185.239397
 11
217.921109
 21
199.078661
  0
LINE
  8
CSLAYER1
  6
CENTER
 62
     3
 10
208.921140
 20
194.239397
 11
224.566586
 21
194.239397
  0
CIRCLE
  8
CSLAYER1
  6
CONTINUOUS
 62
     3
 10
217.921109
 20
194.239397
 40
2.000000
  0
CIRCLE
  8
CSLAYER1
  6
CONTINUOUS
 62
     6
 10
217.921109
 20
194.239397
 40
1.600000
  0
ARC
  8
CSLAYER1
  6
CONTINUOUS
 62
     6
 10
217.921109
 20
194.239397
 40
6.000000
 50
180.000016
 51
269.999991
  0
ARC
  8
CSLAYER1
  6
CONTINUOUS
 62
     6
 10
269.921140
 20
246.239366
 40
6.000000
 50
0.000001
 51
89.942691
  0
LINE
  8
CSLAYER1
  6
CONTINUOUS
 62
     6
 10
228.921109
 20
191.239397
 11
228.921109
 21
217.239397
  0
LINE
  8
CSLAYER1
  6
CONTINUOUS
 62
     6
 10
229.921109
 20
190.239397
 11
229.921109
 21
218.239397
  0
LINE
  8
CSLAYER1
  6
CONTINUOUS
 62
     6
 10
243.921140
 20
252.239397
 11
269.921140
 21
252.239366
  0
LINE
  8
CSLAYER1
  6
CONTINUOUS
 62
     6
 10
228.921109
 20
217.239397
 11
229.921109
 21
218.239397
  0
LINE
  8
CSLAYER1
  6
CONTINUOUS
 62
     6
 10
240.921109
 20
191.682298
 11
240.921109
 21
218.817827
  0
LINE
  8
CSLAYER1
  6
CONTINUOUS
 62
     6
 10
254.898312
 20
191.937639
 11
254.898312
 21
222.446398
  0
LINE
  8
CSLAYER1
  6
CONTINUOUS
 62
     6
 10
239.100095
 20
218.399614
 11
229.921109
 21
218.239397
  0
LINE
  8
CSLAYER1
  6
CONTINUOUS
 62
     6
 10
253.215054
 20
221.953966
 11
242.886197
 21
221.773699
  0
ARC
  8
CSLAYER1
  6
CONTINUOUS
 62
     6
 10
256.898312
 20
222.958421
 40
2.000000
 50
88.999988
 51
160.165205
  0
ARC
  8
CSLAYER1
  6
CONTINUOUS
 62
     6
 10
242.921109
 20
219.774004
 40
2.000000
 50
90.999994
 51
166.537590
  0
ARC
  8
CSLAYER1
  6
CONTINUOUS
 62
     6
 10
253.103574
 20
223.878038
 40
1.927410
 50
273.315092
 51
352.828275
  0
ARC
  8
CSLAYER1
  6
CONTINUOUS
 62
     6
 10
239.030179
 20
220.348009
 40
1.950172
 50
272.054895
 51
356.805193
  0
LINE
  8
CSLAYER1
  6
CONTINUOUS
 62
     6
 10
232.921109
 20
186.239397
 11
232.921109
 21
177.239366
  0
LINE
  8
CSLAYER1
  6
CONTINUOUS
 62
     6
 10
274.421109
 20
187.239336
 11
234.921109
 21
187.239366
  0
LINE
  8
CSLAYER1
  6
CONTINUOUS
 62
     6
 10
228.921109
 20
191.239397
 11
229.921109
 21
190.239397
  0
LINE
  8
CSLAYER1
  6
CONTINUOUS
 62
     6
 10
239.100095
 20
190.079149
 11
229.921109
 21
190.239397
  0
LINE
  8
CSLAYER1
  6
CONTINUOUS
 62
     3
 10
271.885648
 20
189.782579
 11
256.828519
 21
189.519762
  0
LINE
  8
CSLAYER1
  6
CONTINUOUS
 62
     3
 10
242.851315
 20
191.591051
 11
253.180142
 21
191.410753
  0
ARC
  8
CSLAYER1
  6
CONTINUOUS
 62
     6
 10
234.921109
 20
185.239366
 40
2.000000
 50
90.000000
 51
180.000003
  0
LINE
  8
CSLAYER1
  6
CONTINUOUS
 62
     6
 10
217.921109
 20
188.239397
 11
230.921109
 21
188.239397
  0
ARC
  8
CSLAYER1
  6
CONTINUOUS
 62
     6
 10
230.921109
 20
186.239397
 40
2.000000
 50
0.000001
 51
89.942691
  0
ARC
  8
CSLAYER1
  6
CONTINUOUS
 62
     6
 10
239.100095
 20
188.659258
 40
1.419891
 50
-90.000009
 51
89.942691
  0
LINE
  8
CSLAYER1
  6
CONTINUOUS
 62
     6
 10
243.121121
 20
251.239397
 11
271.121121
 21
251.239397
  0
LINE
  8
CSLAYER1
  6
CONTINUOUS
 62
     6
 10
243.586514
 20
240.239397
 11
270.655728
 21
240.239397
  0
LINE
  8
CSLAYER1
  6
CONTINUOUS
 62
     6
 10
272.887860
 20
224.958116
 11
272.655423
 21
238.274309
  0
LINE
  8
CSLAYER1
  6
CONTINUOUS
 62
     6
 10
271.295987
 20
241.222215
 11
271.121121
 21
251.239397
  0
LINE
  8
CSLAYER1
  6
CONTINUOUS
 62
     6
 10
269.921140
 20
252.239366
 11
271.121121
 21
251.239397
  0
ARC
  8
CSLAYER1
  6
CONTINUOUS
 62
     6
 10
270.655728
 20
238.239397
 40
2.000000
 50
0.999995
 51
51.743738
  0
ARC
  8
CSLAYER1
  6
CONTINUOUS
 62
     6
 10
273.295926
 20
241.236376
 40
2.000000
 50
180.405661
 51
225.499806
  0
LINE
  8
CSLAYER1
  6
CONTINUOUS
 62
     6
 10
211.921140
 20
246.239397
 11
211.921140
 21
194.239397
  0
LINE
  8
CSLAYER1
  6
CONTINUOUS
 62
     6
 10
241.521695
 20
234.544908
 11
241.586819
 21
238.274309
  0
LINE
  8
CSLAYER1
  6
CONTINUOUS
 62
     6
 10
242.946255
 20
241.222246
 11
243.121121
 21
251.239397
  0
LINE
  8
CSLAYER1
  6
CONTINUOUS
 62
     6
 10
244.321103
 20
252.239397
 11
243.121121
 21
251.239397
  0
ARC
  8
CSLAYER1
  6
CONTINUOUS
 62
     6
 10
243.586514
 20
238.239397
 40
2.000000
 50
128.256293
 51
179.000008
  0
ARC
  8
CSLAYER1
  6
CONTINUOUS
 62
     6
 10
240.946317
 20
241.236406
 40
2.000000
 50
314.500204
 51
359.594342
  0
ARC
  8
CSLAYER1
  6
CONTINUOUS
 62
     6
 10
243.921109
 20
220.239397
 40
13.000000
 50
89.999983
 51
188.638405
  0
LINE
  8
CSLAYER1
  6
CONTINUOUS
 62
     6
 10
243.921140
 20
233.239397
 11
253.745694
 21
233.239397
  0
ARC
  8
CSLAYER1
  6
CONTINUOUS
 62
     6
 10
253.979672
 20
235.292436
 40
2.064595
 50
263.498225
 51
359.242724
  0
ARC
  8
CSLAYER1
  6
CONTINUOUS
 62
     6
 10
239.522000
 20
234.579820
 40
2.000000
 50
287.053990
 51
359.000225
  0
ARC
  8
CSLAYER1
  6
CONTINUOUS
 62
     6
 10
274.421109
 20
185.239336
 40
2.000000
 50
41.409634
 51
89.942691
  0
LINE
  8
CSLAYER1
  6
CONTINUOUS
 62
     6
 10
275.921109
 20
177.239336
 11
232.921109
 21
177.239366
  0
LINE
  8
CSLAYER1
  6
CENTER
 62
     3
 10
225.921124
 20
204.239397
 11
304.921094
 21
204.239366
  0
LINE
  8
CSLAYER1
  6
CONTINUOUS
 62
     6
 10
275.921109
 20
224.958116
 11
275.921109
 21
246.239366
  0
LINE
  8
CSLAYER1
  6
CONTINUOUS
 62
     6
 10
275.921109
 20
191.487444
 11
275.921109
 21
177.239336
  0
LINE
  8
CSLAYER1
  6
CONTINUOUS
 62
     6
 10
280.909589
 20
183.927843
 11
281.921109
 21
184.939348
  0
LINE
  8
CSLAYER1
  6
CONTINUOUS
 62
     6
 10
280.909589
 20
224.958116
 11
280.909589
 21
183.927843
  0
LINE
  8
CSLAYER1
  6
CONTINUOUS
 62
     6
 10
281.921094
 20
223.958116
 11
281.921109
 21
184.939348
  0
LINE
  8
CSLAYER1
  6
CONTINUOUS
 62
     6
 10
301.921094
 20
208.239397
 11
281.921109
 21
208.239397
  0
LINE
  8
CSLAYER1
  6
CONTINUOUS
 62
     6
 10
283.921094
 20
200.239397
 11
281.921109
 21
200.239397
  0
LINE
  8
CSLAYER1
  6
CONTINUOUS
 62
     6
 10
301.921094
 20
200.739397
 11
301.921094
 21
208.239397
  0
LINE
  8
CSLAYER1
  6
CONTINUOUS
 62
     6
 10
283.921094
 20
200.739397
 11
283.921094
 21
200.239366
  0
LINE
  8
CSLAYER1
  6
CONTINUOUS
 62
     6
 10
256.933224
 20
224.958116
 11
280.921094
 21
224.958116
  0
LINE
  8
CSLAYER1
  6
CONTINUOUS
 62
     6
 10
280.909589
 20
183.927843
 11
275.921109
 21
183.927843
  0
LINE
  8
CSLAYER1
  6
CONTINUOUS
 62
     6
 10
280.921094
 20
224.958116
 11
281.921094
 21
223.958116
  0
LINE
  8
CSLAYER1
  6
CONTINUOUS
 62
     6
 10
217.921109
 20
252.239397
 11
243.921140
 21
252.239397
  0
LINE
  8
CSLAYER1
  6
CONTINUOUS
 62
     6
 10
283.921094
 20
200.739397
 11
301.921094
 21
200.739397
  0
CIRCLE
  8
CSLAYER1
  6
CONTINUOUS
 62
     6
 10
359.412862
 20
98.666200
 40
1.181817
  0
ARC
  8
CSLAYER1
  6
CONTINUOUS
 62
     6
 10
359.412862
 20
98.666200
 40
2.532799
 50
50.235874
 51
203.481567
  0
LINE
  8
CSLAYER1
  6
CONTINUOUS
 62
     6
 10
357.089803
 20
97.656999
 11
357.594503
 21
96.009660
  0
CIRCLE
  8
CSLAYER1
  6
CONTINUOUS
 62
     6
 10
348.159841
 20
98.666200
 40
1.181817
  0
ARC
  8
CSLAYER1
  6
CONTINUOUS
 62
     6
 10
348.159841
 20
98.666200
 40
2.532799
 50
-23.481552
 51
129.764124
  0
LINE
  8
CSLAYER1
  6
CONTINUOUS
 62
     6
 10
350.482900
 20
97.656999
 11
349.978200
 21
96.009660
  0
ARC
  8
CSLAYER1
  6
CONTINUOUS
 62
     6
 10
353.786352
 20
107.751985
 40
11.323711
 50
-37.903087
 51
217.903071
  0
ARC
  8
CSLAYER1
  6
CONTINUOUS
 62
     6
 10
361.788824
 20
101.521562
 40
1.181817
 50
230.236306
 51
322.096613
  0
ARC
  8
CSLAYER1
  6
CONTINUOUS
 62
     6
 10
345.783864
 20
101.521562
 40
1.181817
 50
217.903402
 51
309.763723
  0
LINE
  8
CSLAYER1
  6
CONTINUOUS
 62
     6
 10
385.186392
 20
126.239382
 11
385.186392
 21
117.996492
  0
LINE
  8
CSLAYER1
  6
CONTINUOUS
 62
     6
 10
385.186368
 20
72.739382
 11
385.186368
 21
117.996492
  0
LINE
  8
CSLAYER1
  6
CONTINUOUS
 62
     6
 10
385.186406
 20
64.239382
 11
385.186406
 21
72.739382
  0
LINE
  8
CSLAYER1
  6
CONTINUOUS
 62
     6
 10
314.467626
 20
108.251475
 11
314.467626
 21
132.227876
  0
LINE
  8
CSLAYER1
  6
CONTINUOUS
 62
     6
 10
365.186328
 20
250.239365
 11
365.186377
 21
189.239368
  0
LINE
  8
CSLAYER1
  6
CONTINUOUS
 62
     6
 10
382.686361
 20
188.239366
 11
375.186376
 21
188.239366
  0
LINE
  8
CSLAYER1
  6
CENTER
 62
     3
 10
353.786352
 20
255.129106
 11
353.786352
 21
174.239382
  0
ARC
  8
CSLAYER1
  6
CONTINUOUS
 62
     6
 10
382.686361
 20
190.239382
 40
2.000000
 50
-89.999997
 51
0.000005
  0
LINE
  8
CSLAYER1
  6
CONTINUOUS
 62
     6
 10
385.686361
 20
190.239397
 11
384.686361
 21
190.239397
  0
LINE
  8
CSLAYER1
  6
CENTER
 62
     3
 10
335.186346
 20
174.239382
 11
335.186346
 21
229.239382
  0
LINE
  8
CSLAYER1
  6
CENTER
 62
     3
 10
390.972951
 20
246.239366
 11
362.706090
 21
246.239366
  0
ARC
  8
CSLAYER1
  6
CONTINUOUS
 62
     6
 10
382.686361
 20
250.239382
 40
2.000000
 50
0.000005
 51
90.000001
  0
LINE
  8
CSLAYER1
  6
CONTINUOUS
 62
     6
 10
374.686361
 20
252.239366
 11
340.786352
 21
252.239366
  0
LINE
  8
CSLAYER1
  6
CONTINUOUS
 62
     6
 10
375.186361
 20
251.739366
 11
374.686361
 21
252.239366
  0
LINE
  8
CSLAYER1
  6
CONTINUOUS
 62
     6
 10
374.186361
 20
187.739366
 11
374.186361
 21
177.239382
  0
LINE
  8
CSLAYER1
  6
CONTINUOUS
 62
     6
 10
375.186361
 20
252.239382
 11
375.186376
 21
188.239366
  0
LINE
  8
CSLAYER1
  6
CONTINUOUS
 62
     6
 10
382.686361
 20
252.239382
 11
375.186361
 21
252.239382
  0
LINE
  8
CSLAYER1
  6
CENTER
 62
     3
 10
471.686399
 20
220.239382
 11
362.706090
 21
220.239382
  0
LINE
  8
CSLAYER1
  6
CONTINUOUS
 62
     6
 10
437.686391
 20
189.239382
 11
437.686391
 21
251.239382
  0
LINE
  8
CSLAYER1
  6
CONTINUOUS
 62
     6
 10
385.686361
 20
189.239382
 11
437.686391
 21
189.239382
  0
LINE
  8
CSLAYER1
  6
CONTINUOUS
 62
     6
 10
385.686361
 20
251.239382
 11
437.686391
 21
251.239382
  0
LINE
  8
CSLAYER1
  6
CENTER
 62
     3
 10
390.972951
 20
194.239397
 11
362.706090
 21
194.239397
  0
ARC
  8
CSLAYER1
  6
CONTINUOUS
 62
     6
 10
385.561376
 20
242.740297
 40
0.125000
 50
-89.999997
 51
0.000005
  0
ARC
  8
CSLAYER1
  6
CONTINUOUS
 62
     6
 10
385.561376
 20
249.740267
 40
0.125000
 50
0.000005
 51
90.000001
  0
ARC
  8
CSLAYER1
  6
CONTINUOUS
 62
     6
 10
384.811376
 20
242.740297
 40
0.125000
 50
180.000000
 51
270.000003
  0
ARC
  8
CSLAYER1
  6
CONTINUOUS
 62
     6
 10
384.811376
 20
249.740267
 40
0.125000
 50
90.000001
 51
179.942691
  0
LINE
  8
CSLAYER1
  6
CONTINUOUS
 62
     6
 10
385.561376
 20
242.615282
 11
384.811376
 21
242.615282
  0
LINE
  8
CSLAYER1
  6
CONTINUOUS
 62
     6
 10
385.561376
 20
249.865282
 11
384.811376
 21
249.865282
  0
LINE
  8
CSLAYER1
  6
CONTINUOUS
 62
     6
 10
385.686376
 20
246.985201
 11
384.686376
 21
246.430376
  0
LINE
  8
CSLAYER1
  6
CONTINUOUS
 62
     6
 10
385.686376
 20
246.360201
 11
384.686376
 21
245.805376
  0
LINE
  8
CSLAYER1
  6
CONTINUOUS
 62
     6
 10
385.969030
 20
242.741228
 11
386.787801
 21
242.811815
  0
ARC
  8
CSLAYER1
  6
CONTINUOUS
 62
     6
 10
386.674505
 20
244.088197
 40
1.290623
 50
275.000118
 51
343.742789
  0
ARC
  8
CSLAYER1
  6
CONTINUOUS
 62
     6
 10
385.946386
 20
242.996492
 40
0.258129
 50
179.999983
 51
274.999718
  0
LINE
  8
CSLAYER1
  6
CONTINUOUS
 62
     6
 10
385.969030
 20
249.739336
 11
386.787801
 21
249.668749
  0
ARC
  8
CSLAYER1
  6
CONTINUOUS
 62
     6
 10
386.674505
 20
248.392366
 40
1.290623
 50
16.257208
 51
84.999892
  0
ARC
  8
CSLAYER1
  6
CONTINUOUS
 62
     6
 10
385.946386
 20
249.484071
 40
0.258129
 50
85.000275
 51
179.942691
  0
ARC
  8
CSLAYER1
  6
CONTINUOUS
 62
     6
 10
385.561376
 20
190.739412
 40
0.125000
 50
-89.999997
 51
0.000005
  0
ARC
  8
CSLAYER1
  6
CONTINUOUS
 62
     6
 10
385.561376
 20
197.739382
 40
0.125000
 50
0.000005
 51
90.000001
  0
ARC
  8
CSLAYER1
  6
CONTINUOUS
 62
     6
 10
384.811376
 20
190.739412
 40
0.125000
 50
180.000000
 51
270.000003
  0
ARC
  8
CSLAYER1
  6
CONTINUOUS
 62
     6
 10
384.811376
 20
197.739382
 40
0.125000
 50
90.000001
 51
179.942691
  0
LINE
  8
CSLAYER1
  6
CONTINUOUS
 62
     6
 10
385.561376
 20
190.614397
 11
384.811376
 21
190.614397
  0
LINE
  8
CSLAYER1
  6
CONTINUOUS
 62
     6
 10
385.561376
 20
197.864397
 11
384.811376
 21
197.864397
  0
LINE
  8
CSLAYER1
  6
CONTINUOUS
 62
     6
 10
385.686376
 20
194.984316
 11
384.686376
 21
194.429491
  0
LINE
  8
CSLAYER1
  6
CONTINUOUS
 62
     6
 10
385.686376
 20
194.359316
 11
384.686376
 21
193.804491
  0
LINE
  8
CSLAYER1
  6
CONTINUOUS
 62
     6
 10
385.969030
 20
190.740343
 11
386.787801
 21
190.810930
  0
ARC
  8
CSLAYER1
  6
CONTINUOUS
 62
     6
 10
386.674505
 20
192.087312
 40
1.290623
 50
275.000118
 51
343.742789
  0
ARC
  8
CSLAYER1
  6
CONTINUOUS
 62
     6
 10
385.946386
 20
190.995607
 40
0.258129
 50
179.999983
 51
274.999718
  0
LINE
  8
CSLAYER1
  6
CONTINUOUS
 62
     6
 10
385.969030
 20
197.738451
 11
386.787801
 21
197.667864
  0
ARC
  8
CSLAYER1
  6
CONTINUOUS
 62
     6
 10
386.674505
 20
196.391481
 40
1.290623
 50
16.257208
 51
84.999892
  0
ARC
  8
CSLAYER1
  6
CONTINUOUS
 62
     6
 10
385.946386
 20
197.483186
 40
0.258129
 50
85.000275
 51
179.942691
  0
LINE
  8
CSLAYER1
  6
CONTINUOUS
 62
     6
 10
384.686391
 20
250.239382
 11
384.686391
 21
190.239397
  0
LINE
  8
CSLAYER1
  6
CONTINUOUS
 62
     6
 10
385.686361
 20
250.239366
 11
384.686361
 21
250.239366
  0
LINE
  8
CSLAYER1
  6
CONTINUOUS
 62
     6
 10
385.686391
 20
189.239382
 11
385.686391
 21
251.239382
  0
ARC
  8
CSLAYER1
  6
CONTINUOUS
 62
     6
 10
375.186361
 20
187.739366
 40
1.000000
 50
90.000000
 51
180.000000
  0
LINE
  8
CSLAYER1
  6
CONTINUOUS
 62
     6
 10
374.186361
 20
177.239382
 11
318.186362
 21
177.239382
  0
LINE
  8
CSLAYER1
  6
CONTINUOUS
 62
     6
 10
318.186362
 20
177.239382
 11
318.186362
 21
184.492147
  0
CIRCLE
  8
CSLAYER1
  6
CONTINUOUS
 62
     6
 10
335.186346
 20
204.239382
 40
20.500000
  0
CIRCLE
  8
CSLAYER1
  6
CONTINUOUS
 62
     6
 10
335.186346
 20
204.239382
 40
15.750000
  0
CIRCLE
  8
CSLAYER1
  6
CONTINUOUS
 62
     6
 10
335.186346
 20
204.239382
 40
4.000000
  0
LINE
  8
CSLAYER1
  6
CONTINUOUS
 62
     6
 10
333.249854
 20
200.739382
 11
337.122837
 21
200.739382
  0
LINE
  8
CSLAYER1
  6
CENTER
 62
     3
 10
358.686346
 20
204.239382
 11
310.186346
 21
204.239382
  0
ARC
  8
CSLAYER1
  6
CONTINUOUS
 62
     6
 10
367.186328
 20
250.239366
 40
2.000000
 50
90.000000
 51
180.000046
  0
LINE
  8
CSLAYER1
  6
CONTINUOUS
 62
     6
 10
363.186327
 20
251.239366
 11
339.786352
 21
251.239366
  0
LINE
  8
CSLAYER1
  6
CONTINUOUS
 62
     6
 10
339.786352
 20
251.239366
 11
339.786352
 21
241.651702
  0
LINE
  8
CSLAYER1
  6
CONTINUOUS
 62
     6
 10
339.786352
 20
240.239366
 11
363.186336
 21
240.239366
  0
LINE
  8
CSLAYER1
  6
CONTINUOUS
 62
     6
 10
339.786352
 20
251.239366
 11
340.786352
 21
252.239366
  0
ARC
  8
CSLAYER1
  6
CONTINUOUS
 62
     6
 10
340.426600
 20
238.668853
 40
2.000000
 50
128.256293
 51
179.000008
  0
ARC
  8
CSLAYER1
  6
CONTINUOUS
 62
     6
 10
337.786402
 20
241.665862
 40
2.000000
 50
314.500204
 51
359.594342
  0
LINE
  8
CSLAYER1
  6
CONTINUOUS
 62
     6
 10
338.426904
 20
228.207298
 11
338.426904
 21
238.703765
  0
ARC
  8
CSLAYER1
  6
CONTINUOUS
 62
     6
 10
335.186346
 20
204.239382
 40
22.000000
 50
87.037064
 51
225.487200
  0
ARC
  8
CSLAYER1
  6
CONTINUOUS
 62
     6
 10
336.426904
 20
228.207298
 40
2.000000
 50
267.037064
 51
360.000000
  0
ARC
  8
CSLAYER1
  6
CONTINUOUS
 62
     6
 10
318.186362
 20
187.320574
 40
2.000000
 50
-70.528779
 51
37.978908
  0
ARC
  8
CSLAYER1
  6
CONTINUOUS
 62
     6
 10
319.186362
 20
184.492147
 40
1.000000
 50
109.471221
 51
180.000000
  0
LINE
  8
CSLAYER1
  6
CONTINUOUS
 62
     6
 10
363.186377
 20
187.239366
 11
351.186377
 21
187.239366
  0
ARC
  8
CSLAYER1
  6
CONTINUOUS
 62
     6
 10
363.186377
 20
189.239366
 40
2.000000
 50
-90.000000
 51
0.000046
  0
LINE
  8
CSLAYER1
  6
CONTINUOUS
 62
     6
 10
349.186377
 20
189.264432
 11
349.186377
 21
189.239365
  0
ARC
  8
CSLAYER1
  6
CONTINUOUS
 62
     6
 10
351.186377
 20
189.239366
 40
2.000000
 50
180.000046
 51
270.000000
  0
ARC
  8
CSLAYER1
  6
CONTINUOUS
 62
     6
 10
378.686377
 20
121.240282
 40
9.099998
 50
-16.066256
 51
16.066255
  0
ARC
  8
CSLAYER1
  6
CONTINUOUS
 62
     6
 10
378.686391
 20
69.239397
 40
9.099998
 50
-16.066256
 51
16.066255
  0
ARC
  8
CSLAYER1
  6
CONTINUOUS
 62
     6
 10
379.186376
 20
246.240282
 40
9.099998
 50
-16.066256
 51
16.066255
  0
ARC
  8
CSLAYER1
  6
CONTINUOUS
 62
     6
 10
379.186376
 20
194.239397
 40
9.099998
 50
-16.066256
 51
16.066255
  0
CIRCLE
  8
CSLAYER1
  6
CONTINUOUS
 62
     6
 10
342.003072
 20
192.398809
 40
1.431817
  0
ARC
  8
CSLAYER1
  6
CONTINUOUS
 62
     6
 10
342.003072
 20
192.398809
 40
3.068585
 50
50.235851
 51
203.481549
  0
LINE
  8
CSLAYER1
  6
CONTINUOUS
 62
     6
 10
339.188600
 20
191.176127
 11
339.800062
 21
189.180318
  0
CIRCLE
  8
CSLAYER1
  6
CONTINUOUS
 62
     6
 10
328.369610
 20
192.398809
 40
1.431817
  0
ARC
  8
CSLAYER1
  6
CONTINUOUS
 62
     6
 10
328.369610
 20
192.398809
 40
3.068585
 50
-23.481547
 51
129.764151
  0
LINE
  8
CSLAYER1
  6
CONTINUOUS
 62
     6
 10
331.184078
 20
191.176127
 11
330.572616
 21
189.180318
  0
ARC
  8
CSLAYER1
  6
CONTINUOUS
 62
     6
 10
335.186346
 20
203.406603
 40
13.719113
 50
-37.903067
 51
217.903051
  0
ARC
  8
CSLAYER1
  6
CONTINUOUS
 62
     6
 10
344.881646
 20
195.858205
 40
1.431817
 50
230.236329
 51
322.096590
  0
ARC
  8
CSLAYER1
  6
CONTINUOUS
 62
     6
 10
325.491033
 20
195.858205
 40
1.431817
 50
217.903413
 51
309.763730
  0
LINE
  8
CSLAYER1
  6
CENTER
 62
     3
 10
577.836062
 20
220.239389
 11
489.159678
 21
220.239370
  0
CIRCLE
  8
CSLAYER1
  6
CONTINUOUS
 62
     6
 10
542.836047
 20
220.239389
 40
30.000000
  0
ARC
  8
CSLAYER1
  6
CONTINUOUS
 62
     6
 10
542.836047
 20
220.239389
 40
31.000000
 50
-175.930420
 51
175.930438
  0
LINE
  8
CSLAYER1
  6
CONTINUOUS
 62
     6
 10
502.276182
 20
218.039393
 11
512.916827
 21
218.039385
  0
LINE
  8
CSLAYER1
  6
CONTINUOUS
 62
     6
 10
502.276182
 20
222.439390
 11
512.916827
 21
222.439382
  0
LINE
  8
CSLAYER1
  6
CONTINUOUS
 62
     6
 10
502.276182
 20
220.239397
 11
512.916827
 21
220.239382
  0
ARC
  8
CSLAYER1
  6
CONTINUOUS
 62
     6
 10
499.364034
 20
204.480368
 40
15.759004
 50
90.000235
 51
117.463987
  0
ARC
  8
CSLAYER1
  6
CONTINUOUS
 62
     6
 10
499.364034
 20
204.480368
 40
13.559023
 50
90.000308
 51
117.464006
  0
ARC
  8
CSLAYER1
  6
CONTINUOUS
 62
     6
 10
503.228803
 20
219.689371
 40
1.099999
 50
149.999870
 51
209.999858
  0
ARC
  8
CSLAYER1
  6
CONTINUOUS
 62
     6
 10
503.228803
 20
218.589373
 40
1.099999
 50
149.999870
 51
209.999858
  0
ARC
  8
CSLAYER1
  6
CONTINUOUS
 62
     6
 10
501.323560
 20
218.589380
 40
1.099999
 50
-30.000142
 51
29.999853
  0
ARC
  8
CSLAYER1
  6
CONTINUOUS
 62
     6
 10
498.411319
 20
218.589390
 40
1.099999
 50
-30.000285
 51
29.999716
  0
ARC
  8
CSLAYER1
  6
CONTINUOUS
 62
     6
 10
498.411335
 20
219.689388
 40
1.099999
 50
-30.000285
 51
29.999716
  0
ARC
  8
CSLAYER1
  6
CONTINUOUS
 62
     6
 10
500.316593
 20
219.689381
 40
1.099999
 50
149.999733
 51
209.999721
  0
LINE
  8
CSLAYER1
  6
CONTINUOUS
 62
     6
 10
492.857090
 20
216.999309
 11
489.836091
 21
215.222465
  0
LINE
  8
CSLAYER1
  6
CONTINUOUS
 62
     6
 10
492.603442
 20
217.487325
 11
489.497885
 21
215.873148
  0
LINE
  8
CSLAYER1
  6
CONTINUOUS
 62
     6
 10
492.349789
 20
217.975338
 11
489.159679
 21
216.523831
  0
LINE
  8
CSLAYER1
  6
CONTINUOUS
 62
     6
 10
493.110744
 20
216.511297
 11
492.096127
 21
218.463346
  0
ARC
  8
CSLAYER1
  6
CONTINUOUS
 62
     6
 10
499.363862
 20
235.998351
 40
15.758933
 50
242.536539
 51
270.000397
  0
ARC
  8
CSLAYER1
  6
CONTINUOUS
 62
     6
 10
499.363862
 20
235.998351
 40
13.558951
 50
242.536637
 51
270.000417
  0
ARC
  8
CSLAYER1
  6
CONTINUOUS
 62
     6
 10
503.228803
 20
221.889414
 40
1.099999
 50
150.000198
 51
210.000186
  0
ARC
  8
CSLAYER1
  6
CONTINUOUS
 62
     6
 10
503.228803
 20
220.789415
 40
1.099999
 50
150.000198
 51
210.000186
  0
ARC
  8
CSLAYER1
  6
CONTINUOUS
 62
     6
 10
501.323560
 20
220.789408
 40
1.099999
 50
-29.999814
 51
30.000181
  0
ARC
  8
CSLAYER1
  6
CONTINUOUS
 62
     6
 10
498.411350
 20
220.789394
 40
1.099999
 50
-29.999650
 51
30.000345
  0
ARC
  8
CSLAYER1
  6
CONTINUOUS
 62
     6
 10
498.411335
 20
221.889393
 40
1.099999
 50
-29.999650
 51
30.000345
  0
ARC
  8
CSLAYER1
  6
CONTINUOUS
 62
     6
 10
500.316593
 20
221.889404
 40
1.099999
 50
150.000362
 51
210.000350
  0
LINE
  8
CSLAYER1
  6
CENTER
 62
     3
 10
542.836062
 20
185.239382
 11
542.836062
 21
255.239382
  0
CIRCLE
  8
CSLAYER1
  6
CONTINUOUS
 62
     6
 10
542.836047
 20
220.239397
 40
6.818180
  0
CIRCLE
  8
CSLAYER1
  6
CONTINUOUS
 62
     6
 10
542.836047
 20
220.239397
 40
7.909089
  0
LINE
  8
CSLAYER1
  6
CONTINUOUS
 62
     6
 10
542.836047
 20
227.057577
 11
539.426959
 21
216.830309
  0
LINE
  8
CSLAYER1
  6
CONTINUOUS
 62
     6
 10
539.426959
 20
216.830309
 11
542.836047
 21
216.788614
  0
LINE
  8
CSLAYER1
  6
CONTINUOUS
 62
     6
 10
542.836047
 20
216.788614
 11
542.836047
 21
213.421213
  0
LINE
  8
CSLAYER1
  6
CONTINUOUS
 62
     6
 10
546.245135
 20
223.648485
 11
542.836047
 21
223.625349
  0
LINE
  8
CSLAYER1
  6
CONTINUOUS
 62
     6
 10
542.836047
 20
223.625349
 11
542.836047
 21
227.057577
  0
TEXT
  8
CSLAYER1
 62
     6
 10
540.867981
 20
235.072205
 40
3.409090
 41
1.200000
  1
S
 50
192.000000
 51
3.000000
  7
JX_FONT
 72
     5
 11
538.200306
 21
234.505173
  0
TEXT
  8
CSLAYER1
 62
     6
 10
537.827087
 20
234.338867
 40
3.409090
 41
1.200000
  1
A
 50
204.000031
 51
3.000000
  7
JX_FONT
 72
     5
 11
535.335601
 21
233.229584
  0
TEXT
  8
CSLAYER1
 62
     6
 10
535.005066
 20
232.989349
 40
3.409090
 41
1.596000
  1
W
 50
216.000031
 51
3.000000
  7
JX_FONT
 72
     5
 11
532.070542
 21
230.857291
  0
TEXT
  8
CSLAYER1
 62
     6
 10
532.525330
 20
231.082581
 40
3.409090
 41
1.200000
  1
A
 50
228.000000
 51
3.000000
  7
JX_FONT
 72
     5
 11
530.700428
 21
229.055822
  0
TEXT
  8
CSLAYER1
 62
     6
 10
530.496216
 20
228.701904
 40
3.409090
 41
1.200000
  1
M
 50
240.000000
 51
3.000000
  7
JX_FONT
 72
     5
 11
529.132580
 21
226.340017
  0
TEXT
  8
CSLAYER1
 62
     6
 10
529.006470
 20
225.951416
 40
3.409090
 41
1.200000
  1
U
 50
252.000000
 51
3.000000
  7
JX_FONT
 72
     5
 11
528.163696
 21
223.357626
  0
TEXT
  8
CSLAYER1
 62
     6
 10
528.121094
 20
222.951263
 40
3.409090
 41
1.200000
  1
R
 50
264.000000
 51
3.000000
  7
JX_FONT
 72
     5
 11
527.836016
 21
220.238932
  0
TEXT
  8
CSLAYER1
 62
     6
 10
527.878784
 20
219.832550
 40
3.409090
 41
1.200000
  1
A
 50
276.000000
 51
3.000000
  7
JX_FONT
 72
     5
 11
528.163862
 21
217.120218
  0
TEXT
  8
CSLAYER1
 62
     6
 10
535.709778
 20
207.082672
 40
3.409090
 41
1.200000
  1
K
 50
336.000061
 51
3.000000
  7
JX_FONT
 72
     5
 11
538.201266
 21
205.973393
  0
TEXT
  8
CSLAYER1
 62
     6
 10
538.600891
 20
205.888550
 40
3.409090
 41
0.792000
  1
I
 50
348.000000
 51
3.000000
  7
JX_FONT
 72
     5
 11
540.361556
 21
205.514309
  0
TEXT
  8
CSLAYER1
 62
     6
 10
529.337402
 20
213.784088
 40
3.409090
 41
1.200000
  1
D
 50
300.000031
 51
3.000000
  7
JX_FONT
 72
     5
 11
530.701040
 21
211.422202
  0
TEXT
  8
CSLAYER1
 62
     6
 10
530.974487
 20
211.118622
 40
3.409090
 41
1.200000
  1
E
 50
311.999969
 51
3.000000
  7
JX_FONT
 72
     5
 11
532.799387
 21
209.091863
  0
TEXT
  8
CSLAYER1
 62
     6
 10
533.130066
 20
208.851807
 40
3.409090
 41
1.200000
  1
N
 50
324.000061
 51
3.000000
  7
JX_FONT
 72
     5
 11
535.336477
 21
207.248759
  0
TEXT
  8
CSLAYER1
 62
     6
 10
543.994751
 20
235.157257
 40
3.410000
 41
1.200000
  1
*
 50
180.000000
 51
3.000000
  7
JX_FONT
 72
     5
 11
541.266751
 21
235.157257
  0
TEXT
  8
CSLAYER1
 62
     6
 10
556.665649
 20
214.527374
 40
3.409090
 41
1.200000
  1
U
 50
72.000000
 51
3.000000
  7
JX_FONT
 72
     5
 11
557.508423
 21
217.121164
  0
TEXT
  8
CSLAYER1
 62
     6
 10
557.551025
 20
217.527527
 40
3.409090
 41
1.200000
  1
R
 50
84.000000
 51
3.000000
  7
JX_FONT
 72
     5
 11
557.836103
 21
220.239859
  0
TEXT
  8
CSLAYER1
 62
     6
 10
557.793274
 20
220.646210
 40
3.409090
 41
1.200000
  1
A
 50
96.000000
 51
3.000000
  7
JX_FONT
 72
     5
 11
557.508196
 21
223.358541
  0
TEXT
  8
CSLAYER1
 62
     6
 10
549.962280
 20
233.396118
 40
3.409090
 41
1.200000
  1
K
 50
156.000061
 51
3.000000
  7
JX_FONT
 72
     5
 11
547.470792
 21
234.505397
  0
TEXT
  8
CSLAYER1
 62
     6
 10
547.071167
 20
234.590240
 40
3.409090
 41
0.792000
  1
I
 50
168.000000
 51
3.000000
  7
JX_FONT
 72
     5
 11
545.310502
 21
234.964481
  0
TEXT
  8
CSLAYER1
 62
     6
 10
556.334656
 20
226.694702
 40
3.409090
 41
1.200000
  1
D
 50
120.000061
 51
3.000000
  7
JX_FONT
 72
     5
 11
554.971017
 21
229.056588
  0
TEXT
  8
CSLAYER1
 62
     6
 10
554.697571
 20
229.360138
 40
3.409090
 41
1.200000
  1
E
 50
131.999969
 51
3.000000
  7
JX_FONT
 72
     5
 11
552.872671
 21
231.386897
  0
TEXT
  8
CSLAYER1
 62
     6
 10
552.541992
 20
231.626953
 40
3.409090
 41
1.200000
  1
N
 50
144.000061
 51
3.000000
  7
JX_FONT
 72
     5
 11
550.335581
 21
233.230001
  0
TEXT
  8
CSLAYER1
 62
     6
 10
544.804138
 20
205.406586
 40
3.409090
 41
1.200000
  1
S
 50
12.000000
 51
3.000000
  7
JX_FONT
 72
     5
 11
547.471813
 21
205.973617
  0
TEXT
  8
CSLAYER1
 62
     6
 10
547.845032
 20
206.139893
 40
3.409090
 41
1.200000
  1
A
 50
24.000061
 51
3.000000
  7
JX_FONT
 72
     5
 11
550.336518
 21
207.249177
  0
TEXT
  8
CSLAYER1
 62
     6
 10
550.666992
 20
207.489441
 40
3.409090
 41
1.596000
  1
W
 50
36.000031
 51
3.000000
  7
JX_FONT
 72
     5
 11
553.601516
 21
209.621499
  0
TEXT
  8
CSLAYER1
 62
     6
 10
553.146729
 20
209.396210
 40
3.409090
 41
1.200000
  1
A
 50
48.000031
 51
3.000000
  7
JX_FONT
 72
     5
 11
554.971629
 21
211.422969
  0
TEXT
  8
CSLAYER1
 62
     6
 10
555.175842
 20
211.776855
 40
3.409090
 41
1.200000
  1
M
 50
60.000000
 51
3.000000
  7
JX_FONT
 72
     5
 11
556.539478
 21
214.138742
  0
TEXT
  8
CSLAYER1
 62
     6
 10
541.677307
 20
205.321533
 40
3.410000
 41
1.200000
  1
*
 50
360.000000
 51
3.000000
  7
JX_FONT
 72
     5
 11
544.405307
 21
205.321533
  0
CIRCLE
  8
CSLAYER1
  6
CONTINUOUS
 62
     6
 10
542.836047
 20
220.239397
 40
16.000000
  0
CIRCLE
  8
CSLAYER1
  6
CONTINUOUS
 62
     6
 10
542.836047
 20
220.239397
 40
17.000000
  0
LINE
  8
CSLAYER1
  6
CONTINUOUS
 62
     6
 10
542.836050
 20
213.421221
 11
546.245135
 21
223.648485
  0
LINE
  8
CSLAYER1
  6
CONTINUOUS
 62
     6
 10
542.836062
 20
223.625349
 11
542.836047
 21
223.625349
  0
LINE
  8
CSLAYER1
  6
CONTINUOUS
 62
     6
 10
492.857089
 20
223.479432
 11
489.836089
 21
225.256276
  0
LINE
  8
CSLAYER1
  6
CONTINUOUS
 62
     6
 10
492.603441
 20
222.991416
 11
489.497883
 21
224.605593
  0
LINE
  8
CSLAYER1
  6
CONTINUOUS
 62
     6
 10
492.349788
 20
222.503404
 11
489.159678
 21
223.954909
  0
LINE
  8
CSLAYER1
  6
CONTINUOUS
 62
     6
 10
493.110727
 20
223.967413
 11
492.096112
 21
222.015369
  0
LINE
  8
CSLAYER1
  6
CENTER
 62
     3
 10
568.836062
 20
189.300111
 11
568.836062
 21
199.239382
  0
LINE
  8
CSLAYER1
  6
CENTER
 62
     3
 10
563.836062
 20
194.239382
 11
573.836062
 21
194.239382
  0
LINE
  8
CSLAYER1
  6
CENTER
 62
     3
 10
573.775332
 20
246.239382
 11
563.836062
 21
246.239382
  0
LINE
  8
CSLAYER1
  6
CENTER
 62
     3
 10
568.836062
 20
241.239382
 11
568.836062
 21
251.239382
  0
LINE
  8
CSLAYER1
  6
CENTER
 62
     3
 10
516.836062
 20
251.178652
 11
516.836062
 21
241.239382
  0
LINE
  8
CSLAYER1
  6
CENTER
 62
     3
 10
521.836062
 20
246.239382
 11
511.836062
 21
246.239382
  0
LINE
  8
CSLAYER1
  6
CENTER
 62
     3
 10
516.836062
 20
189.300111
 11
516.836062
 21
199.239382
  0
LINE
  8
CSLAYER1
  6
CENTER
 62
     3
 10
521.836062
 20
194.239382
 11
511.836062
 21
194.239382
  0
LINE
  8
CSLAYER1
  6
CONTINUOUS
 62
     6
 10
516.836062
 20
252.239382
 11
568.836062
 21
252.239382
  0
LINE
  8
CSLAYER1
  6
CONTINUOUS
 62
     6
 10
516.836062
 20
188.239382
 11
568.836062
 21
188.239382
  0
LINE
  8
CSLAYER1
  6
CONTINUOUS
 62
     6
 10
574.836062
 20
194.239382
 11
574.836062
 21
246.239382
  0
LINE
  8
CSLAYER1
  6
CONTINUOUS
 62
     6
 10
510.836062
 20
194.239382
 11
510.836062
 21
218.039386
  0
ARC
  8
CSLAYER1
  6
CONTINUOUS
 62
     6
 10
568.836062
 20
246.239382
 40
6.000000
 50
0.000000
 51
90.000000
  0
ARC
  8
CSLAYER1
  6
CONTINUOUS
 62
     6
 10
568.836062
 20
194.239382
 40
6.000000
 50
270.000000
 51
360.000000
  0
ARC
  8
CSLAYER1
  6
CONTINUOUS
 62
     6
 10
516.836062
 20
194.239382
 40
6.000000
 50
180.000000
 51
270.000000
  0
ARC
  8
CSLAYER1
  6
CONTINUOUS
 62
     6
 10
516.836062
 20
246.239382
 40
6.000000
 50
90.000000
 51
180.000000
  0
LINE
  8
CSLAYER1
  6
CONTINUOUS
 62
     6
 10
510.836062
 20
222.439384
 11
510.836062
 21
246.239382
  0
LINE
  8
CSLAYER1
  6
CENTER
 62
     3
 10
513.588705
 20
204.239377
 11
481.843082
 21
204.239365
  0
CIRCLE
  8
CSLAYER1
  6
CONTINUOUS
 62
     6
 10
568.836062
 20
194.239382
 40
3.500000
  0
ARC
  8
CSLAYER1
  6
CONTINUOUS
 62
     6
 10
568.836063
 20
194.239394
 40
1.944444
 50
73.398416
 51
106.601577
  0
ARC
  8
CSLAYER1
  6
CONTINUOUS
 62
     6
 10
568.836063
 20
194.239394
 40
1.944444
 50
163.398422
 51
196.601583
  0
ARC
  8
CSLAYER1
  6
CONTINUOUS
 62
     6
 10
568.836063
 20
194.239394
 40
1.944444
 50
253.398438
 51
286.601572
  0
ARC
  8
CSLAYER1
  6
CONTINUOUS
 62
     6
 10
568.836063
 20
194.239394
 40
1.944444
 50
-16.601594
 51
16.601595
  0
LINE
  8
CSLAYER1
  6
CONTINUOUS
 62
     6
 10
568.280501
 20
193.128270
 11
568.280501
 21
192.376013
  0
LINE
  8
CSLAYER1
  6
CONTINUOUS
 62
     6
 10
568.280501
 20
195.350519
 11
568.280501
 21
196.102776
  0
LINE
  8
CSLAYER1
  6
CONTINUOUS
 62
     6
 10
569.391625
 20
193.128270
 11
569.391625
 21
192.376013
  0
LINE
  8
CSLAYER1
  6
CONTINUOUS
 62
     6
 10
569.391625
 20
195.350519
 11
569.391625
 21
196.102776
  0
LINE
  8
CSLAYER1
  6
CONTINUOUS
 62
     6
 10
567.724967
 20
194.794957
 11
566.972653
 21
194.794957
  0
LINE
  8
CSLAYER1
  6
CONTINUOUS
 62
     6
 10
569.947159
 20
194.794957
 11
570.699473
 21
194.794957
  0
LINE
  8
CSLAYER1
  6
CONTINUOUS
 62
     6
 10
567.724967
 20
193.683832
 11
566.972653
 21
193.683832
  0
LINE
  8
CSLAYER1
  6
CONTINUOUS
 62
     6
 10
569.947159
 20
193.683832
 11
570.699473
 21
193.683832
  0
ARC
  8
CSLAYER1
  6
CONTINUOUS
 62
     6
 10
567.724967
 20
193.128270
 40
0.555556
 50
0.000001
 51
89.942691
  0
ARC
  8
CSLAYER1
  6
CONTINUOUS
 62
     6
 10
569.947159
 20
193.128270
 40
0.555556
 50
90.000010
 51
180.000016
  0
ARC
  8
CSLAYER1
  6
CONTINUOUS
 62
     6
 10
569.947159
 20
195.350519
 40
0.555556
 50
180.000016
 51
270.000005
  0
ARC
  8
CSLAYER1
  6
CONTINUOUS
 62
     6
 10
567.724967
 20
195.350519
 40
0.555556
 50
270.000005
 51
359.942654
  0
CIRCLE
  8
CSLAYER1
  6
CONTINUOUS
 62
     6
 10
568.836062
 20
246.239382
 40
3.500000
  0
ARC
  8
CSLAYER1
  6
CONTINUOUS
 62
     6
 10
568.836063
 20
246.239394
 40
1.944444
 50
73.398416
 51
106.601577
  0
ARC
  8
CSLAYER1
  6
CONTINUOUS
 62
     6
 10
568.836063
 20
246.239394
 40
1.944444
 50
163.398422
 51
196.601583
  0
ARC
  8
CSLAYER1
  6
CONTINUOUS
 62
     6
 10
568.836063
 20
246.239394
 40
1.944444
 50
253.398438
 51
286.601572
  0
ARC
  8
CSLAYER1
  6
CONTINUOUS
 62
     6
 10
568.836063
 20
246.239394
 40
1.944444
 50
-16.601594
 51
16.601595
  0
LINE
  8
CSLAYER1
  6
CONTINUOUS
 62
     6
 10
568.280501
 20
245.128270
 11
568.280501
 21
244.376013
  0
LINE
  8
CSLAYER1
  6
CONTINUOUS
 62
     6
 10
568.280501
 20
247.350519
 11
568.280501
 21
248.102776
  0
LINE
  8
CSLAYER1
  6
CONTINUOUS
 62
     6
 10
569.391625
 20
245.128270
 11
569.391625
 21
244.376013
  0
LINE
  8
CSLAYER1
  6
CONTINUOUS
 62
     6
 10
569.391625
 20
247.350519
 11
569.391625
 21
248.102776
  0
LINE
  8
CSLAYER1
  6
CONTINUOUS
 62
     6
 10
567.724967
 20
246.794957
 11
566.972653
 21
246.794957
  0
LINE
  8
CSLAYER1
  6
CONTINUOUS
 62
     6
 10
569.947159
 20
246.794957
 11
570.699473
 21
246.794957
  0
LINE
  8
CSLAYER1
  6
CONTINUOUS
 62
     6
 10
567.724967
 20
245.683832
 11
566.972653
 21
245.683832
  0
LINE
  8
CSLAYER1
  6
CONTINUOUS
 62
     6
 10
569.947159
 20
245.683832
 11
570.699473
 21
245.683832
  0
ARC
  8
CSLAYER1
  6
CONTINUOUS
 62
     6
 10
567.724967
 20
245.128270
 40
0.555556
 50
0.000001
 51
89.942691
  0
ARC
  8
CSLAYER1
  6
CONTINUOUS
 62
     6
 10
569.947159
 20
245.128270
 40
0.555556
 50
90.000010
 51
180.000016
  0
ARC
  8
CSLAYER1
  6
CONTINUOUS
 62
     6
 10
569.947159
 20
247.350519
 40
0.555556
 50
180.000016
 51
270.000005
  0
ARC
  8
CSLAYER1
  6
CONTINUOUS
 62
     6
 10
567.724967
 20
247.350519
 40
0.555556
 50
270.000005
 51
359.942654
  0
CIRCLE
  8
CSLAYER1
  6
CONTINUOUS
 62
     6
 10
516.836062
 20
246.239382
 40
3.500000
  0
ARC
  8
CSLAYER1
  6
CONTINUOUS
 62
     6
 10
516.836063
 20
246.239394
 40
1.944444
 50
73.398416
 51
106.601577
  0
ARC
  8
CSLAYER1
  6
CONTINUOUS
 62
     6
 10
516.836063
 20
246.239394
 40
1.944444
 50
163.398422
 51
196.601583
  0
ARC
  8
CSLAYER1
  6
CONTINUOUS
 62
     6
 10
516.836063
 20
246.239394
 40
1.944444
 50
253.398438
 51
286.601572
  0
ARC
  8
CSLAYER1
  6
CONTINUOUS
 62
     6
 10
516.836063
 20
246.239394
 40
1.944444
 50
-16.601594
 51
16.601595
  0
LINE
  8
CSLAYER1
  6
CONTINUOUS
 62
     6
 10
516.280501
 20
245.128270
 11
516.280501
 21
244.376013
  0
LINE
  8
CSLAYER1
  6
CONTINUOUS
 62
     6
 10
516.280501
 20
247.350519
 11
516.280501
 21
248.102776
  0
LINE
  8
CSLAYER1
  6
CONTINUOUS
 62
     6
 10
517.391625
 20
245.128270
 11
517.391625
 21
244.376013
  0
LINE
  8
CSLAYER1
  6
CONTINUOUS
 62
     6
 10
517.391625
 20
247.350519
 11
517.391625
 21
248.102776
  0
LINE
  8
CSLAYER1
  6
CONTINUOUS
 62
     6
 10
515.724967
 20
246.794957
 11
514.972653
 21
246.794957
  0
LINE
  8
CSLAYER1
  6
CONTINUOUS
 62
     6
 10
517.947159
 20
246.794957
 11
518.699473
 21
246.794957
  0
LINE
  8
CSLAYER1
  6
CONTINUOUS
 62
     6
 10
515.724967
 20
245.683832
 11
514.972653
 21
245.683832
  0
LINE
  8
CSLAYER1
  6
CONTINUOUS
 62
     6
 10
517.947159
 20
245.683832
 11
518.699473
 21
245.683832
  0
ARC
  8
CSLAYER1
  6
CONTINUOUS
 62
     6
 10
515.724967
 20
245.128270
 40
0.555556
 50
0.000001
 51
89.942691
  0
ARC
  8
CSLAYER1
  6
CONTINUOUS
 62
     6
 10
517.947159
 20
245.128270
 40
0.555556
 50
90.000010
 51
180.000016
  0
ARC
  8
CSLAYER1
  6
CONTINUOUS
 62
     6
 10
517.947159
 20
247.350519
 40
0.555556
 50
180.000016
 51
270.000005
  0
ARC
  8
CSLAYER1
  6
CONTINUOUS
 62
     6
 10
515.724967
 20
247.350519
 40
0.555556
 50
270.000005
 51
359.942654
  0
CIRCLE
  8
CSLAYER1
  6
CONTINUOUS
 62
     6
 10
516.836062
 20
194.239382
 40
3.500000
  0
ARC
  8
CSLAYER1
  6
CONTINUOUS
 62
     6
 10
516.836063
 20
194.239394
 40
1.944444
 50
73.398416
 51
106.601577
  0
ARC
  8
CSLAYER1
  6
CONTINUOUS
 62
     6
 10
516.836063
 20
194.239394
 40
1.944444
 50
163.398422
 51
196.601583
  0
ARC
  8
CSLAYER1
  6
CONTINUOUS
 62
     6
 10
516.836063
 20
194.239394
 40
1.944444
 50
253.398438
 51
286.601572
  0
ARC
  8
CSLAYER1
  6
CONTINUOUS
 62
     6
 10
516.836063
 20
194.239394
 40
1.944444
 50
-16.601594
 51
16.601595
  0
LINE
  8
CSLAYER1
  6
CONTINUOUS
 62
     6
 10
516.280501
 20
193.128270
 11
516.280501
 21
192.376013
  0
LINE
  8
CSLAYER1
  6
CONTINUOUS
 62
     6
 10
516.280501
 20
195.350519
 11
516.280501
 21
196.102776
  0
LINE
  8
CSLAYER1
  6
CONTINUOUS
 62
     6
 10
517.391625
 20
193.128270
 11
517.391625
 21
192.376013
  0
LINE
  8
CSLAYER1
  6
CONTINUOUS
 62
     6
 10
517.391625
 20
195.350519
 11
517.391625
 21
196.102776
  0
LINE
  8
CSLAYER1
  6
CONTINUOUS
 62
     6
 10
515.724967
 20
194.794957
 11
514.972653
 21
194.794957
  0
LINE
  8
CSLAYER1
  6
CONTINUOUS
 62
     6
 10
517.947159
 20
194.794957
 11
518.699473
 21
194.794957
  0
LINE
  8
CSLAYER1
  6
CONTINUOUS
 62
     6
 10
515.724967
 20
193.683832
 11
514.972653
 21
193.683832
  0
LINE
  8
CSLAYER1
  6
CONTINUOUS
 62
     6
 10
517.947159
 20
193.683832
 11
518.699473
 21
193.683832
  0
ARC
  8
CSLAYER1
  6
CONTINUOUS
 62
     6
 10
515.724967
 20
193.128270
 40
0.555556
 50
0.000001
 51
89.942691
  0
ARC
  8
CSLAYER1
  6
CONTINUOUS
 62
     6
 10
517.947159
 20
193.128270
 40
0.555556
 50
90.000010
 51
180.000016
  0
ARC
  8
CSLAYER1
  6
CONTINUOUS
 62
     6
 10
517.947159
 20
195.350519
 40
0.555556
 50
180.000016
 51
270.000005
  0
ARC
  8
CSLAYER1
  6
CONTINUOUS
 62
     6
 10
515.724967
 20
195.350519
 40
0.555556
 50
270.000005
 51
359.942654
  0
LINE
  8
CSLAYER1
  6
CONTINUOUS
 62
     6
 10
502.836046
 20
200.739396
 11
502.836046
 21
200.239396
  0
LINE
  8
CSLAYER1
  6
CONTINUOUS
 62
     6
 10
484.836046
 20
200.739396
 11
502.836046
 21
200.739396
  0
LINE
  8
CSLAYER1
  6
CENTER
 62
     3
 10
529.636079
 20
174.239348
 11
529.636079
 21
197.770103
  0
LINE
  8
CSLAYER1
  6
CONTINUOUS
 62
     6
 10
484.843076
 20
208.239396
 11
504.843076
 21
208.239396
  0
LINE
  8
CSLAYER1
  6
CONTINUOUS
 62
     6
 10
502.836046
 20
200.239396
 11
504.840697
 21
200.239396
  0
LINE
  8
CSLAYER1
  6
CONTINUOUS
 62
     6
 10
484.843076
 20
208.239396
 11
484.840844
 21
200.739396
  0
LINE
  8
CSLAYER1
  6
CONTINUOUS
 62
     6
 10
505.847684
 20
183.989372
 11
504.836163
 21
185.000877
  0
LINE
  8
CSLAYER1
  6
CONTINUOUS
 62
     6
 10
505.859118
 20
224.489372
 11
505.858540
 21
222.439388
  0
LINE
  8
CSLAYER1
  6
CONTINUOUS
 62
     6
 10
504.847613
 20
223.489372
 11
504.847301
 21
222.439388
  0
LINE
  8
CSLAYER1
  6
CONTINUOUS
 62
     6
 10
510.836062
 20
224.489372
 11
505.847613
 21
224.489372
  0
LINE
  8
CSLAYER1
  6
CONTINUOUS
 62
     6
 10
505.847669
 20
183.989372
 11
510.836163
 21
183.989372
  0
LINE
  8
CSLAYER1
  6
CONTINUOUS
 62
     6
 10
505.847613
 20
224.489372
 11
504.847613
 21
223.489372
  0
LINE
  8
CSLAYER1
  6
CONTINUOUS
 62
     6
 10
505.857297
 20
218.039390
 11
505.847684
 21
183.989372
  0
LINE
  8
CSLAYER1
  6
CONTINUOUS
 62
     6
 10
504.845992
 20
218.039391
 11
504.836163
 21
185.000877
  0
LINE
  8
CSLAYER1
  6
CONTINUOUS
 62
     6
 10
510.836093
 20
177.239335
 11
553.836093
 21
177.239365
  0
LINE
  8
CSLAYER1
  6
CONTINUOUS
 62
     6
 10
553.836093
 20
186.239396
 11
553.836093
 21
177.239365
  0
ARC
  8
CSLAYER1
  6
CONTINUOUS
 62
     6
 10
555.836093
 20
186.239396
 40
2.000000
 50
90.057309
 51
179.999999
  0
LINE
  8
CSLAYER1
  6
CONTINUOUS
 62
     6
 10
510.836083
 20
194.239372
 11
510.836093
 21
177.239335
  0
LINE
  8
CSLAYER1
  6
CENTER
 62
     3
 10
448.686391
 20
231.239382
 11
448.686391
 21
209.239382
  0
LINE
  8
CSLAYER1
  6
CONTINUOUS
 62
     6
 10
448.686391
 20
220.239382
 11
454.119863
 21
220.239382
  0
LINE
  8
CSLAYER1
  6
CONTINUOUS
 62
     6
 10
448.686391
 20
218.039385
 11
454.119863
 21
218.039385
  0
ARC
  8
CSLAYER1
  6
CONTINUOUS
 62
     6
 10
457.032094
 20
204.480531
 40
15.758816
 50
62.536193
 51
89.942682
  0
ARC
  8
CSLAYER1
  6
CONTINUOUS
 62
     6
 10
457.032094
 20
204.480531
 40
13.558834
 50
62.536193
 51
89.942682
  0
ARC
  8
CSLAYER1
  6
CONTINUOUS
 62
     6
 10
453.167226
 20
218.589388
 40
1.100006
 50
-30.000003
 51
29.999999
  0
ARC
  8
CSLAYER1
  6
CONTINUOUS
 62
     6
 10
453.167226
 20
219.689394
 40
1.100006
 50
-30.000003
 51
29.999999
  0
ARC
  8
CSLAYER1
  6
CONTINUOUS
 62
     6
 10
455.072500
 20
219.689394
 40
1.100006
 50
149.999989
 51
209.999977
  0
ARC
  8
CSLAYER1
  6
CONTINUOUS
 62
     6
 10
457.032094
 20
235.998232
 40
13.558834
 50
269.999975
 51
297.463872
  0
ARC
  8
CSLAYER1
  6
CONTINUOUS
 62
     6
 10
457.032064
 20
235.998216
 40
15.758816
 50
270.000003
 51
297.463872
  0
ARC
  8
CSLAYER1
  6
CONTINUOUS
 62
     6
 10
453.167226
 20
220.789400
 40
1.100006
 50
-30.000003
 51
29.999999
  0
ARC
  8
CSLAYER1
  6
CONTINUOUS
 62
     6
 10
453.167226
 20
221.889406
 40
1.100006
 50
-30.000003
 51
29.999999
  0
ARC
  8
CSLAYER1
  6
CONTINUOUS
 62
     6
 10
455.072500
 20
221.889406
 40
1.100006
 50
149.999989
 51
209.999977
  0
ARC
  8
CSLAYER1
  6
CONTINUOUS
 62
     6
 10
448.686391
 20
219.139375
 40
1.100006
 50
90.000001
 51
270.000019
  0
ARC
  8
CSLAYER1
  6
CONTINUOUS
 62
     6
 10
448.686391
 20
221.339388
 40
1.100006
 50
89.999973
 51
269.999992
  0
LINE
  8
CSLAYER1
  6
CONTINUOUS
 62
     6
 10
448.686391
 20
222.439378
 11
454.119863
 21
222.439378
  0
LINE
  8
CSLAYER1
  6
CONTINUOUS
 62
     6
 10
447.586355
 20
219.139375
 11
447.586355
 21
221.339388
  0
ARC
  8
CSLAYER1
  6
CONTINUOUS
 62
     6
 10
456.711462
 20
219.689348
 40
1.099999
 50
150.000344
 51
210.000332
  0
ARC
  8
CSLAYER1
  6
CONTINUOUS
 62
     6
 10
456.711469
 20
218.589357
 40
1.099999
 50
150.000344
 51
210.000332
  0
ARC
  8
CSLAYER1
  6
CONTINUOUS
 62
     6
 10
454.806219
 20
218.589342
 40
1.099999
 50
-29.999647
 51
30.000354
  0
ARC
  8
CSLAYER1
  6
CONTINUOUS
 62
     6
 10
456.711462
 20
221.889360
 40
1.099999
 50
150.000344
 51
210.000332
  0
ARC
  8
CSLAYER1
  6
CONTINUOUS
 62
     6
 10
456.711469
 20
220.789369
 40
1.099999
 50
150.000344
 51
210.000332
  0
ARC
  8
CSLAYER1
  6
CONTINUOUS
 62
     6
 10
454.806219
 20
220.789354
 40
1.099999
 50
-29.999647
 51
30.000354
  0
LINE
  8
CSLAYER1
  6
CONTINUOUS
 62
     6
 10
457.032033
 20
218.039369
 11
455.758840
 21
218.039369
  0
LINE
  8
CSLAYER1
  6
CONTINUOUS
 62
     6
 10
457.032064
 20
220.239397
 11
455.758840
 21
220.239397
  0
LINE
  8
CSLAYER1
  6
CONTINUOUS
 62
     6
 10
457.032033
 20
222.439363
 11
455.758840
 21
222.439363
  0
ARC
  8
CSLAYER1
  6
CONTINUOUS
 62
     6
 10
448.686391
 20
220.239382
 40
8.000000
 50
15.961884
 51
344.037904
  0
LINE
  8
CSLAYER1
  6
CONTINUOUS
 62
     6
 10
463.627004
 20
217.168932
 11
466.565114
 21
215.551775
  0
LINE
  8
CSLAYER1
  6
CONTINUOUS
 62
     6
 10
463.285207
 20
216.511308
 11
464.299856
 21
218.463365
  0
LINE
  8
CSLAYER1
  6
CONTINUOUS
 62
     6
 10
463.627065
 20
223.309831
 11
466.565114
 21
224.927004
  0
LINE
  8
CSLAYER1
  6
CONTINUOUS
 62
     6
 10
463.285268
 20
223.967455
 11
464.299856
 21
222.015398
  0
LINE
  8
CSLAYER1
  6
CONTINUOUS
 62
     6
 10
463.881155
 20
217.657854
 11
465.888601
 21
216.081072
  0
LINE
  8
CSLAYER1
  6
CONTINUOUS
 62
     6
 10
464.088125
 20
218.055986
 11
466.167898
 21
216.654497
  0
LINE
  8
CSLAYER1
  6
CONTINUOUS
 62
     6
 10
463.881155
 20
222.820909
 11
465.888601
 21
224.397691
  0
LINE
  8
CSLAYER1
  6
CONTINUOUS
 62
     6
 10
464.088125
 20
222.422777
 11
466.167959
 21
223.824281
  0
LINE
  8
CSLAYER1
  6
CONTINUOUS
 62
     6
 10
468.686391
 20
248.698249
 11
468.686391
 21
191.780492
  0
LINE
  8
CSLAYER1
  6
CONTINUOUS
 62
     6
 10
467.686391
 20
249.715705
 11
467.686391
 21
190.763037
  0
LINE
  8
CSLAYER1
  6
CONTINUOUS
 62
     6
 10
467.686544
 20
190.763040
 11
437.686376
 21
190.239386
  0
LINE
  8
CSLAYER1
  6
CONTINUOUS
 62
     6
 10
437.686391
 20
250.239364
 11
467.686544
 21
249.715702
  0
LINE
  8
CSLAYER1
  6
CONTINUOUS
 62
     6
 10
468.686391
 20
248.698249
 11
467.686544
 21
249.715702
  0
LINE
  8
CSLAYER1
  6
CONTINUOUS
 62
     6
 10
467.686544
 20
190.763040
 11
468.686391
 21
191.780492
  0
LINE
  8
CSLAYER1
  6
CENTER
 62
     3
 10
27.648803
 20
220.239382
 11
153.148803
 21
220.239382
  0
LINE
  8
CSLAYER1
  6
CONTINUOUS
 62
     6
 10
113.648803
 20
251.239386
 11
61.648803
 21
251.239386
  0
LINE
  8
CSLAYER1
  6
CONTINUOUS
 62
     6
 10
113.648803
 20
189.239386
 11
61.648803
 21
189.239386
  0
LINE
  8
CSLAYER1
  6
CONTINUOUS
 62
     3
 10
70.016189
 20
193.392601
 11
106.016189
 21
193.392601
  0
ARC
  8
CSLAYER1
  6
CONTINUOUS
 62
     3
 10
70.016189
 20
194.392601
 40
1.000000
 50
180.000005
 51
270.000001
  0
ARC
  8
CSLAYER1
  6
CONTINUOUS
 62
     3
 10
106.016189
 20
194.392601
 40
1.000000
 50
270.000001
 51
359.942691
  0
LINE
  8
CSLAYER1
  6
CONTINUOUS
 62
     3
 10
69.016189
 20
246.086169
 11
69.016189
 21
194.392601
  0
LINE
  8
CSLAYER1
  6
CONTINUOUS
 62
     3
 10
107.016189
 20
246.086169
 11
107.016189
 21
194.392601
  0
TEXT
  8
CSLAYER1
 62
     3
 10
89.952705
 20
214.741028
 40
3.500000
 41
1.125000
  1
N P
 50
90.000000
 51
10.000000
  7
JX_FONT
 72
     5
 11
89.952705
 21
225.241028
  0
LINE
  8
CSLAYER1
  6
CONTINUOUS
 62
     3
 10
70.016189
 20
247.086169
 11
106.016189
 21
247.086169
  0
ARC
  8
CSLAYER1
  6
CONTINUOUS
 62
     3
 10
70.016189
 20
246.086169
 40
1.000000
 50
90.000009
 51
180.000005
  0
ARC
  8
CSLAYER1
  6
CONTINUOUS
 62
     3
 10
106.016189
 20
246.086169
 40
1.000000
 50
0.057319
 51
90.000009
  0
LINE
  8
CSLAYER1
  6
CONTINUOUS
 62
     6
 10
61.648803
 20
251.239386
 11
61.648803
 21
189.239386
  0
LINE
  8
CSLAYER1
  6
CONTINUOUS
 62
     6
 10
30.648803
 20
191.780514
 11
30.648803
 21
248.698271
  0
LINE
  8
CSLAYER1
  6
CONTINUOUS
 62
     6
 10
31.648803
 20
190.763058
 11
31.648803
 21
249.715726
  0
LINE
  8
CSLAYER1
  6
CONTINUOUS
 62
     6
 10
31.648651
 20
249.715723
 11
61.648818
 21
250.239377
  0
LINE
  8
CSLAYER1
  6
CONTINUOUS
 62
     6
 10
61.648803
 20
190.239399
 11
31.648651
 21
190.763061
  0
LINE
  8
CSLAYER1
  6
CONTINUOUS
 62
     6
 10
30.648803
 20
191.780514
 11
31.648651
 21
190.763061
  0
LINE
  8
CSLAYER1
  6
CONTINUOUS
 62
     6
 10
31.648651
 20
249.715723
 11
30.648803
 21
248.698271
  0
LINE
  8
CSLAYER1
  6
CONTINUOUS
 62
     6
 10
113.648803
 20
251.239386
 11
113.648803
 21
189.239386
  0
LINE
  8
CSLAYER1
  6
CONTINUOUS
 62
     6
 10
114.648803
 20
250.239370
 11
114.648803
 21
190.239370
  0
LINE
  8
CSLAYER1
  6
CENTER
 62
     3
 10
107.862253
 20
194.239370
 11
136.129108
 21
194.239370
  0
LINE
  8
CSLAYER1
  6
CENTER
 62
     3
 10
107.862253
 20
246.239381
 11
136.129108
 21
246.239375
  0
LINE
  8
CSLAYER1
  6
CONTINUOUS
 62
     6
 10
123.648803
 20
252.239370
 11
116.648803
 21
252.239370
  0
LINE
  8
CSLAYER1
  6
CONTINUOUS
 62
     6
 10
123.648803
 20
188.239370
 11
116.648803
 21
188.239370
  0
ARC
  8
CSLAYER1
  6
CONTINUOUS
 62
     6
 10
116.648803
 20
250.239370
 40
2.000000
 50
90.000000
 51
180.000000
  0
ARC
  8
CSLAYER1
  6
CONTINUOUS
 62
     6
 10
116.648803
 20
190.239370
 40
2.000000
 50
180.000000
 51
270.000000
  0
LINE
  8
CSLAYER1
  6
CONTINUOUS
 62
     6
 10
113.648803
 20
250.239375
 11
114.648803
 21
250.239375
  0
LINE
  8
CSLAYER1
  6
CONTINUOUS
 62
     6
 10
113.648803
 20
190.239375
 11
114.648803
 21
190.239375
  0
LINE
  8
CSLAYER1
  6
CONTINUOUS
 62
     6
 10
123.648812
 20
252.239382
 11
123.648797
 21
188.239366
  0
ARC
  8
CSLAYER1
  6
CONTINUOUS
 62
     6
 10
113.773795
 20
197.738466
 40
0.125000
 50
90.000003
 51
180.000005
  0
ARC
  8
CSLAYER1
  6
CONTINUOUS
 62
     6
 10
113.773795
 20
190.738497
 40
0.125000
 50
180.000005
 51
270.000001
  0
ARC
  8
CSLAYER1
  6
CONTINUOUS
 62
     6
 10
114.523795
 20
197.738466
 40
0.125000
 50
0.000000
 51
90.000003
  0
ARC
  8
CSLAYER1
  6
CONTINUOUS
 62
     6
 10
114.523795
 20
190.738497
 40
0.125000
 50
270.000001
 51
359.942691
  0
LINE
  8
CSLAYER1
  6
CONTINUOUS
 62
     6
 10
113.773795
 20
197.863481
 11
114.523795
 21
197.863481
  0
LINE
  8
CSLAYER1
  6
CONTINUOUS
 62
     6
 10
113.773795
 20
190.613481
 11
114.523795
 21
190.613481
  0
LINE
  8
CSLAYER1
  6
CONTINUOUS
 62
     6
 10
113.648795
 20
193.493562
 11
114.648795
 21
194.048387
  0
LINE
  8
CSLAYER1
  6
CONTINUOUS
 62
     6
 10
113.648795
 20
194.118562
 11
114.648795
 21
194.673387
  0
LINE
  8
CSLAYER1
  6
CONTINUOUS
 62
     6
 10
113.366141
 20
197.737535
 11
112.547370
 21
197.666948
  0
ARC
  8
CSLAYER1
  6
CONTINUOUS
 62
     6
 10
112.660666
 20
196.390566
 40
1.290623
 50
95.000118
 51
163.742789
  0
ARC
  8
CSLAYER1
  6
CONTINUOUS
 62
     6
 10
113.388785
 20
197.482271
 40
0.258129
 50
-0.000017
 51
94.999718
  0
LINE
  8
CSLAYER1
  6
CONTINUOUS
 62
     6
 10
113.366141
 20
190.739427
 11
112.547370
 21
190.810014
  0
ARC
  8
CSLAYER1
  6
CONTINUOUS
 62
     6
 10
112.660666
 20
192.086397
 40
1.290623
 50
196.257208
 51
264.999892
  0
ARC
  8
CSLAYER1
  6
CONTINUOUS
 62
     6
 10
113.388785
 20
190.994692
 40
0.258129
 50
265.000275
 51
359.942691
  0
ARC
  8
CSLAYER1
  6
CONTINUOUS
 62
     6
 10
113.773781
 20
249.739351
 40
0.125000
 50
90.000003
 51
180.000005
  0
ARC
  8
CSLAYER1
  6
CONTINUOUS
 62
     6
 10
113.773781
 20
242.739382
 40
0.125000
 50
180.000005
 51
270.000001
  0
ARC
  8
CSLAYER1
  6
CONTINUOUS
 62
     6
 10
114.523781
 20
249.739351
 40
0.125000
 50
0.000000
 51
90.000003
  0
ARC
  8
CSLAYER1
  6
CONTINUOUS
 62
     6
 10
114.523781
 20
242.739382
 40
0.125000
 50
270.000001
 51
359.942691
  0
LINE
  8
CSLAYER1
  6
CONTINUOUS
 62
     6
 10
113.773781
 20
249.864366
 11
114.523781
 21
249.864366
  0
LINE
  8
CSLAYER1
  6
CONTINUOUS
 62
     6
 10
113.773781
 20
242.614366
 11
114.523781
 21
242.614366
  0
LINE
  8
CSLAYER1
  6
CONTINUOUS
 62
     6
 10
113.648781
 20
245.494447
 11
114.648781
 21
246.049272
  0
LINE
  8
CSLAYER1
  6
CONTINUOUS
 62
     6
 10
113.648781
 20
246.119447
 11
114.648781
 21
246.674272
  0
LINE
  8
CSLAYER1
  6
CONTINUOUS
 62
     6
 10
113.366127
 20
249.738420
 11
112.547355
 21
249.667833
  0
ARC
  8
CSLAYER1
  6
CONTINUOUS
 62
     6
 10
112.660652
 20
248.391451
 40
1.290623
 50
95.000118
 51
163.742789
  0
ARC
  8
CSLAYER1
  6
CONTINUOUS
 62
     6
 10
113.388771
 20
249.483156
 40
0.258129
 50
-0.000017
 51
94.999718
  0
LINE
  8
CSLAYER1
  6
CONTINUOUS
 62
     6
 10
113.366127
 20
242.740312
 11
112.547355
 21
242.810899
  0
ARC
  8
CSLAYER1
  6
CONTINUOUS
 62
     6
 10
112.660652
 20
244.087282
 40
1.290623
 50
196.257208
 51
264.999892
  0
ARC
  8
CSLAYER1
  6
CONTINUOUS
 62
     6
 10
113.388771
 20
242.995577
 40
0.258129
 50
265.000275
 51
359.942691
  0
ARC
  8
CSLAYER1
  6
CONTINUOUS
 62
     6
 10
120.148795
 20
194.238481
 40
9.099998
 50
163.933744
 51
196.066255
  0
ARC
  8
CSLAYER1
  6
CONTINUOUS
 62
     6
 10
120.148781
 20
246.239366
 40
9.099998
 50
163.933744
 51
196.066255
  0
LINE
  8
CSLAYER1
  6
CENTER
 62
     3
 10
188.648828
 20
204.239397
 11
137.362351
 21
204.239397
  0
LINE
  8
CSLAYER1
  6
CENTER
 62
     3
 10
163.648828
 20
174.239370
 11
163.648828
 21
229.933166
  0
CIRCLE
  8
CSLAYER1
  6
CONTINUOUS
 62
     6
 10
163.648828
 20
204.239397
 40
14.000000
  0
LINE
  8
CSLAYER1
  6
CONTINUOUS
 62
     6
 10
133.648804
 20
188.239353
 11
133.648804
 21
250.239401
  0
LINE
  8
CSLAYER1
  6
CONTINUOUS
 62
     6
 10
158.048787
 20
252.239401
 11
123.648812
 21
252.239401
  0
ARC
  8
CSLAYER1
  6
CONTINUOUS
 62
     6
 10
131.648804
 20
250.239401
 40
2.000000
 50
0.000000
 51
90.000000
  0
ARC
  8
CSLAYER1
  6
CONTINUOUS
 62
     6
 10
163.648828
 20
204.239397
 40
17.534306
 50
180.000000
 51
255.819898
  0
ARC
  8
CSLAYER1
  6
CONTINUOUS
 62
     6
 10
163.648828
 20
204.239397
 40
20.718723
 50
-47.450515
 51
89.700165
  0
LINE
  8
CSLAYER1
  6
CONTINUOUS
 62
     6
 10
180.648811
 20
177.239370
 11
124.648812
 21
177.239370
  0
LINE
  8
CSLAYER1
  6
CONTINUOUS
 62
     6
 10
178.648811
 20
187.239353
 11
134.648804
 21
187.239353
  0
LINE
  8
CSLAYER1
  6
CONTINUOUS
 62
     6
 10
124.648812
 20
188.239382
 11
124.648812
 21
177.239382
  0
LINE
  8
CSLAYER1
  6
CONTINUOUS
 62
     6
 10
180.648811
 20
177.239382
 11
180.648811
 21
185.239353
  0
ARC
  8
CSLAYER1
  6
CONTINUOUS
 62
     6
 10
180.648811
 20
187.320574
 40
2.000000
 50
142.021092
 51
182.327473
  0
LINE
  8
CSLAYER1
  6
CONTINUOUS
 62
     6
 10
135.648846
 20
251.239366
 11
159.048822
 21
251.239366
  0
LINE
  8
CSLAYER1
  6
CONTINUOUS
 62
     6
 10
159.048822
 20
251.239366
 11
159.048822
 21
241.651702
  0
LINE
  8
CSLAYER1
  6
CONTINUOUS
 62
     6
 10
159.048822
 20
240.239366
 11
135.648837
 21
240.239366
  0
LINE
  8
CSLAYER1
  6
CONTINUOUS
 62
     6
 10
159.048822
 20
251.239366
 11
158.048822
 21
252.239366
  0
ARC
  8
CSLAYER1
  6
CONTINUOUS
 62
     6
 10
158.408574
 20
238.668853
 40
2.000000
 50
0.999992
 51
51.743707
  0
ARC
  8
CSLAYER1
  6
CONTINUOUS
 62
     6
 10
161.048771
 20
241.665862
 40
2.000000
 50
180.405658
 51
225.499796
  0
LINE
  8
CSLAYER1
  6
CONTINUOUS
 62
     6
 10
160.408269
 20
234.651737
 11
160.408269
 21
238.703765
  0
LINE
  8
CSLAYER1
  6
CONTINUOUS
 62
     6
 10
160.408283
 20
233.239401
 11
135.663920
 21
234.103493
  0
ARC
  8
CSLAYER1
  6
CONTINUOUS
 62
     6
 10
159.768021
 20
231.668888
 40
2.000000
 50
0.999992
 51
51.743707
  0
ARC
  8
CSLAYER1
  6
CONTINUOUS
 62
     6
 10
162.408219
 20
234.665897
 40
2.000000
 50
180.405658
 51
225.499796
  0
LINE
  8
CSLAYER1
  6
CONTINUOUS
 62
     6
 10
161.767716
 20
231.703792
 11
161.767716
 21
220.238956
  0
ARC
  8
CSLAYER1
  6
CONTINUOUS
 62
     6
 10
163.767716
 20
228.239087
 40
2.000000
 50
180.000000
 51
269.716173
  0
CIRCLE
  8
CSLAYER1
  6
CONTINUOUS
 62
     6
 10
163.648828
 20
204.239397
 40
11.000000
  0
LINE
  8
CSLAYER1
  6
CONTINUOUS
 62
     6
 10
124.148797
 20
188.239382
 11
132.648804
 21
188.239382
  0
LINE
  8
CSLAYER1
  6
CONTINUOUS
 62
     6
 10
123.648797
 20
188.739382
 11
124.148797
 21
188.239382
  0
ARC
  8
CSLAYER1
  6
CONTINUOUS
 62
     6
 10
134.648804
 20
188.239353
 40
1.000000
 50
180.000000
 51
270.000000
  0
ARC
  8
CSLAYER1
  6
CONTINUOUS
 62
     6
 10
132.648804
 20
189.239382
 40
1.000000
 50
270.000000
 51
360.000000
  0
ARC
  8
CSLAYER1
  6
CONTINUOUS
 62
     6
 10
163.767716
 20
226.957809
 40
2.000000
 50
180.000000
 51
269.700165
  0
ARC
  8
CSLAYER1
  6
CONTINUOUS
 62
     6
 10
163.767716
 20
223.773341
 40
2.000000
 50
180.000000
 51
269.651287
  0
ARC
  8
CSLAYER1
  6
CONTINUOUS
 62
     6
 10
163.767716
 20
220.238956
 40
2.000000
 50
180.000000
 51
269.574257
  0
ARC
  8
CSLAYER1
  6
CONTINUOUS
 62
     6
 10
163.648828
 20
204.239397
 40
17.534306
 50
-59.685339
 51
89.651287
  0
LINE
  8
CSLAYER1
  6
CONTINUOUS
 62
     6
 10
147.588605
 20
206.791689
 11
135.663920
 21
206.375270
  0
ARC
  8
CSLAYER1
  6
CONTINUOUS
 62
     6
 10
173.003991
 20
188.239353
 40
1.000000
 50
120.314661
 51
270.000000
  0
ARC
  8
CSLAYER1
  6
CONTINUOUS
 62
     6
 10
178.335609
 20
188.239353
 40
1.000000
 50
132.549485
 51
270.000000
  0
ARC
  8
CSLAYER1
  6
CONTINUOUS
 62
     6
 10
178.648811
 20
185.239353
 40
2.000000
 50
0.000000
 51
90.000000
  0
ARC
  8
CSLAYER1
  6
CONTINUOUS
 62
     6
 10
163.648828
 20
204.239382
 40
22.000000
 50
-45.487200
 51
89.716173
  0
TEXT
  8
CSLAYER1
 62
     3
 10
141.908447
 20
180.739349
 40
3.500000
 41
0.731707
  1
SAWAMURA DENKI
 50
360.000000
 51
0.000000
  7
JX_FONT
 72
     5
 11
176.908447
 21
180.739349
  0
ARC
  8
CSLAYER1
  6
CONTINUOUS
 62
     6
 10
147.658404
 20
204.792908
 40
2.000000
 50
-1.982509
 51
92.000000
  0
LINE
  8
CSLAYER1
  6
CONTINUOUS
 62
     6
 10
133.148812
 20
182.239362
 11
134.398812
 21
182.239362
  0
LINE
  8
CSLAYER1
  6
CONTINUOUS
 62
     6
 10
134.398812
 20
182.239362
 11
134.398812
 21
183.489362
  0
LINE
  8
CSLAYER1
  6
CONTINUOUS
 62
     6
 10
134.398812
 20
183.489362
 11
138.148812
 21
182.239362
  0
LINE
  8
CSLAYER1
  6
CONTINUOUS
 62
     6
 10
138.148812
 20
182.239362
 11
136.898812
 21
182.239362
  0
LINE
  8
CSLAYER1
  6
CONTINUOUS
 62
     6
 10
136.898812
 20
182.239362
 11
136.898812
 21
180.989362
  0
LINE
  8
CSLAYER1
  6
CONTINUOUS
 62
     6
 10
136.898812
 20
180.989362
 11
133.148812
 21
182.239362
  0
CIRCLE
  8
CSLAYER1
  6
CONTINUOUS
 62
     6
 10
135.648812
 20
182.239362
 40
2.500000
  0
CIRCLE
  8
CSLAYER1
  6
CONTINUOUS
 62
     6
 10
135.648812
 20
182.239362
 40
2.900000
  0
LINE
  8
CSLAYER1
  6
CONTINUOUS
 62
     6
 10
160.853593
 20
195.115854
 11
160.426540
 21
193.721956
  0
ARC
  8
CSLAYER1
  6
CONTINUOUS
 62
     6
 10
158.887933
 20
195.969791
 40
2.143139
 50
-23.481547
 51
129.764151
  0
ARC
  8
CSLAYER1
  6
CONTINUOUS
 62
     6
 10
156.877498
 20
198.385877
 40
0.999999
 50
217.903413
 51
309.763730
  0
ARC
  8
CSLAYER1
  6
CONTINUOUS
 62
     6
 10
163.648828
 20
203.657774
 40
9.581603
 50
-37.903067
 51
217.903051
  0
ARC
  8
CSLAYER1
  6
CONTINUOUS
 62
     6
 10
170.420148
 20
198.385877
 40
0.999999
 50
230.236329
 51
322.096590
  0
ARC
  8
CSLAYER1
  6
CONTINUOUS
 62
     6
 10
168.409716
 20
195.969791
 40
2.143139
 50
50.235851
 51
203.481549
  0
LINE
  8
CSLAYER1
  6
CONTINUOUS
 62
     6
 10
166.444053
 20
195.115854
 11
166.871106
 21
193.721956
  0
CIRCLE
  8
CSLAYER1
  6
CONTINUOUS
 62
     6
 10
168.409716
 20
195.969791
 40
0.999999
  0
CIRCLE
  8
CSLAYER1
  6
CONTINUOUS
 62
     6
 10
158.887933
 20
195.969791
 40
0.999999
  0
LINE
  8
CSLAYER1
  6
CENTER
 62
     3
 10
145.048822
 20
174.239370
 11
145.048822
 21
255.239401
  0
LINE
  8
CSLAYER1
  6
CENTER
 62
     3
 10
311.479772
 20
322.039400
 11
372.320655
 21
322.039400
  0
CIRCLE
  8
CSLAYER1
  6
CONTINUOUS
 62
     6
 10
353.786352
 20
322.039400
 40
14.000000
  0
LINE
  8
CSLAYER1
  6
CONTINUOUS
 62
     6
 10
320.186361
 20
346.239397
 11
321.133973
 21
346.239397
  0
LINE
  8
CSLAYER1
  6
CONTINUOUS
 62
     6
 10
348.186346
 20
350.239382
 11
322.186346
 21
350.239382
  0
LINE
  8
CSLAYER1
  6
CONTINUOUS
 62
     6
 10
349.186346
 20
349.239382
 11
321.186346
 21
349.239382
  0
LINE
  8
CSLAYER1
  6
CONTINUOUS
 62
     6
 10
314.467641
 20
298.250871
 11
315.479131
 21
297.239397
  0
LINE
  8
CSLAYER1
  6
CONTINUOUS
 62
     6
 10
322.186346
 20
350.239382
 11
321.186346
 21
349.239397
  0
LINE
  8
CSLAYER1
  6
CONTINUOUS
 62
     6
 10
348.186346
 20
350.239382
 11
349.186346
 21
349.239397
  0
LINE
  8
CSLAYER1
  6
CONTINUOUS
 62
     6
 10
340.124208
 20
347.157279
 11
363.314199
 21
348.642626
  0
ARC
  8
CSLAYER1
  6
CONTINUOUS
 62
     6
 10
363.186361
 20
350.638536
 40
2.000000
 50
273.664860
 51
359.999995
  0
ARC
  8
CSLAYER1
  6
CONTINUOUS
 62
     6
 10
320.186361
 20
344.239397
 40
2.000000
 50
89.999984
 51
179.999990
  0
LINE
  8
CSLAYER1
  6
CONTINUOUS
 62
     6
 10
365.186353
 20
336.841146
 11
365.186376
 21
365.239397
  0
LINE
  8
CSLAYER1
  6
CONTINUOUS
 62
     6
 10
382.186376
 20
367.239397
 11
367.186376
 21
367.239397
  0
ARC
  8
CSLAYER1
  6
CONTINUOUS
 62
     6
 10
367.186376
 20
365.239397
 40
2.000000
 50
89.999984
 51
179.999990
  0
LINE
  8
CSLAYER1
  6
CENTER
 62
     3
 10
353.786352
 20
303.505097
 11
353.786352
 21
340.573703
  0
LINE
  8
CSLAYER1
  6
CONTINUOUS
 62
     6
 10
355.497869
 20
298.250887
 11
354.486349
 21
297.239382
  0
ARC
  8
CSLAYER1
  6
CONTINUOUS
 62
     6
 10
382.186376
 20
365.239382
 40
2.000000
 50
-0.000005
 51
89.999997
  0
LINE
  8
CSLAYER1
  6
CONTINUOUS
 62
     6
 10
385.186376
 20
365.239366
 11
384.186376
 21
365.239366
  0
LINE
  8
CSLAYER1
  6
CENTER
 62
     3
 10
335.186346
 20
353.239382
 11
335.186346
 21
275.025713
  0
LINE
  8
CSLAYER1
  6
CONTINUOUS
 62
     6
 10
355.497869
 20
298.250887
 11
314.467626
 21
298.250887
  0
LINE
  8
CSLAYER1
  6
CENTER
 62
     3
 10
390.972951
 20
309.239397
 11
362.706090
 21
309.239397
  0
ARC
  8
CSLAYER1
  6
CONTINUOUS
 62
     6
 10
382.186361
 20
305.239382
 40
2.000000
 50
269.999999
 51
359.999995
  0
LINE
  8
CSLAYER1
  6
CONTINUOUS
 62
     6
 10
374.686361
 20
303.239397
 11
355.574087
 21
303.239397
  0
LINE
  8
CSLAYER1
  6
CONTINUOUS
 62
     6
 10
375.186361
 20
303.739397
 11
374.686361
 21
303.239397
  0
LINE
  8
CSLAYER1
  6
CONTINUOUS
 62
     6
 10
318.186361
 20
344.239397
 11
318.186361
 21
337.565291
  0
LINE
  8
CSLAYER1
  6
CONTINUOUS
 62
     6
 10
375.186361
 20
303.239382
 11
375.186376
 21
367.239397
  0
LINE
  8
CSLAYER1
  6
CONTINUOUS
 62
     6
 10
355.497854
 20
298.250902
 11
355.625662
 21
306.614371
  0
LINE
  8
CSLAYER1
  6
CONTINUOUS
 62
     6
 10
382.186361
 20
303.239382
 11
375.186361
 21
303.239382
  0
LINE
  8
CSLAYER1
  6
CENTER
 62
     3
 10
471.686361
 20
335.239382
 11
338.426778
 21
335.239382
  0
LINE
  8
CSLAYER1
  6
CONTINUOUS
 62
     6
 10
437.186370
 20
366.239382
 11
437.186370
 21
304.239382
  0
LINE
  8
CSLAYER1
  6
CENTER
 62
     3
 10
448.186378
 20
348.239382
 11
448.186420
 21
281.631403
  0
CIRCLE
  8
CSLAYER1
  6
CONTINUOUS
 62
     6
 10
448.186378
 20
335.239382
 40
8.000000
  0
CIRCLE
  8
CSLAYER1
  6
CONTINUOUS
 62
     6
 10
448.186378
 20
335.239382
 40
6.000000
  0
CIRCLE
  8
CSLAYER1
  6
CONTINUOUS
 62
     3
 10
448.186378
 20
335.239382
 40
5.500000
  0
LINE
  8
CSLAYER1
  6
CONTINUOUS
 62
     6
 10
445.436378
 20
336.039385
 11
450.936378
 21
336.039385
  0
LINE
  8
CSLAYER1
  6
CONTINUOUS
 62
     6
 10
445.436378
 20
334.439378
 11
450.936378
 21
334.439378
  0
LINE
  8
CSLAYER1
  6
CONTINUOUS
 62
     6
 10
450.936378
 20
336.039385
 11
450.936378
 21
334.439378
  0
LINE
  8
CSLAYER1
  6
CONTINUOUS
 62
     6
 10
445.436378
 20
336.039385
 11
445.436378
 21
334.439378
  0
LINE
  8
CSLAYER1
  6
CONTINUOUS
 62
     6
 10
447.086408
 20
294.679498
 11
447.086371
 21
305.412202
  0
LINE
  8
CSLAYER1
  6
CONTINUOUS
 62
     6
 10
449.286390
 20
294.679498
 11
449.286353
 21
305.450603
  0
ARC
  8
CSLAYER1
  6
CONTINUOUS
 62
     6
 10
462.845258
 20
291.767266
 40
15.758816
 50
180.057309
 51
207.463798
  0
ARC
  8
CSLAYER1
  6
CONTINUOUS
 62
     6
 10
462.845258
 20
291.767266
 40
13.558834
 50
180.057309
 51
207.463798
  0
ARC
  8
CSLAYER1
  6
CONTINUOUS
 62
     6
 10
447.636411
 20
290.814675
 40
1.099999
 50
59.999655
 51
119.999650
  0
ARC
  8
CSLAYER1
  6
CONTINUOUS
 62
     6
 10
448.736410
 20
290.814668
 40
1.099999
 50
59.999655
 51
119.999650
  0
ARC
  8
CSLAYER1
  6
CONTINUOUS
 62
     6
 10
448.736418
 20
292.719918
 40
1.099999
 50
239.999650
 51
299.999638
  0
LINE
  8
CSLAYER1
  6
CONTINUOUS
 62
     6
 10
450.156843
 20
285.172311
 11
451.774000
 21
282.234231
  0
LINE
  8
CSLAYER1
  6
CONTINUOUS
 62
     6
 10
449.667921
 20
284.918176
 11
451.244703
 21
281.910760
  0
LINE
  8
CSLAYER1
  6
CONTINUOUS
 62
     6
 10
449.269789
 20
284.711221
 11
450.671278
 21
281.631417
  0
LINE
  8
CSLAYER1
  6
CONTINUOUS
 62
     6
 10
450.814466
 20
285.514108
 11
448.862409
 21
284.499490
  0
ARC
  8
CSLAYER1
  6
CONTINUOUS
 62
     6
 10
433.527563
 20
291.767266
 40
15.758816
 50
332.536132
 51
337.577932
  0
ARC
  8
CSLAYER1
  6
CONTINUOUS
 62
     6
 10
433.527563
 20
291.767266
 40
13.558834
 50
-27.463868
 51
0.000022
  0
LINE
  8
CSLAYER1
  6
CONTINUOUS
 62
     6
 10
446.215956
 20
285.172280
 11
444.598799
 21
282.234231
  0
LINE
  8
CSLAYER1
  6
CONTINUOUS
 62
     6
 10
446.704878
 20
284.918160
 11
445.128095
 21
281.910760
  0
LINE
  8
CSLAYER1
  6
CONTINUOUS
 62
     6
 10
447.103010
 20
284.711221
 11
445.701521
 21
281.631402
  0
LINE
  8
CSLAYER1
  6
CONTINUOUS
 62
     6
 10
445.558332
 20
285.514092
 11
447.510389
 21
284.499474
  0
ARC
  8
CSLAYER1
  6
CONTINUOUS
 62
     6
 10
448.736387
 20
295.632134
 40
1.100006
 50
240.000005
 51
299.999993
  0
ARC
  8
CSLAYER1
  6
CONTINUOUS
 62
     6
 10
447.636381
 20
295.632134
 40
1.100006
 50
240.000005
 51
299.999993
  0
ARC
  8
CSLAYER1
  6
CONTINUOUS
 62
     6
 10
447.636381
 20
293.726861
 40
1.100006
 50
59.999997
 51
119.999998
  0
LINE
  8
CSLAYER1
  6
CONTINUOUS
 62
     6
 10
468.186378
 20
306.763048
 11
468.186378
 21
363.715715
  0
LINE
  8
CSLAYER1
  6
CONTINUOUS
 62
     6
 10
467.186378
 20
305.763048
 11
467.186378
 21
364.715715
  0
LINE
  8
CSLAYER1
  6
CONTINUOUS
 62
     6
 10
467.186378
 20
364.715715
 11
437.186355
 21
365.239366
  0
LINE
  8
CSLAYER1
  6
CONTINUOUS
 62
     6
 10
467.186378
 20
364.715715
 11
468.186378
 21
363.715715
  0
LINE
  8
CSLAYER1
  6
CONTINUOUS
 62
     6
 10
467.186378
 20
305.763048
 11
437.186355
 21
305.239397
  0
LINE
  8
CSLAYER1
  6
CONTINUOUS
 62
     6
 10
467.186378
 20
305.763048
 11
468.186378
 21
306.763048
  0
LINE
  8
CSLAYER1
  6
CONTINUOUS
 62
     6
 10
385.186338
 20
366.239382
 11
437.186370
 21
366.239382
  0
LINE
  8
CSLAYER1
  6
CONTINUOUS
 62
     6
 10
385.186338
 20
304.239382
 11
437.186370
 21
304.239382
  0
LINE
  8
CSLAYER1
  6
CONTINUOUS
 62
     3
 10
430.818914
 20
350.739351
 11
394.818937
 21
350.739351
  0
LINE
  8
CSLAYER1
  6
CONTINUOUS
 62
     3
 10
431.818914
 20
366.239382
 11
431.818914
 21
351.739351
  0
ARC
  8
CSLAYER1
  6
CONTINUOUS
 62
     3
 10
430.818914
 20
351.739351
 40
1.000000
 50
269.999972
 51
359.999981
  0
ARC
  8
CSLAYER1
  6
CONTINUOUS
 62
     3
 10
394.818937
 20
351.739351
 40
1.000000
 50
180.057309
 51
269.999972
  0
LINE
  8
CSLAYER1
  6
CONTINUOUS
 62
     3
 10
393.818937
 20
351.739351
 11
393.818937
 21
366.239382
  0
LINE
  8
CSLAYER1
  6
CENTER
 62
     3
 10
390.972951
 20
361.239366
 11
362.706090
 21
361.239366
  0
ARC
  8
CSLAYER1
  6
CONTINUOUS
 62
     6
 10
385.061377
 20
305.740328
 40
0.125000
 50
-89.999997
 51
0.000005
  0
ARC
  8
CSLAYER1
  6
CONTINUOUS
 62
     6
 10
385.061377
 20
312.740297
 40
0.125000
 50
0.000005
 51
90.000001
  0
ARC
  8
CSLAYER1
  6
CONTINUOUS
 62
     6
 10
384.311377
 20
305.740328
 40
0.125000
 50
180.000000
 51
270.000003
  0
ARC
  8
CSLAYER1
  6
CONTINUOUS
 62
     6
 10
384.311377
 20
312.740297
 40
0.125000
 50
90.000001
 51
179.942691
  0
LINE
  8
CSLAYER1
  6
CONTINUOUS
 62
     6
 10
385.061377
 20
305.615312
 11
384.311377
 21
305.615312
  0
LINE
  8
CSLAYER1
  6
CONTINUOUS
 62
     6
 10
385.061377
 20
312.865312
 11
384.311377
 21
312.865312
  0
LINE
  8
CSLAYER1
  6
CONTINUOUS
 62
     6
 10
385.186377
 20
309.985231
 11
384.186377
 21
309.430406
  0
LINE
  8
CSLAYER1
  6
CONTINUOUS
 62
     6
 10
385.186377
 20
309.360231
 11
384.186377
 21
308.805406
  0
LINE
  8
CSLAYER1
  6
CONTINUOUS
 62
     6
 10
385.469030
 20
305.741258
 11
386.287802
 21
305.811846
  0
ARC
  8
CSLAYER1
  6
CONTINUOUS
 62
     6
 10
386.174505
 20
307.088228
 40
1.290623
 50
275.000118
 51
343.742789
  0
ARC
  8
CSLAYER1
  6
CONTINUOUS
 62
     6
 10
385.446386
 20
305.996523
 40
0.258129
 50
179.999983
 51
274.999718
  0
LINE
  8
CSLAYER1
  6
CONTINUOUS
 62
     6
 10
385.469030
 20
312.739366
 11
386.287802
 21
312.668779
  0
ARC
  8
CSLAYER1
  6
CONTINUOUS
 62
     6
 10
386.174505
 20
311.392397
 40
1.290623
 50
16.257208
 51
84.999892
  0
ARC
  8
CSLAYER1
  6
CONTINUOUS
 62
     6
 10
385.446386
 20
312.484102
 40
0.258129
 50
85.000275
 51
179.942691
  0
ARC
  8
CSLAYER1
  6
CONTINUOUS
 62
     6
 10
385.061391
 20
357.739382
 40
0.125000
 50
-89.999997
 51
0.000005
  0
ARC
  8
CSLAYER1
  6
CONTINUOUS
 62
     6
 10
385.061391
 20
364.739351
 40
0.125000
 50
0.000005
 51
90.000001
  0
ARC
  8
CSLAYER1
  6
CONTINUOUS
 62
     6
 10
384.311391
 20
357.739382
 40
0.125000
 50
180.000000
 51
270.000003
  0
ARC
  8
CSLAYER1
  6
CONTINUOUS
 62
     6
 10
384.311391
 20
364.739351
 40
0.125000
 50
90.000001
 51
179.942691
  0
LINE
  8
CSLAYER1
  6
CONTINUOUS
 62
     6
 10
385.061391
 20
357.614366
 11
384.311391
 21
357.614366
  0
LINE
  8
CSLAYER1
  6
CONTINUOUS
 62
     6
 10
385.061391
 20
364.864366
 11
384.311391
 21
364.864366
  0
LINE
  8
CSLAYER1
  6
CONTINUOUS
 62
     6
 10
385.186391
 20
361.984285
 11
384.186391
 21
361.429460
  0
LINE
  8
CSLAYER1
  6
CONTINUOUS
 62
     6
 10
385.186391
 20
361.359285
 11
384.186391
 21
360.804460
  0
LINE
  8
CSLAYER1
  6
CONTINUOUS
 62
     6
 10
385.469045
 20
357.740312
 11
386.287816
 21
357.810899
  0
ARC
  8
CSLAYER1
  6
CONTINUOUS
 62
     6
 10
386.174520
 20
359.087282
 40
1.290623
 50
275.000118
 51
343.742789
  0
ARC
  8
CSLAYER1
  6
CONTINUOUS
 62
     6
 10
385.446401
 20
357.995577
 40
0.258129
 50
179.999983
 51
274.999718
  0
LINE
  8
CSLAYER1
  6
CONTINUOUS
 62
     6
 10
385.469045
 20
364.738420
 11
386.287816
 21
364.667833
  0
ARC
  8
CSLAYER1
  6
CONTINUOUS
 62
     6
 10
386.174520
 20
363.391451
 40
1.290623
 50
16.257208
 51
84.999892
  0
ARC
  8
CSLAYER1
  6
CONTINUOUS
 62
     6
 10
385.446401
 20
364.483156
 40
0.258129
 50
85.000275
 51
179.942691
  0
LINE
  8
CSLAYER1
  6
CONTINUOUS
 62
     6
 10
384.186368
 20
305.239382
 11
384.186368
 21
365.239366
  0
LINE
  8
CSLAYER1
  6
CONTINUOUS
 62
     6
 10
385.186361
 20
305.239397
 11
384.186361
 21
305.239397
  0
LINE
  8
CSLAYER1
  6
CONTINUOUS
 62
     6
 10
315.479115
 20
297.239366
 11
354.486333
 21
297.239366
  0
LINE
  8
CSLAYER1
  6
CONTINUOUS
 62
     6
 10
331.186346
 20
277.239366
 11
339.186346
 21
277.239366
  0
LINE
  8
CSLAYER1
  6
CONTINUOUS
 62
     6
 10
331.186346
 20
277.239366
 11
331.186346
 21
297.239366
  0
LINE
  8
CSLAYER1
  6
CONTINUOUS
 62
     6
 10
339.186346
 20
277.239366
 11
339.186346
 21
297.239366
  0
TEXT
  8
CSLAYER1
 62
     3
 10
411.127930
 20
363.957855
 40
3.500000
 41
1.125000
  1
N P
 50
270.000000
 51
10.000000
  7
JX_FONT
 72
     5
 11
411.127930
 21
353.457855
  0
LINE
  8
CSLAYER1
  6
CONTINUOUS
 62
     6
 10
385.186392
 20
304.239382
 11
385.186392
 21
312.482271
  0
LINE
  8
CSLAYER1
  6
CONTINUOUS
 62
     6
 10
385.186368
 20
357.739382
 11
385.186368
 21
312.482271
  0
LINE
  8
CSLAYER1
  6
CONTINUOUS
 62
     6
 10
385.186406
 20
366.239382
 11
385.186406
 21
357.739382
  0
LINE
  8
CSLAYER1
  6
CONTINUOUS
 62
     6
 10
314.467626
 20
322.227288
 11
314.467626
 21
298.250887
  0
ARC
  8
CSLAYER1
  6
CONTINUOUS
 62
     6
 10
378.686377
 20
309.240312
 40
9.099998
 50
-16.066256
 51
16.066255
  0
ARC
  8
CSLAYER1
  6
CONTINUOUS
 62
     6
 10
378.686391
 20
361.239366
 40
9.099998
 50
-16.066256
 51
16.066255
  0
ARC
  8
CSLAYER1
  6
CONTINUOUS
 62
     6
 10
353.786352
 20
322.039400
 40
15.534303
 50
57.581994
 51
302.418001
  0
LINE
  8
CSLAYER1
  6
CONTINUOUS
 62
     6
 10
338.252049
 20
322.039400
 11
338.252049
 21
345.161369
  0
LINE
  8
CSLAYER1
  6
CONTINUOUS
 62
     6
 10
365.186352
 20
307.237651
 11
365.186352
 21
305.239397
  0
ARC
  8
CSLAYER1
  6
CONTINUOUS
 62
     6
 10
367.186352
 20
305.239397
 40
2.000000
 50
180.000000
 51
270.000000
  0
ARC
  8
CSLAYER1
  6
CONTINUOUS
 62
     6
 10
363.186353
 20
336.841148
 40
2.000000
 50
237.581994
 51
359.999954
  0
CIRCLE
  8
CSLAYER1
  6
CONTINUOUS
 62
     6
 10
353.786352
 20
322.039400
 40
11.000000
  0
LINE
  8
CSLAYER1
  6
CONTINUOUS
 62
     6
 10
349.212529
 20
347.739397
 11
349.186347
 21
349.239382
  0
LINE
  8
CSLAYER1
  6
CONTINUOUS
 62
     6
 10
321.026099
 20
340.060396
 11
321.186347
 21
349.239382
  0
LINE
  8
CSLAYER1
  6
CONTINUOUS
 62
     6
 10
320.953442
 20
338.239382
 11
338.252049
 21
338.239382
  0
LINE
  8
CSLAYER1
  6
CONTINUOUS
 62
     6
 10
317.429326
 20
324.262178
 11
338.252049
 21
324.262178
  0
LINE
  8
CSLAYER1
  6
CONTINUOUS
 62
     6
 10
317.472081
 20
325.910546
 11
317.652348
 21
336.239404
  0
ARC
  8
CSLAYER1
  6
CONTINUOUS
 62
     6
 10
316.467626
 20
322.227288
 40
2.000000
 50
109.834795
 51
181.000012
  0
ARC
  8
CSLAYER1
  6
CONTINUOUS
 62
     6
 10
319.652043
 20
336.204492
 40
2.000000
 50
103.462410
 51
179.000006
  0
ARC
  8
CSLAYER1
  6
CONTINUOUS
 62
     6
 10
315.548009
 20
326.022027
 40
1.927410
 50
277.171725
 51
356.684908
  0
ARC
  8
CSLAYER1
  6
CONTINUOUS
 62
     6
 10
319.078038
 20
340.095422
 40
1.950172
 50
273.194807
 51
357.945105
  0
ARC
  8
CSLAYER1
  6
CONTINUOUS
 62
     6
 10
363.186352
 20
307.237651
 40
2.000000
 50
0.000000
 51
122.418001
  0
ARC
  8
CSLAYER1
  6
CONTINUOUS
 62
     6
 10
340.252049
 20
345.161369
 40
2.000000
 50
93.664857
 51
180.000000
  0
LINE
  8
CSLAYER1
  6
CONTINUOUS
 62
     6
 10
350.991117
 20
312.915857
 11
350.564064
 21
311.521959
  0
ARC
  8
CSLAYER1
  6
CONTINUOUS
 62
     6
 10
349.025457
 20
313.769793
 40
2.143139
 50
-23.481547
 51
129.764151
  0
ARC
  8
CSLAYER1
  6
CONTINUOUS
 62
     6
 10
347.015022
 20
316.185880
 40
0.999999
 50
217.903413
 51
309.763730
  0
ARC
  8
CSLAYER1
  6
CONTINUOUS
 62
     6
 10
353.786352
 20
321.457777
 40
9.581603
 50
-37.903067
 51
217.903051
  0
ARC
  8
CSLAYER1
  6
CONTINUOUS
 62
     6
 10
360.557672
 20
316.185880
 40
0.999999
 50
230.236329
 51
322.096590
  0
ARC
  8
CSLAYER1
  6
CONTINUOUS
 62
     6
 10
358.547240
 20
313.769793
 40
2.143139
 50
50.235851
 51
203.481549
  0
LINE
  8
CSLAYER1
  6
CONTINUOUS
 62
     6
 10
356.581577
 20
312.915857
 11
357.008630
 21
311.521959
  0
CIRCLE
  8
CSLAYER1
  6
CONTINUOUS
 62
     6
 10
358.547240
 20
313.769793
 40
0.999999
  0
CIRCLE
  8
CSLAYER1
  6
CONTINUOUS
 62
     6
 10
349.025457
 20
313.769793
 40
0.999999
  0
ENDSEC
  0
EOF
