  0
SECTION
  2
HEADER
  9
$ACADVER
  1
AC1006
  9
$INSBASE
 10
0.000000
 20
0.000000
 30
0.0
  9
$EXTMIN
 10
0.000000
 20
0.000000
  9
$EXTMAX
 10
420.000000
 20
297.000000
  9
$LIMMIN
 10
0.000000
 20
0.000000
  9
$LIMMAX
 10
420.000000
 20
297.000000
  9
$VIEWCTR
 10
210.000000
 20
148.500000
  9
$VIEWSIZE
 40
297.000000
  9
$SNAPMODE
 70
     0
  9
$SNAPUNIT
 10
1.0
 20
1.0
  9
$SNAPBASE
 10
0.0
 20
0.0
  9
$SNAPANG
 50
0.0
  9
$SNAPSTYLE
 70
     0
  9
$SNAPISOPAIR
 70
     0
  9
$GRIDMODE
 70
     0
  9
$GRIDUNIT
 10
0.0
 20
0.0
  9
$ORTHOMODE
 70
     0
  9
$REGENMODE
 70
     1
  9
$FILLMODE
 70
     1
  9
$QTEXTMODE
 70
     0
  9
$DRAGMODE
 70
     2
  9
$LTSCALE
 40
15.000000
  9
$OSMODE
 70
     0
  9
$ATTMODE
 70
     1
  9
$TEXTSIZE
 40
0.2
  9
$TRACEWID
 40
0.05
  9
$TEXTSTYLE
  7
STANDARD
  9
$CLAYER
  8
CSLAYER1
  9
$CELTYPE
  6
BYLAYER
  9
$CECOLOR
 62
   256
  9
$DIMSCALE
 40
1.0
  9
$DIMASZ
 40
0.18
  9
$DIMEXO
 40
0.0625
  9
$DIMDLI
 40
0.38
  9
$DIMRND
 40
0.0
  9
$DIMDLE
 40
0.0
  9
$DIMEXE
 40
0.18
  9
$DIMTP
 40
0.0
  9
$DIMTM
 40
0.0
  9
$DIMTXT
 40
0.18
  9
$DIMCEN
 40
0.09
  9
$DIMTSZ
 40
0.0
  9
$DIMTOL
 70
     0
  9
$DIMLIM
 70
     0
  9
$DIMTIH
 70
     1
  9
$DIMTOH
 70
     1
  9
$DIMSE1
 70
     0
  9
$DIMSE2
 70
     0
  9
$DIMTAD
 70
     0
  9
$DIMZIN
 70
     0
  9
$DIMBLK
  1

  9
$LUNITS
 70
     2
  9
$LUPREC
 70
     4
  9
$AXISMODE
 70
     0
  9
$AXISUNIT
 10
0.0
 20
0.0
  9
$SKETCHINC
 40
0.1
  9
$FILLETRAD
 40
0.0
  9
$AUNITS
 70
     0
  9
$AUPREC
 70
     0
  9
$MENU
  1
ACAD
  9
$ELEVATION
 40
0.0
  9
$THICKNESS
 40
0.0
  9
$VIEWDIR
 10
0.0
 20
0.0
 30
1.0
  9
$LIMCHECK
 70
     0
  9
$BLIPMODE
 70
     1
  9
$CHAMFERA
 40
0.0
  9
$CHAMFERB
 40
0.0
  9
$FASTZOOM
 70
     1
  9
$SKPOLY
 70
     0
  9
$TDCREATE
 40
0.000000
  9
$TDUPDATE
 40
0.000000
  9
$TDINDWG
 40
0.0
  9
$TDUSRTIMER
 40
0.0
  9
$USRTIMER
 70
     1
  9
$ANGBASE
 50
0.0
  9
$ANGDIR
 70
     0
  9
$PDMODE
 70
     0
  9
$PDSIZE
 40
0.0
  9
$PLINEWID
 40
0.0
  9
$COORDS
 70
     0
  9
$USERI1
 70
     0
  9
$USERI2
 70
     0
  9
$USERI3
 70
     0
  9
$USERI4
 70
     0
  9
$USERI5
 70
     0
  9
$USERR1
 40
0.0
  9
$USERR2
 40
0.0
  9
$USERR3
 40
0.0
  9
$USERR4
 40
0.0
  9
$USERR5
 40
0.0
  0
ENDSEC
  0
SECTION
  2
TABLES
  0
TABLE
  2
LTYPE
 70
     9
  0
LTYPE
  2
CONTINUOUS
 70
    64
  3
Solid line
 72
    65
 73
     0
 40
0.0
  0
LTYPE
  2
DASHED
 70
    64
  3
__ __ __ __ __ __ __ __ __ __ __ __ __ __ __
 72
    65
 73
     2
 40
0.75
 49
0.5
 49
-0.25
  0
LTYPE
  2
HIDDEN
 70
    64
  3
_ _ _ _ _ _ _ _ _ _ _ _ _ _ _ _ _ _ _ _ _ _ _
 72
    65
 73
     2
 40
0.375
 49
0.25
 49
-0.125
  0
LTYPE
  2
DOT
 70
    64
  3
...............................................
 72
    65
 73
     2
 40
0.25
 49
0.0
 49
-0.25
  0
LTYPE
  2
DASHDOT
 70
    64
  3
__ . __ . __ . __ . __ . __ . __ . __ . __ . __
 72
    65
 73
     4
 40
1.0
 49
0.5
 49
-0.25
 49
0.0
 49
-0.25
  0
LTYPE
  2
DIVIDE
 70
    64
  3
__ . . __ . . __ . . __ . . __ . . __ . . __
 72
    65
 73
     6
 40
1.25
 49
0.5
 49
-0.25
 49
0.0
 49
-0.25
 49
0.0
 49
-0.25
  0
LTYPE
  2
CENTER
 70
    64
  3
____ _ ____ _ ____ _ ____ _ ____ _ ____ _ ____ 
 72
    65
 73
     4
 40
2.0
 49
1.25
 49
-0.25
 49
0.25
 49
-0.25
  0
LTYPE
  2
PHANTOM
 70
    64
  3
______  __  __  ______  __  __  ______  __  __ 
 72
    65
 73
     6
 40
2.5
 49
1.25
 49
-0.25
 49
0.25
 49
-0.25
 49
0.25
 49
-0.25
  0
LTYPE
  2
BORDER
 70
    64
  3
__ __ . __ __ . __ __ . __ __ . __ __ . __ __ .
 72
    65
 73
     6
 40
1.75
 49
0.5
 49
-0.25
 49
0.5
 49
-0.25
 49
0.0
 49
-0.25
  0
ENDTAB
  0
TABLE
  2
LAYER
 70
    16
  0
LAYER
  2
CSLAYER1
 70
    64
 62
     7
  6
CONTINUOUS
  0
LAYER
  2
CSLAYER2
 70
    64
 62
     7
  6
CONTINUOUS
  0
LAYER
  2
CSLAYER3
 70
    64
 62
     7
  6
CONTINUOUS
  0
LAYER
  2
CSLAYER4
 70
    64
 62
     7
  6
CONTINUOUS
  0
LAYER
  2
CSLAYER5
 70
    64
 62
     7
  6
CONTINUOUS
  0
LAYER
  2
CSLAYER6
 70
    64
 62
     7
  6
CONTINUOUS
  0
LAYER
  2
CSLAYER7
 70
    64
 62
     7
  6
CONTINUOUS
  0
LAYER
  2
CSLAYER8
 70
    64
 62
     7
  6
CONTINUOUS
  0
LAYER
  2
CSLAYER9
 70
    64
 62
     7
  6
CONTINUOUS
  0
LAYER
  2
CSLAYER10
 70
    64
 62
     7
  6
CONTINUOUS
  0
LAYER
  2
CSLAYER11
 70
    64
 62
     7
  6
CONTINUOUS
  0
LAYER
  2
CSLAYER12
 70
    64
 62
     7
  6
CONTINUOUS
  0
LAYER
  2
CSLAYER13
 70
    64
 62
     7
  6
CONTINUOUS
  0
LAYER
  2
CSLAYER14
 70
    64
 62
     7
  6
CONTINUOUS
  0
LAYER
  2
CSLAYER15
 70
    64
 62
     7
  6
CONTINUOUS
  0
LAYER
  2
CSLAYER16
 70
    64
 62
     7
  6
CONTINUOUS
  0
ENDTAB
  0
TABLE
  2
STYLE
 70
     1
  0
STYLE
  2
JX_FONT
 70
     0
 40
1.0
 41
1.0
 50
0.0
 71
     0
 42
1.0
  3
monotxt
  4
bigfont
  0
ENDTAB
  0
TABLE
  2
VIEW
 70
     0
  0
ENDTAB
  0
ENDSEC
  0
SECTION
  2
BLOCKS
  0
ENDSEC
  0
SECTION
  2
ENTITIES
  0
LINE
  8
CSLAYER1
  6
CENTER
 62
     3
 10
339.960308
 20
123.881155
 11
339.960308
 21
193.881155
  0
CIRCLE
  8
CSLAYER1
  6
CONTINUOUS
 62
     6
 10
339.960308
 20
158.881171
 40
4.000000
  0
ARC
  8
CSLAYER1
  6
CENTER
 62
     3
 10
339.960308
 20
158.881140
 40
24.000000
 50
114.927254
 51
155.072670
  0
LINE
  8
CSLAYER1
  6
CENTER
 62
     3
 10
318.009930
 20
180.831534
 11
327.969584
 21
170.871895
  0
LINE
  8
CSLAYER1
  6
CENTER
 62
     3
 10
374.960278
 20
158.881155
 11
304.960400
 21
158.881155
  0
LINE
  8
CSLAYER1
  6
CENTER
 62
     3
 10
143.460324
 20
158.881174
 11
293.960308
 21
158.881155
  0
ARC
  8
CSLAYER1
  6
CENTER
 62
     3
 10
339.960308
 20
158.881171
 40
24.000000
 50
294.927254
 51
335.072670
  0
LINE
  8
CSLAYER1
  6
CENTER
 62
     3
 10
361.910687
 20
136.930777
 11
351.951033
 21
146.890416
  0
CIRCLE
  8
CSLAYER1
  6
CONTINUOUS
 62
     6
 10
356.930828
 20
141.910605
 40
4.500000
  0
ARC
  8
CSLAYER1
  6
CONTINUOUS
 62
     6
 10
356.930828
 20
141.910605
 40
2.397500
 50
73.398434
 51
106.601595
  0
ARC
  8
CSLAYER1
  6
CONTINUOUS
 62
     6
 10
356.930828
 20
141.910605
 40
2.397500
 50
-16.601576
 51
16.601586
  0
ARC
  8
CSLAYER1
  6
CONTINUOUS
 62
     6
 10
356.930828
 20
141.910605
 40
2.397500
 50
253.398442
 51
286.601576
  0
ARC
  8
CSLAYER1
  6
CONTINUOUS
 62
     6
 10
356.930828
 20
141.910605
 40
2.397500
 50
163.398416
 51
196.601604
  0
LINE
  8
CSLAYER1
  6
CONTINUOUS
 62
     6
 10
357.615826
 20
140.540610
 11
357.615826
 21
139.613043
  0
LINE
  8
CSLAYER1
  6
CONTINUOUS
 62
     6
 10
357.615826
 20
143.280600
 11
357.615826
 21
144.208167
  0
LINE
  8
CSLAYER1
  6
CONTINUOUS
 62
     6
 10
356.245831
 20
140.540610
 11
356.245831
 21
139.613043
  0
LINE
  8
CSLAYER1
  6
CONTINUOUS
 62
     6
 10
356.245831
 20
143.280600
 11
356.245831
 21
144.208167
  0
LINE
  8
CSLAYER1
  6
CONTINUOUS
 62
     6
 10
358.300823
 20
142.595602
 11
359.228375
 21
142.595602
  0
LINE
  8
CSLAYER1
  6
CONTINUOUS
 62
     6
 10
355.560833
 20
142.595602
 11
354.633282
 21
142.595602
  0
LINE
  8
CSLAYER1
  6
CONTINUOUS
 62
     6
 10
358.300823
 20
141.225607
 11
359.228375
 21
141.225607
  0
LINE
  8
CSLAYER1
  6
CONTINUOUS
 62
     6
 10
355.560833
 20
141.225607
 11
354.633282
 21
141.225607
  0
ARC
  8
CSLAYER1
  6
CONTINUOUS
 62
     6
 10
358.300823
 20
140.540610
 40
0.685000
 50
90.000001
 51
179.942691
  0
ARC
  8
CSLAYER1
  6
CONTINUOUS
 62
     6
 10
355.560833
 20
140.540610
 40
0.685000
 50
0.000005
 51
90.000001
  0
ARC
  8
CSLAYER1
  6
CONTINUOUS
 62
     6
 10
355.560833
 20
143.280600
 40
0.685000
 50
-89.999991
 51
0.000005
  0
ARC
  8
CSLAYER1
  6
CONTINUOUS
 62
     6
 10
358.300823
 20
143.280600
 40
0.685000
 50
180.000000
 51
270.000009
  0
CIRCLE
  8
CSLAYER1
  6
CONTINUOUS
 62
     6
 10
322.989788
 20
175.851706
 40
4.500000
  0
ARC
  8
CSLAYER1
  6
CONTINUOUS
 62
     6
 10
322.989788
 20
175.851706
 40
2.397500
 50
253.398434
 51
286.601595
  0
ARC
  8
CSLAYER1
  6
CONTINUOUS
 62
     6
 10
322.989788
 20
175.851706
 40
2.397500
 50
163.398424
 51
196.601586
  0
ARC
  8
CSLAYER1
  6
CONTINUOUS
 62
     6
 10
322.989788
 20
175.851706
 40
2.397500
 50
73.398442
 51
106.601576
  0
ARC
  8
CSLAYER1
  6
CONTINUOUS
 62
     6
 10
322.989788
 20
175.851706
 40
2.397500
 50
-16.601584
 51
16.601604
  0
LINE
  8
CSLAYER1
  6
CONTINUOUS
 62
     6
 10
322.304791
 20
177.221701
 11
322.304791
 21
178.149268
  0
LINE
  8
CSLAYER1
  6
CONTINUOUS
 62
     6
 10
322.304791
 20
174.481711
 11
322.304791
 21
173.554144
  0
LINE
  8
CSLAYER1
  6
CONTINUOUS
 62
     6
 10
323.674786
 20
177.221701
 11
323.674786
 21
178.149268
  0
LINE
  8
CSLAYER1
  6
CONTINUOUS
 62
     6
 10
323.674786
 20
174.481711
 11
323.674786
 21
173.554144
  0
LINE
  8
CSLAYER1
  6
CONTINUOUS
 62
     6
 10
321.619793
 20
175.166708
 11
320.692242
 21
175.166708
  0
LINE
  8
CSLAYER1
  6
CONTINUOUS
 62
     6
 10
324.359783
 20
175.166708
 11
325.287335
 21
175.166708
  0
LINE
  8
CSLAYER1
  6
CONTINUOUS
 62
     6
 10
321.619793
 20
176.536704
 11
320.692242
 21
176.536704
  0
LINE
  8
CSLAYER1
  6
CONTINUOUS
 62
     6
 10
324.359783
 20
176.536704
 11
325.287335
 21
176.536704
  0
ARC
  8
CSLAYER1
  6
CONTINUOUS
 62
     6
 10
321.619793
 20
177.221701
 40
0.685000
 50
270.000001
 51
359.942691
  0
ARC
  8
CSLAYER1
  6
CONTINUOUS
 62
     6
 10
324.359783
 20
177.221701
 40
0.685000
 50
180.000005
 51
270.000001
  0
ARC
  8
CSLAYER1
  6
CONTINUOUS
 62
     6
 10
324.359783
 20
174.481711
 40
0.685000
 50
90.000009
 51
180.000005
  0
ARC
  8
CSLAYER1
  6
CONTINUOUS
 62
     6
 10
321.619793
 20
174.481711
 40
0.685000
 50
0.000000
 51
90.000009
  0
LINE
  8
CSLAYER1
  6
CONTINUOUS
 62
     6
 10
365.960308
 20
190.881155
 11
313.960369
 21
190.881155
  0
LINE
  8
CSLAYER1
  6
CONTINUOUS
 62
     6
 10
371.960308
 20
132.881155
 11
371.960308
 21
184.881155
  0
ARC
  8
CSLAYER1
  6
CONTINUOUS
 62
     6
 10
365.960308
 20
184.881155
 40
6.000000
 50
0.000000
 51
90.000003
  0
LINE
  8
CSLAYER1
  6
CONTINUOUS
 62
     6
 10
365.960308
 20
126.881155
 11
313.960369
 21
126.881155
  0
CIRCLE
  8
CSLAYER1
  6
CONTINUOUS
 62
     6
 10
339.960308
 20
158.881171
 40
15.000000
  0
CIRCLE
  8
CSLAYER1
  6
CONTINUOUS
 62
     6
 10
339.960308
 20
158.881171
 40
17.500000
  0
LINE
  8
CSLAYER1
  6
CONTINUOUS
 62
     6
 10
307.960369
 20
132.881155
 11
307.960369
 21
184.881155
  0
LINE
  8
CSLAYER1
  6
CENTER
 62
     3
 10
370.899578
 20
184.881155
 11
360.960308
 21
184.881155
  0
LINE
  8
CSLAYER1
  6
CENTER
 62
     3
 10
365.960308
 20
179.881155
 11
365.960308
 21
189.881155
  0
CIRCLE
  8
CSLAYER1
  6
CONTINUOUS
 62
     6
 10
365.960308
 20
184.881155
 40
2.250000
  0
CIRCLE
  8
CSLAYER1
  6
CONTINUOUS
 62
     6
 10
322.989788
 20
175.851706
 40
5.500000
  0
CIRCLE
  8
CSLAYER1
  6
CONTINUOUS
 62
     6
 10
339.960308
 20
158.881155
 40
11.000000
  0
ARC
  8
CSLAYER1
  6
CONTINUOUS
 62
     6
 10
313.960308
 20
184.881155
 40
6.000000
 50
90.000000
 51
180.000003
  0
LINE
  8
CSLAYER1
  6
CENTER
 62
     3
 10
313.960308
 20
189.820425
 11
313.960308
 21
179.881155
  0
LINE
  8
CSLAYER1
  6
CENTER
 62
     3
 10
318.960308
 20
184.881155
 11
308.960308
 21
184.881155
  0
CIRCLE
  8
CSLAYER1
  6
CONTINUOUS
 62
     6
 10
313.960308
 20
184.881155
 40
2.250000
  0
ARC
  8
CSLAYER1
  6
CONTINUOUS
 62
     6
 10
313.960308
 20
132.881155
 40
6.000000
 50
180.000000
 51
270.000003
  0
LINE
  8
CSLAYER1
  6
CENTER
 62
     3
 10
309.021038
 20
132.881155
 11
318.960308
 21
132.881155
  0
LINE
  8
CSLAYER1
  6
CENTER
 62
     3
 10
313.960308
 20
137.881155
 11
313.960308
 21
127.881155
  0
CIRCLE
  8
CSLAYER1
  6
CONTINUOUS
 62
     6
 10
313.960308
 20
132.881155
 40
2.250000
  0
ARC
  8
CSLAYER1
  6
CONTINUOUS
 62
     6
 10
365.960308
 20
132.881155
 40
6.000000
 50
269.999997
 51
360.000000
  0
LINE
  8
CSLAYER1
  6
CENTER
 62
     3
 10
370.899578
 20
132.881155
 11
360.960308
 21
132.881155
  0
LINE
  8
CSLAYER1
  6
CENTER
 62
     3
 10
365.960308
 20
137.881155
 11
365.960308
 21
127.881155
  0
CIRCLE
  8
CSLAYER1
  6
CONTINUOUS
 62
     6
 10
365.960308
 20
132.881155
 40
2.250000
  0
CIRCLE
  8
CSLAYER1
  6
CONTINUOUS
 62
     6
 10
356.930828
 20
141.910605
 40
5.500000
  0
CIRCLE
  8
CSLAYER1
  6
CONTINUOUS
 62
     6
 10
344.721203
 20
150.611563
 40
0.999999
  0
ARC
  8
CSLAYER1
  6
CONTINUOUS
 62
     6
 10
344.721203
 20
150.611563
 40
2.143138
 50
50.235874
 51
203.481567
  0
LINE
  8
CSLAYER1
  6
CONTINUOUS
 62
     6
 10
342.755535
 20
149.757636
 11
343.182598
 21
148.363730
  0
CIRCLE
  8
CSLAYER1
  6
CONTINUOUS
 62
     6
 10
335.199414
 20
150.611563
 40
0.999999
  0
ARC
  8
CSLAYER1
  6
CONTINUOUS
 62
     6
 10
335.199414
 20
150.611563
 40
2.143138
 50
-23.481552
 51
129.764124
  0
LINE
  8
CSLAYER1
  6
CONTINUOUS
 62
     6
 10
337.165081
 20
149.757636
 11
336.738018
 21
148.363730
  0
ARC
  8
CSLAYER1
  6
CONTINUOUS
 62
     6
 10
339.960308
 20
158.299551
 40
9.581602
 50
-37.903087
 51
217.903071
  0
ARC
  8
CSLAYER1
  6
CONTINUOUS
 62
     6
 10
346.731640
 20
153.027655
 40
0.999999
 50
230.236306
 51
322.096613
  0
ARC
  8
CSLAYER1
  6
CONTINUOUS
 62
     6
 10
333.188977
 20
153.027655
 40
0.999999
 50
217.903402
 51
309.763723
  0
LINE
  8
CSLAYER1
  6
CONTINUOUS
 62
     3
 10
209.827709
 20
189.881171
 11
209.827709
 21
175.381140
  0
LINE
  8
CSLAYER1
  6
CONTINUOUS
 62
     3
 10
210.827709
 20
174.381140
 11
246.827694
 21
174.381140
  0
LINE
  8
CSLAYER1
  6
CONTINUOUS
 62
     3
 10
247.827694
 20
175.381140
 11
247.827694
 21
189.881171
  0
ARC
  8
CSLAYER1
  6
CONTINUOUS
 62
     3
 10
210.827709
 20
175.381140
 40
1.000000
 50
180.000005
 51
270.000001
  0
ARC
  8
CSLAYER1
  6
CONTINUOUS
 62
     3
 10
246.827694
 20
175.381140
 40
1.000000
 50
270.000001
 51
359.942691
  0
TEXT
  8
CSLAYER1
 62
     3
 10
226.197769
 20
187.495209
 40
3.500000
 41
1.125000
  1
N P
 50
-90.000000
 51
10.000000
  7
JX_FONT
 72
     5
 11
226.197769
 21
176.995209
  0
LINE
  8
CSLAYER1
  6
CONTINUOUS
 62
     6
 10
171.460324
 20
186.381170
 11
148.460311
 21
186.381201
  0
LINE
  8
CSLAYER1
  6
CENTER
 62
     3
 10
165.460308
 20
146.171384
 11
165.460308
 21
118.189713
  0
LINE
  8
CSLAYER1
  6
CENTER
 62
     3
 10
173.734295
 20
137.814939
 11
156.835659
 21
137.814939
  0
ARC
  8
CSLAYER1
  6
CONTINUOUS
 62
     6
 10
165.460308
 20
137.814939
 40
2.500000
 50
0.000000
 51
180.000005
  0
LINE
  8
CSLAYER1
  6
CONTINUOUS
 62
     6
 10
162.960308
 20
137.814939
 11
162.960308
 21
126.042997
  0
LINE
  8
CSLAYER1
  6
CONTINUOUS
 62
     6
 10
167.960308
 20
137.814939
 11
167.960308
 21
126.042997
  0
ARC
  8
CSLAYER1
  6
CONTINUOUS
 62
     6
 10
151.692120
 20
122.279386
 40
11.353822
 50
-34.633120
 51
7.041553
  0
ARC
  8
CSLAYER1
  6
CONTINUOUS
 62
     6
 10
151.692120
 20
122.279386
 40
16.327621
 50
-34.633093
 51
4.890180
  0
LINE
  8
CSLAYER1
  6
CONTINUOUS
 62
     6
 10
161.034146
 20
115.826795
 11
165.126629
 21
113.000089
  0
ARC
  8
CSLAYER1
  6
CONTINUOUS
 62
     6
 10
164.210308
 20
128.208066
 40
2.500000
 50
240.000007
 51
299.999995
  0
ARC
  8
CSLAYER1
  6
CONTINUOUS
 62
     6
 10
166.710308
 20
128.208066
 40
2.500000
 50
240.000007
 51
299.999995
  0
ARC
  8
CSLAYER1
  6
CONTINUOUS
 62
     6
 10
166.710308
 20
123.877927
 40
2.500000
 50
60.000002
 51
120.000003
  0
ARC
  8
CSLAYER1
  6
CONTINUOUS
 62
     6
 10
166.710308
 20
121.506177
 40
2.500000
 50
59.999995
 51
119.999990
  0
ARC
  8
CSLAYER1
  6
CONTINUOUS
 62
     6
 10
164.210308
 20
121.506177
 40
2.500000
 50
59.999995
 51
119.999990
  0
ARC
  8
CSLAYER1
  6
CONTINUOUS
 62
     6
 10
164.210308
 20
125.836316
 40
2.500000
 50
240.000007
 51
299.999995
  0
LINE
  8
CSLAYER1
  6
CONTINUOUS
 62
     6
 10
161.716213
 20
115.355665
 11
159.356655
 21
113.066755
  0
LINE
  8
CSLAYER1
  6
CONTINUOUS
 62
     6
 10
162.398281
 20
114.884549
 11
160.241970
 21
112.345411
  0
LINE
  8
CSLAYER1
  6
CONTINUOUS
 62
     6
 10
163.080380
 20
114.413434
 11
161.225628
 21
111.787992
  0
LINE
  8
CSLAYER1
  6
CONTINUOUS
 62
     6
 10
163.762448
 20
113.942319
 11
162.078137
 21
110.935483
  0
LINE
  8
CSLAYER1
  6
CONTINUOUS
 62
     6
 10
164.444546
 20
113.471204
 11
163.225750
 21
110.542020
  0
LINE
  8
CSLAYER1
  6
CONTINUOUS
 62
     6
 10
159.586178
 20
112.607709
 11
158.766476
 21
112.050306
  0
LINE
  8
CSLAYER1
  6
CONTINUOUS
 62
     6
 10
159.914074
 20
112.574933
 11
158.930416
 21
111.689634
  0
LINE
  8
CSLAYER1
  6
CONTINUOUS
 62
     6
 10
160.537060
 20
112.050306
 11
159.618984
 21
111.263379
  0
LINE
  8
CSLAYER1
  6
CONTINUOUS
 62
     6
 10
160.832165
 20
111.853574
 11
160.110806
 21
111.033857
  0
LINE
  8
CSLAYER1
  6
CONTINUOUS
 62
     6
 10
161.848614
 20
111.394529
 11
161.028897
 21
110.443647
  0
LINE
  8
CSLAYER1
  6
CONTINUOUS
 62
     6
 10
160.209179
 20
139.314939
 11
160.209179
 21
137.814939
  0
LINE
  8
CSLAYER1
  6
CONTINUOUS
 62
     6
 10
170.711437
 20
139.314939
 11
170.711437
 21
137.814939
  0
POLYLINE
  8
CSLAYER1
  6
CONTINUOUS
 62
     6
 66
     1
 10
0.0
 20
0.0
 30
0.0
  0
VERTEX
  8
CSLAYER1
  6
CONTINUOUS
 62
     6
 10
167.960308
 20
134.297570
 30
0.0
  0
VERTEX
  8
CSLAYER1
  6
CONTINUOUS
 62
     6
 10
168.353154
 20
134.476966
 30
0.0
  0
VERTEX
  8
CSLAYER1
  6
CONTINUOUS
 62
     6
 10
168.723983
 20
134.681765
 30
0.0
  0
VERTEX
  8
CSLAYER1
  6
CONTINUOUS
 62
     6
 10
169.069973
 20
134.910410
 30
0.0
  0
VERTEX
  8
CSLAYER1
  6
CONTINUOUS
 62
     6
 10
169.388492
 20
135.161160
 30
0.0
  0
VERTEX
  8
CSLAYER1
  6
CONTINUOUS
 62
     6
 10
169.677115
 20
135.432107
 30
0.0
  0
VERTEX
  8
CSLAYER1
  6
CONTINUOUS
 62
     6
 10
169.933645
 20
135.721189
 30
0.0
  0
VERTEX
  8
CSLAYER1
  6
CONTINUOUS
 62
     6
 10
170.156131
 20
136.026206
 30
0.0
  0
VERTEX
  8
CSLAYER1
  6
CONTINUOUS
 62
     6
 10
170.342878
 20
136.344836
 30
0.0
  0
VERTEX
  8
CSLAYER1
  6
CONTINUOUS
 62
     6
 10
170.492467
 20
136.674654
 30
0.0
  0
VERTEX
  8
CSLAYER1
  6
CONTINUOUS
 62
     6
 10
170.603757
 20
137.013150
 30
0.0
  0
VERTEX
  8
CSLAYER1
  6
CONTINUOUS
 62
     6
 10
170.675903
 20
137.357749
 30
0.0
  0
VERTEX
  8
CSLAYER1
  6
CONTINUOUS
 62
     6
 10
170.708355
 20
137.705827
 30
0.0
  0
VERTEX
  8
CSLAYER1
  6
CONTINUOUS
 62
     6
 10
170.700866
 20
138.054735
 30
0.0
  0
VERTEX
  8
CSLAYER1
  6
CONTINUOUS
 62
     6
 10
170.653493
 20
138.401819
 30
0.0
  0
VERTEX
  8
CSLAYER1
  6
CONTINUOUS
 62
     6
 10
170.566597
 20
138.744436
 30
0.0
  0
VERTEX
  8
CSLAYER1
  6
CONTINUOUS
 62
     6
 10
170.440839
 20
139.079979
 30
0.0
  0
VERTEX
  8
CSLAYER1
  6
CONTINUOUS
 62
     6
 10
170.277177
 20
139.405894
 30
0.0
  0
VERTEX
  8
CSLAYER1
  6
CONTINUOUS
 62
     6
 10
170.076855
 20
139.719701
 30
0.0
  0
VERTEX
  8
CSLAYER1
  6
CONTINUOUS
 62
     6
 10
169.841398
 20
140.019011
 30
0.0
  0
VERTEX
  8
CSLAYER1
  6
CONTINUOUS
 62
     6
 10
169.572599
 20
140.301548
 30
0.0
  0
VERTEX
  8
CSLAYER1
  6
CONTINUOUS
 62
     6
 10
169.272502
 20
140.565160
 30
0.0
  0
VERTEX
  8
CSLAYER1
  6
CONTINUOUS
 62
     6
 10
168.943392
 20
140.807841
 30
0.0
  0
VERTEX
  8
CSLAYER1
  6
CONTINUOUS
 62
     6
 10
168.587775
 20
141.027744
 30
0.0
  0
VERTEX
  8
CSLAYER1
  6
CONTINUOUS
 62
     6
 10
168.208355
 20
141.223195
 30
0.0
  0
VERTEX
  8
CSLAYER1
  6
CONTINUOUS
 62
     6
 10
167.808021
 20
141.392708
 30
0.0
  0
VERTEX
  8
CSLAYER1
  6
CONTINUOUS
 62
     6
 10
167.389819
 20
141.534992
 30
0.0
  0
VERTEX
  8
CSLAYER1
  6
CONTINUOUS
 62
     6
 10
166.956933
 20
141.648964
 30
0.0
  0
VERTEX
  8
CSLAYER1
  6
CONTINUOUS
 62
     6
 10
166.512656
 20
141.733757
 30
0.0
  0
VERTEX
  8
CSLAYER1
  6
CONTINUOUS
 62
     6
 10
166.060370
 20
141.788725
 30
0.0
  0
VERTEX
  8
CSLAYER1
  6
CONTINUOUS
 62
     6
 10
165.603518
 20
141.813450
 30
0.0
  0
VERTEX
  8
CSLAYER1
  6
CONTINUOUS
 62
     6
 10
165.145576
 20
141.807745
 30
0.0
  0
VERTEX
  8
CSLAYER1
  6
CONTINUOUS
 62
     6
 10
164.690029
 20
141.771651
 30
0.0
  0
VERTEX
  8
CSLAYER1
  6
CONTINUOUS
 62
     6
 10
164.240344
 20
141.705445
 30
0.0
  0
VERTEX
  8
CSLAYER1
  6
CONTINUOUS
 62
     6
 10
163.799944
 20
141.609629
 30
0.0
  0
VERTEX
  8
CSLAYER1
  6
CONTINUOUS
 62
     6
 10
163.372180
 20
141.484934
 30
0.0
  0
VERTEX
  8
CSLAYER1
  6
CONTINUOUS
 62
     6
 10
162.960308
 20
141.332308
 30
0.0
  0
VERTEX
  8
CSLAYER1
  6
CONTINUOUS
 62
     6
 10
162.567463
 20
141.152912
 30
0.0
  0
VERTEX
  8
CSLAYER1
  6
CONTINUOUS
 62
     6
 10
162.196634
 20
140.948112
 30
0.0
  0
VERTEX
  8
CSLAYER1
  6
CONTINUOUS
 62
     6
 10
161.850644
 20
140.719467
 30
0.0
  0
VERTEX
  8
CSLAYER1
  6
CONTINUOUS
 62
     6
 10
161.532125
 20
140.468717
 30
0.0
  0
VERTEX
  8
CSLAYER1
  6
CONTINUOUS
 62
     6
 10
161.243502
 20
140.197770
 30
0.0
  0
VERTEX
  8
CSLAYER1
  6
CONTINUOUS
 62
     6
 10
160.986972
 20
139.908689
 30
0.0
  0
VERTEX
  8
CSLAYER1
  6
CONTINUOUS
 62
     6
 10
160.764486
 20
139.603672
 30
0.0
  0
VERTEX
  8
CSLAYER1
  6
CONTINUOUS
 62
     6
 10
160.577738
 20
139.285042
 30
0.0
  0
VERTEX
  8
CSLAYER1
  6
CONTINUOUS
 62
     6
 10
160.428150
 20
138.955224
 30
0.0
  0
VERTEX
  8
CSLAYER1
  6
CONTINUOUS
 62
     6
 10
160.316860
 20
138.616728
 30
0.0
  0
VERTEX
  8
CSLAYER1
  6
CONTINUOUS
 62
     6
 10
160.244714
 20
138.272129
 30
0.0
  0
VERTEX
  8
CSLAYER1
  6
CONTINUOUS
 62
     6
 10
160.212262
 20
137.924051
 30
0.0
  0
VERTEX
  8
CSLAYER1
  6
CONTINUOUS
 62
     6
 10
160.219751
 20
137.575143
 30
0.0
  0
VERTEX
  8
CSLAYER1
  6
CONTINUOUS
 62
     6
 10
160.267123
 20
137.228059
 30
0.0
  0
VERTEX
  8
CSLAYER1
  6
CONTINUOUS
 62
     6
 10
160.354019
 20
136.885442
 30
0.0
  0
VERTEX
  8
CSLAYER1
  6
CONTINUOUS
 62
     6
 10
160.479777
 20
136.549899
 30
0.0
  0
VERTEX
  8
CSLAYER1
  6
CONTINUOUS
 62
     6
 10
160.643440
 20
136.223984
 30
0.0
  0
VERTEX
  8
CSLAYER1
  6
CONTINUOUS
 62
     6
 10
160.843762
 20
135.910177
 30
0.0
  0
VERTEX
  8
CSLAYER1
  6
CONTINUOUS
 62
     6
 10
161.079219
 20
135.610866
 30
0.0
  0
VERTEX
  8
CSLAYER1
  6
CONTINUOUS
 62
     6
 10
161.348018
 20
135.328330
 30
0.0
  0
VERTEX
  8
CSLAYER1
  6
CONTINUOUS
 62
     6
 10
161.648115
 20
135.064718
 30
0.0
  0
VERTEX
  8
CSLAYER1
  6
CONTINUOUS
 62
     6
 10
161.977224
 20
134.822037
 30
0.0
  0
VERTEX
  8
CSLAYER1
  6
CONTINUOUS
 62
     6
 10
162.332842
 20
134.602134
 30
0.0
  0
VERTEX
  8
CSLAYER1
  6
CONTINUOUS
 62
     6
 10
162.712262
 20
134.406682
 30
0.0
  0
VERTEX
  8
CSLAYER1
  6
CONTINUOUS
 62
     6
 10
162.960308
 20
134.297570
 30
0.0
  0
SEQEND
  0
POLYLINE
  8
CSLAYER1
  6
CONTINUOUS
 62
     6
 66
     1
 10
0.0
 20
0.0
 30
0.0
  0
VERTEX
  8
CSLAYER1
  6
CONTINUOUS
 62
     6
 10
170.710308
 20
139.314939
 30
0.0
  0
VERTEX
  8
CSLAYER1
  6
CONTINUOUS
 62
     6
 10
170.690330
 20
139.663562
 30
0.0
  0
VERTEX
  8
CSLAYER1
  6
CONTINUOUS
 62
     6
 10
170.630549
 20
140.009532
 30
0.0
  0
VERTEX
  8
CSLAYER1
  6
CONTINUOUS
 62
     6
 10
170.531419
 20
140.350215
 30
0.0
  0
VERTEX
  8
CSLAYER1
  6
CONTINUOUS
 62
     6
 10
170.393695
 20
140.683019
 30
0.0
  0
VERTEX
  8
CSLAYER1
  6
CONTINUOUS
 62
     6
 10
170.218424
 20
141.005412
 30
0.0
  0
VERTEX
  8
CSLAYER1
  6
CONTINUOUS
 62
     6
 10
170.006942
 20
141.314939
 30
0.0
  0
VERTEX
  8
CSLAYER1
  6
CONTINUOUS
 62
     6
 10
169.760857
 20
141.609245
 30
0.0
  0
VERTEX
  8
CSLAYER1
  6
CONTINUOUS
 62
     6
 10
169.482042
 20
141.886089
 30
0.0
  0
VERTEX
  8
CSLAYER1
  6
CONTINUOUS
 62
     6
 10
169.172619
 20
142.143366
 30
0.0
  0
VERTEX
  8
CSLAYER1
  6
CONTINUOUS
 62
     6
 10
168.834943
 20
142.379117
 30
0.0
  0
VERTEX
  8
CSLAYER1
  6
CONTINUOUS
 62
     6
 10
168.471585
 20
142.591547
 30
0.0
  0
VERTEX
  8
CSLAYER1
  6
CONTINUOUS
 62
     6
 10
168.085308
 20
142.779041
 30
0.0
  0
VERTEX
  8
CSLAYER1
  6
CONTINUOUS
 62
     6
 10
167.679054
 20
142.940170
 30
0.0
  0
VERTEX
  8
CSLAYER1
  6
CONTINUOUS
 62
     6
 10
167.255914
 20
143.073709
 30
0.0
  0
VERTEX
  8
CSLAYER1
  6
CONTINUOUS
 62
     6
 10
166.819108
 20
143.178642
 30
0.0
  0
VERTEX
  8
CSLAYER1
  6
CONTINUOUS
 62
     6
 10
166.371961
 20
143.254170
 30
0.0
  0
VERTEX
  8
CSLAYER1
  6
CONTINUOUS
 62
     6
 10
165.917876
 20
143.299718
 30
0.0
  0
VERTEX
  8
CSLAYER1
  6
CONTINUOUS
 62
     6
 10
165.460308
 20
143.314939
 30
0.0
  0
VERTEX
  8
CSLAYER1
  6
CONTINUOUS
 62
     6
 10
165.002741
 20
143.299718
 30
0.0
  0
VERTEX
  8
CSLAYER1
  6
CONTINUOUS
 62
     6
 10
164.548655
 20
143.254170
 30
0.0
  0
VERTEX
  8
CSLAYER1
  6
CONTINUOUS
 62
     6
 10
164.101508
 20
143.178642
 30
0.0
  0
VERTEX
  8
CSLAYER1
  6
CONTINUOUS
 62
     6
 10
163.664703
 20
143.073709
 30
0.0
  0
VERTEX
  8
CSLAYER1
  6
CONTINUOUS
 62
     6
 10
163.241562
 20
142.940170
 30
0.0
  0
VERTEX
  8
CSLAYER1
  6
CONTINUOUS
 62
     6
 10
162.835308
 20
142.779041
 30
0.0
  0
VERTEX
  8
CSLAYER1
  6
CONTINUOUS
 62
     6
 10
162.449032
 20
142.591547
 30
0.0
  0
VERTEX
  8
CSLAYER1
  6
CONTINUOUS
 62
     6
 10
162.085673
 20
142.379117
 30
0.0
  0
VERTEX
  8
CSLAYER1
  6
CONTINUOUS
 62
     6
 10
161.747998
 20
142.143366
 30
0.0
  0
VERTEX
  8
CSLAYER1
  6
CONTINUOUS
 62
     6
 10
161.438575
 20
141.886089
 30
0.0
  0
VERTEX
  8
CSLAYER1
  6
CONTINUOUS
 62
     6
 10
161.159760
 20
141.609245
 30
0.0
  0
VERTEX
  8
CSLAYER1
  6
CONTINUOUS
 62
     6
 10
160.913675
 20
141.314939
 30
0.0
  0
VERTEX
  8
CSLAYER1
  6
CONTINUOUS
 62
     6
 10
160.702192
 20
141.005412
 30
0.0
  0
VERTEX
  8
CSLAYER1
  6
CONTINUOUS
 62
     6
 10
160.526922
 20
140.683019
 30
0.0
  0
VERTEX
  8
CSLAYER1
  6
CONTINUOUS
 62
     6
 10
160.389198
 20
140.350215
 30
0.0
  0
VERTEX
  8
CSLAYER1
  6
CONTINUOUS
 62
     6
 10
160.290068
 20
140.009532
 30
0.0
  0
VERTEX
  8
CSLAYER1
  6
CONTINUOUS
 62
     6
 10
160.230286
 20
139.663562
 30
0.0
  0
VERTEX
  8
CSLAYER1
  6
CONTINUOUS
 62
     6
 10
160.210308
 20
139.314939
 30
0.0
  0
SEQEND
  0
LINE
  8
CSLAYER1
  6
CENTER
 62
     3
 10
191.460308
 20
171.881182
 11
191.460308
 21
110.309679
  0
CIRCLE
  8
CSLAYER1
  6
CONTINUOUS
 62
     6
 10
191.460324
 20
158.881182
 40
8.000000
  0
CIRCLE
  8
CSLAYER1
  6
CONTINUOUS
 62
     6
 10
191.460324
 20
158.881182
 40
6.000000
  0
CIRCLE
  8
CSLAYER1
  6
CONTINUOUS
 62
     3
 10
191.460324
 20
158.881182
 40
5.500000
  0
LINE
  8
CSLAYER1
  6
CONTINUOUS
 62
     6
 10
194.210324
 20
159.681200
 11
188.710324
 21
159.681200
  0
LINE
  8
CSLAYER1
  6
CONTINUOUS
 62
     6
 10
194.210324
 20
158.081194
 11
188.710324
 21
158.081194
  0
LINE
  8
CSLAYER1
  6
CONTINUOUS
 62
     6
 10
188.710324
 20
159.681200
 11
188.710324
 21
158.081194
  0
LINE
  8
CSLAYER1
  6
CONTINUOUS
 62
     6
 10
194.210324
 20
159.681200
 11
194.210324
 21
158.081194
  0
ARC
  8
CSLAYER1
  6
CONTINUOUS
 62
     6
 10
176.801480
 20
120.445543
 40
15.758816
 50
332.536202
 51
359.942691
  0
ARC
  8
CSLAYER1
  6
CONTINUOUS
 62
     6
 10
176.801480
 20
120.445543
 40
13.558834
 50
332.536202
 51
359.877558
  0
ARC
  8
CSLAYER1
  6
CONTINUOUS
 62
     6
 10
192.010311
 20
119.492952
 40
1.099999
 50
60.000350
 51
120.000345
  0
ARC
  8
CSLAYER1
  6
CONTINUOUS
 62
     6
 10
190.910313
 20
119.492937
 40
1.099999
 50
60.000350
 51
120.000345
  0
ARC
  8
CSLAYER1
  6
CONTINUOUS
 62
     6
 10
190.910305
 20
121.398195
 40
1.099999
 50
240.000362
 51
300.000350
  0
LINE
  8
CSLAYER1
  6
CONTINUOUS
 62
     6
 10
189.489880
 20
113.850588
 11
187.872723
 21
110.912523
  0
LINE
  8
CSLAYER1
  6
CONTINUOUS
 62
     6
 10
189.978802
 20
113.596453
 11
188.402020
 21
110.589037
  0
LINE
  8
CSLAYER1
  6
CONTINUOUS
 62
     6
 10
190.376934
 20
113.389498
 11
188.975445
 21
110.309694
  0
LINE
  8
CSLAYER1
  6
CONTINUOUS
 62
     6
 10
188.832257
 20
114.192385
 11
190.784313
 21
113.177767
  0
ARC
  8
CSLAYER1
  6
CONTINUOUS
 62
     6
 10
206.119152
 20
120.445543
 40
15.758816
 50
201.534143
 51
207.463868
  0
ARC
  8
CSLAYER1
  6
CONTINUOUS
 62
     6
 10
206.119152
 20
120.445543
 40
13.558834
 50
179.999978
 51
207.463868
  0
LINE
  8
CSLAYER1
  6
CONTINUOUS
 62
     6
 10
193.430767
 20
113.850557
 11
195.047940
 21
110.912508
  0
LINE
  8
CSLAYER1
  6
CONTINUOUS
 62
     6
 10
192.941845
 20
113.596438
 11
194.518627
 21
110.589037
  0
LINE
  8
CSLAYER1
  6
CONTINUOUS
 62
     6
 10
192.543713
 20
113.389498
 11
193.945217
 21
110.309679
  0
LINE
  8
CSLAYER1
  6
CONTINUOUS
 62
     6
 10
194.088391
 20
114.192370
 11
192.136334
 21
113.177752
  0
ARC
  8
CSLAYER1
  6
CONTINUOUS
 62
     6
 10
190.910336
 20
124.310412
 40
1.100006
 50
240.000007
 51
299.999995
  0
ARC
  8
CSLAYER1
  6
CONTINUOUS
 62
     6
 10
192.010342
 20
124.310412
 40
1.100006
 50
240.000007
 51
299.999995
  0
ARC
  8
CSLAYER1
  6
CONTINUOUS
 62
     6
 10
192.010342
 20
122.405138
 40
1.100006
 50
60.000002
 51
120.000003
  0
LINE
  8
CSLAYER1
  6
CONTINUOUS
 62
     6
 10
192.560330
 20
129.054018
 11
192.560330
 21
123.357775
  0
LINE
  8
CSLAYER1
  6
CONTINUOUS
 62
     6
 10
190.360333
 20
129.091311
 11
190.360333
 21
123.357775
  0
LINE
  8
CSLAYER1
  6
CONTINUOUS
 62
     6
 10
172.460156
 20
188.357483
 11
202.460293
 21
188.881167
  0
LINE
  8
CSLAYER1
  6
CONTINUOUS
 62
     6
 10
172.460156
 20
129.404850
 11
202.460293
 21
128.881167
  0
LINE
  8
CSLAYER1
  6
CONTINUOUS
 62
     6
 10
254.460308
 20
189.881171
 11
254.460308
 21
127.881171
  0
LINE
  8
CSLAYER1
  6
CONTINUOUS
 62
     6
 10
202.460308
 20
189.881171
 11
202.460308
 21
127.881171
  0
LINE
  8
CSLAYER1
  6
CONTINUOUS
 62
     6
 10
254.460308
 20
189.881171
 11
202.460308
 21
189.881171
  0
LINE
  8
CSLAYER1
  6
CONTINUOUS
 62
     6
 10
254.460308
 20
127.881171
 11
202.460308
 21
127.881171
  0
LINE
  8
CSLAYER1
  6
CONTINUOUS
 62
     6
 10
255.460308
 20
128.881171
 11
254.460308
 21
128.881171
  0
LINE
  8
CSLAYER1
  6
CONTINUOUS
 62
     6
 10
266.460308
 20
143.881171
 11
266.460308
 21
173.881171
  0
LINE
  8
CSLAYER1
  6
CONTINUOUS
 62
     6
 10
255.460308
 20
188.881171
 11
254.460308
 21
188.881171
  0
ARC
  8
CSLAYER1
  6
CONTINUOUS
 62
     6
 10
257.460308
 20
188.881171
 40
2.000000
 50
90.000003
 51
179.999991
  0
LINE
  8
CSLAYER1
  6
CONTINUOUS
 62
     6
 10
264.460308
 20
126.881140
 11
264.460308
 21
190.881171
  0
LINE
  8
CSLAYER1
  6
CONTINUOUS
 62
     6
 10
266.460308
 20
173.881171
 11
264.460308
 21
173.881171
  0
LINE
  8
CSLAYER1
  6
CONTINUOUS
 62
     6
 10
264.460308
 20
190.881171
 11
257.460308
 21
190.881171
  0
LINE
  8
CSLAYER1
  6
CONTINUOUS
 62
     6
 10
266.460308
 20
143.881171
 11
264.460308
 21
143.881171
  0
ARC
  8
CSLAYER1
  6
CONTINUOUS
 62
     6
 10
257.460308
 20
128.881140
 40
2.000000
 50
180.000005
 51
269.999973
  0
LINE
  8
CSLAYER1
  6
CONTINUOUS
 62
     6
 10
264.460308
 20
126.881140
 11
257.460308
 21
126.881140
  0
LINE
  8
CSLAYER1
  6
CONTINUOUS
 62
     6
 10
255.460308
 20
188.881171
 11
255.460308
 21
128.881140
  0
LINE
  8
CSLAYER1
  6
CENTER
 62
     3
 10
252.460308
 20
132.881155
 11
266.460308
 21
132.881155
  0
LINE
  8
CSLAYER1
  6
CENTER
 62
     3
 10
252.460315
 20
184.881166
 11
266.460315
 21
184.881162
  0
LINE
  8
CSLAYER1
  6
CONTINUOUS
 62
     6
 10
255.460293
 20
188.881186
 11
254.460293
 21
188.881186
  0
LINE
  8
CSLAYER1
  6
CONTINUOUS
 62
     6
 10
290.960324
 20
162.881171
 11
266.460308
 21
162.881171
  0
LINE
  8
CSLAYER1
  6
CONTINUOUS
 62
     6
 10
290.960293
 20
154.881171
 11
266.460324
 21
154.881171
  0
LINE
  8
CSLAYER1
  6
CONTINUOUS
 62
     6
 10
290.960324
 20
162.881171
 11
290.960293
 21
154.881171
  0
LINE
  8
CSLAYER1
  6
CENTER
 62
     3
 10
143.464809
 20
54.590627
 11
293.960295
 21
54.590609
  0
LINE
  8
CSLAYER1
  6
CENTER
 62
     3
 10
191.460308
 20
67.590635
 11
191.460308
 21
41.590607
  0
LINE
  8
CSLAYER1
  6
CONTINUOUS
 62
     6
 10
171.460308
 20
27.090612
 11
148.460311
 21
27.090587
  0
LINE
  8
CSLAYER1
  6
CONTINUOUS
 62
     6
 10
162.960324
 20
82.090568
 11
148.460311
 21
82.090587
  0
LINE
  8
CSLAYER1
  6
CONTINUOUS
 62
     6
 10
172.460156
 20
84.066936
 11
202.460293
 21
84.590620
  0
LINE
  8
CSLAYER1
  6
CONTINUOUS
 62
     6
 10
172.460156
 20
25.114304
 11
202.460293
 21
24.590620
  0
LINE
  8
CSLAYER1
  6
CONTINUOUS
 62
     6
 10
191.460308
 20
54.590621
 11
186.026837
 21
54.590621
  0
LINE
  8
CSLAYER1
  6
CONTINUOUS
 62
     6
 10
191.460308
 20
56.790618
 11
186.026837
 21
56.790618
  0
ARC
  8
CSLAYER1
  6
CONTINUOUS
 62
     6
 10
183.114605
 20
70.349471
 40
15.758816
 50
242.536193
 51
269.942682
  0
ARC
  8
CSLAYER1
  6
CONTINUOUS
 62
     6
 10
183.114605
 20
70.349471
 40
13.558834
 50
242.536193
 51
269.942682
  0
LINE
  8
CSLAYER1
  6
CONTINUOUS
 62
     6
 10
176.519696
 20
57.661071
 11
173.581585
 21
59.278228
  0
LINE
  8
CSLAYER1
  6
CONTINUOUS
 62
     6
 10
176.861492
 20
58.318694
 11
175.846844
 21
56.366637
  0
ARC
  8
CSLAYER1
  6
CONTINUOUS
 62
     6
 10
186.979473
 20
56.240615
 40
1.100006
 50
149.999997
 51
209.999999
  0
ARC
  8
CSLAYER1
  6
CONTINUOUS
 62
     6
 10
186.979473
 20
55.140609
 40
1.100006
 50
149.999997
 51
209.999999
  0
ARC
  8
CSLAYER1
  6
CONTINUOUS
 62
     6
 10
185.074200
 20
55.140609
 40
1.100006
 50
-30.000011
 51
29.999977
  0
ARC
  8
CSLAYER1
  6
CONTINUOUS
 62
     6
 10
183.114605
 20
38.831771
 40
13.558834
 50
89.999975
 51
117.463872
  0
LINE
  8
CSLAYER1
  6
CONTINUOUS
 62
     6
 10
176.519635
 20
51.520171
 11
173.581585
 21
49.902999
  0
LINE
  8
CSLAYER1
  6
CONTINUOUS
 62
     6
 10
176.861431
 20
50.862548
 11
175.846844
 21
52.814605
  0
ARC
  8
CSLAYER1
  6
CONTINUOUS
 62
     6
 10
183.114636
 20
38.831786
 40
15.758816
 50
90.000003
 51
117.463872
  0
ARC
  8
CSLAYER1
  6
CONTINUOUS
 62
     6
 10
186.979473
 20
54.040603
 40
1.100006
 50
149.999997
 51
209.999999
  0
ARC
  8
CSLAYER1
  6
CONTINUOUS
 62
     6
 10
186.979473
 20
52.940597
 40
1.100006
 50
149.999997
 51
209.999999
  0
ARC
  8
CSLAYER1
  6
CONTINUOUS
 62
     6
 10
185.074200
 20
52.940597
 40
1.100006
 50
-30.000011
 51
29.999977
  0
ARC
  8
CSLAYER1
  6
CONTINUOUS
 62
     6
 10
191.460308
 20
55.690627
 40
1.100006
 50
-89.999999
 51
90.000019
  0
ARC
  8
CSLAYER1
  6
CONTINUOUS
 62
     6
 10
191.460308
 20
53.490615
 40
1.100006
 50
-90.000027
 51
89.999992
  0
LINE
  8
CSLAYER1
  6
CONTINUOUS
 62
     6
 10
191.460308
 20
52.390624
 11
186.026837
 21
52.390624
  0
LINE
  8
CSLAYER1
  6
CONTINUOUS
 62
     6
 10
192.560345
 20
55.690627
 11
192.560345
 21
53.490615
  0
ARC
  8
CSLAYER1
  6
CONTINUOUS
 62
     6
 10
183.435238
 20
55.140655
 40
1.099999
 50
-29.999656
 51
30.000332
  0
ARC
  8
CSLAYER1
  6
CONTINUOUS
 62
     6
 10
183.435231
 20
56.240645
 40
1.099999
 50
-29.999656
 51
30.000332
  0
ARC
  8
CSLAYER1
  6
CONTINUOUS
 62
     6
 10
185.340481
 20
56.240661
 40
1.099999
 50
150.000353
 51
210.000354
  0
ARC
  8
CSLAYER1
  6
CONTINUOUS
 62
     6
 10
183.435238
 20
52.940642
 40
1.099999
 50
-29.999656
 51
30.000332
  0
ARC
  8
CSLAYER1
  6
CONTINUOUS
 62
     6
 10
183.435231
 20
54.040633
 40
1.099999
 50
-29.999656
 51
30.000332
  0
ARC
  8
CSLAYER1
  6
CONTINUOUS
 62
     6
 10
185.340481
 20
54.040648
 40
1.099999
 50
150.000353
 51
210.000354
  0
LINE
  8
CSLAYER1
  6
CONTINUOUS
 62
     6
 10
183.114666
 20
56.790633
 11
184.387860
 21
56.790633
  0
LINE
  8
CSLAYER1
  6
CONTINUOUS
 62
     6
 10
183.114636
 20
54.590606
 11
184.387860
 21
54.590606
  0
LINE
  8
CSLAYER1
  6
CONTINUOUS
 62
     6
 10
183.114666
 20
52.390639
 11
184.387860
 21
52.390639
  0
ARC
  8
CSLAYER1
  6
CONTINUOUS
 62
     6
 10
191.460308
 20
54.590621
 40
8.000000
 50
-164.038116
 51
164.037904
  0
LINE
  8
CSLAYER1
  6
CONTINUOUS
 62
     6
 10
176.265545
 20
57.172149
 11
174.258099
 21
58.748931
  0
LINE
  8
CSLAYER1
  6
CONTINUOUS
 62
     6
 10
176.058575
 20
56.774016
 11
173.978802
 21
58.175506
  0
LINE
  8
CSLAYER1
  6
CONTINUOUS
 62
     6
 10
176.265545
 20
52.009093
 11
174.258099
 21
50.432311
  0
LINE
  8
CSLAYER1
  6
CONTINUOUS
 62
     6
 10
176.058575
 20
52.407226
 11
173.978741
 21
51.005721
  0
LINE
  8
CSLAYER1
  6
CONTINUOUS
 62
     6
 10
254.460308
 20
85.590624
 11
254.460308
 21
23.590624
  0
LINE
  8
CSLAYER1
  6
CONTINUOUS
 62
     6
 10
202.460308
 20
85.590624
 11
202.460308
 21
23.590624
  0
LINE
  8
CSLAYER1
  6
CONTINUOUS
 62
     6
 10
254.460308
 20
85.590624
 11
202.460308
 21
85.590624
  0
LINE
  8
CSLAYER1
  6
CONTINUOUS
 62
     6
 10
254.460308
 20
23.590624
 11
202.460308
 21
23.590624
  0
LINE
  8
CSLAYER1
  6
CONTINUOUS
 62
     6
 10
255.460308
 20
24.590624
 11
254.460308
 21
24.590624
  0
LINE
  8
CSLAYER1
  6
CONTINUOUS
 62
     6
 10
266.460308
 20
39.590624
 11
266.460308
 21
69.590624
  0
LINE
  8
CSLAYER1
  6
CONTINUOUS
 62
     6
 10
255.460308
 20
84.590624
 11
254.460308
 21
84.590624
  0
ARC
  8
CSLAYER1
  6
CONTINUOUS
 62
     6
 10
257.460308
 20
84.590624
 40
2.000000
 50
90.000003
 51
179.999991
  0
LINE
  8
CSLAYER1
  6
CONTINUOUS
 62
     6
 10
264.460308
 20
22.590600
 11
264.460308
 21
86.590624
  0
LINE
  8
CSLAYER1
  6
CONTINUOUS
 62
     6
 10
266.460308
 20
69.590624
 11
264.460308
 21
69.590624
  0
LINE
  8
CSLAYER1
  6
CONTINUOUS
 62
     6
 10
264.460308
 20
86.590624
 11
257.460308
 21
86.590624
  0
LINE
  8
CSLAYER1
  6
CONTINUOUS
 62
     6
 10
266.460308
 20
39.590624
 11
264.460308
 21
39.590624
  0
ARC
  8
CSLAYER1
  6
CONTINUOUS
 62
     6
 10
257.460308
 20
24.590600
 40
2.000000
 50
180.000005
 51
269.999973
  0
LINE
  8
CSLAYER1
  6
CONTINUOUS
 62
     6
 10
264.460308
 20
22.590600
 11
257.460308
 21
22.590600
  0
LINE
  8
CSLAYER1
  6
CONTINUOUS
 62
     6
 10
255.460308
 20
84.590624
 11
255.460308
 21
24.590600
  0
LINE
  8
CSLAYER1
  6
CENTER
 62
     3
 10
252.460308
 20
28.590609
 11
266.460308
 21
28.590609
  0
LINE
  8
CSLAYER1
  6
CENTER
 62
     3
 10
252.460315
 20
80.590619
 11
266.460315
 21
80.590615
  0
LINE
  8
CSLAYER1
  6
CONTINUOUS
 62
     6
 10
255.460293
 20
84.590639
 11
254.460293
 21
84.590639
  0
LINE
  8
CSLAYER1
  6
CONTINUOUS
 62
     6
 10
290.960324
 20
58.590624
 11
266.460308
 21
58.590624
  0
LINE
  8
CSLAYER1
  6
CONTINUOUS
 62
     6
 10
290.960293
 20
50.590624
 11
266.460324
 21
50.590624
  0
LINE
  8
CSLAYER1
  6
CONTINUOUS
 62
     6
 10
290.960324
 20
58.590624
 11
290.960293
 21
50.590624
  0
LINE
  8
CSLAYER1
  6
CONTINUOUS
 62
     6
 10
162.960308
 20
131.381170
 11
148.460308
 21
131.381170
  0
ARC
  8
CSLAYER1
  6
CONTINUOUS
 62
     6
 10
89.894012
 20
158.881160
 40
30.000034
 50
-45.219801
 51
305.219826
  0
CIRCLE
  8
CSLAYER1
  6
CONTINUOUS
 62
     6
 10
89.894012
 20
158.881160
 40
27.499998
  0
LINE
  8
CSLAYER1
  6
CENTER
 62
     3
 10
89.894010
 20
193.881163
 11
89.894005
 21
110.309684
  0
LINE
  8
CSLAYER1
  6
CENTER
 62
     3
 10
54.894008
 20
158.881163
 11
124.894015
 21
158.881163
  0
ARC
  8
CSLAYER1
  6
CONTINUOUS
 62
     6
 10
89.894012
 20
158.881160
 40
30.999984
 50
274.069565
 51
305.374356
  0
LINE
  8
CSLAYER1
  6
CONTINUOUS
 62
     6
 10
115.894010
 20
190.881163
 11
63.894071
 21
190.881163
  0
LINE
  8
CSLAYER1
  6
CONTINUOUS
 62
     6
 10
121.894010
 20
132.881163
 11
121.894010
 21
184.881163
  0
ARC
  8
CSLAYER1
  6
CONTINUOUS
 62
     6
 10
115.894010
 20
184.881163
 40
6.000000
 50
0.000000
 51
90.000003
  0
LINE
  8
CSLAYER1
  6
CONTINUOUS
 62
     6
 10
57.894071
 20
132.881163
 11
57.894071
 21
184.881163
  0
LINE
  8
CSLAYER1
  6
CENTER
 62
     3
 10
120.833280
 20
184.881163
 11
110.894010
 21
184.881163
  0
LINE
  8
CSLAYER1
  6
CENTER
 62
     3
 10
115.894010
 20
179.881163
 11
115.894010
 21
189.881163
  0
CIRCLE
  8
CSLAYER1
  6
CONTINUOUS
 62
     6
 10
115.894010
 20
184.881163
 40
2.250000
  0
ARC
  8
CSLAYER1
  6
CONTINUOUS
 62
     6
 10
63.894010
 20
184.881163
 40
6.000000
 50
90.000000
 51
180.000003
  0
LINE
  8
CSLAYER1
  6
CENTER
 62
     3
 10
63.894010
 20
189.820433
 11
63.894010
 21
179.881163
  0
LINE
  8
CSLAYER1
  6
CENTER
 62
     3
 10
68.894010
 20
184.881163
 11
58.894010
 21
184.881163
  0
CIRCLE
  8
CSLAYER1
  6
CONTINUOUS
 62
     6
 10
63.894010
 20
184.881163
 40
2.250000
  0
ARC
  8
CSLAYER1
  6
CONTINUOUS
 62
     6
 10
63.894010
 20
132.881163
 40
6.000000
 50
180.000000
 51
270.000003
  0
LINE
  8
CSLAYER1
  6
CENTER
 62
     3
 10
58.954740
 20
132.881163
 11
68.894010
 21
132.881163
  0
LINE
  8
CSLAYER1
  6
CENTER
 62
     3
 10
63.894010
 20
137.881163
 11
63.894010
 21
127.881163
  0
CIRCLE
  8
CSLAYER1
  6
CONTINUOUS
 62
     6
 10
63.894010
 20
132.881163
 40
2.250000
  0
LINE
  8
CSLAYER1
  6
CONTINUOUS
 62
     6
 10
87.694012
 20
126.881163
 11
63.894071
 21
126.881163
  0
LINE
  8
CSLAYER1
  6
CONTINUOUS
 62
     6
 10
113.481670
 20
126.881163
 11
92.094005
 21
126.881163
  0
ARC
  8
CSLAYER1
  6
CONTINUOUS
 62
     6
 10
115.894010
 20
132.881163
 40
6.000000
 50
303.255148
 51
360.000000
  0
LINE
  8
CSLAYER1
  6
CENTER
 62
     3
 10
120.833280
 20
132.881163
 11
110.894010
 21
132.881163
  0
LINE
  8
CSLAYER1
  6
CENTER
 62
     3
 10
115.894010
 20
137.881163
 11
115.894010
 21
127.881163
  0
ARC
  8
CSLAYER1
  6
CONTINUOUS
 62
     6
 10
115.894010
 20
132.881163
 40
2.250000
 50
-68.251754
 51
148.251603
  0
LINE
  8
CSLAYER1
  6
CONTINUOUS
 62
     6
 10
112.375453
 20
139.867440
 11
104.694397
 21
133.464129
  0
ARC
  8
CSLAYER1
  6
CENTER
 62
     3
 10
89.894012
 20
158.881160
 40
23.000000
 50
-23.893445
 51
3.525640
  0
LINE
  8
CSLAYER1
  6
CONTINUOUS
 62
     6
 10
112.397670
 20
156.256124
 11
112.935462
 21
156.207334
  0
LINE
  8
CSLAYER1
  6
CONTINUOUS
 62
     6
 10
113.913463
 20
155.034170
 11
113.864673
 21
154.496379
  0
LINE
  8
CSLAYER1
  6
CONTINUOUS
 62
     6
 10
112.153718
 20
153.567168
 11
112.691509
 21
153.518377
  0
LINE
  8
CSLAYER1
  6
CONTINUOUS
 62
     6
 10
111.224507
 20
155.278123
 11
111.175716
 21
154.740331
  0
ARC
  8
CSLAYER1
  6
CONTINUOUS
 62
     6
 10
111.322088
 20
156.353705
 40
1.080000
 50
264.816098
 51
354.816098
  0
ARC
  8
CSLAYER1
  6
CONTINUOUS
 62
     6
 10
114.011044
 20
156.109753
 40
1.080000
 50
174.816098
 51
264.816098
  0
ARC
  8
CSLAYER1
  6
CONTINUOUS
 62
     6
 10
113.767092
 20
153.420796
 40
1.080000
 50
84.816098
 51
174.816098
  0
ARC
  8
CSLAYER1
  6
CONTINUOUS
 62
     6
 10
111.078135
 20
153.664749
 40
1.080000
 50
-5.183902
 51
84.816098
  0
CIRCLE
  8
CSLAYER1
  6
CONTINUOUS
 62
     6
 10
112.544590
 20
154.887251
 40
2.500000
  0
LINE
  8
CSLAYER1
  6
CONTINUOUS
 62
     6
 10
111.106260
 20
141.380005
 11
112.375453
 21
139.867440
  0
LINE
  8
CSLAYER1
  6
CONTINUOUS
 62
     6
 10
103.445816
 20
134.952129
 11
104.694397
 21
133.464129
  0
LINE
  8
CSLAYER1
  6
CENTER
 62
     3
 10
107.137666
 20
155.840637
 11
117.951280
 21
153.933905
  0
ARC
  8
CSLAYER1
  6
CENTER
 62
     3
 10
89.894014
 20
158.881157
 40
23.000000
 50
156.106555
 51
183.525640
  0
LINE
  8
CSLAYER1
  6
CONTINUOUS
 62
     6
 10
67.390355
 20
161.506193
 11
66.852564
 21
161.554983
  0
LINE
  8
CSLAYER1
  6
CONTINUOUS
 62
     6
 10
65.874562
 20
162.728147
 11
65.923353
 21
163.265938
  0
LINE
  8
CSLAYER1
  6
CONTINUOUS
 62
     6
 10
67.634307
 20
164.195149
 11
67.096516
 21
164.243940
  0
LINE
  8
CSLAYER1
  6
CONTINUOUS
 62
     6
 10
68.563519
 20
162.484195
 11
68.612309
 21
163.021986
  0
ARC
  8
CSLAYER1
  6
CONTINUOUS
 62
     6
 10
68.465938
 20
161.408612
 40
1.080000
 50
84.816098
 51
174.816098
  0
ARC
  8
CSLAYER1
  6
CONTINUOUS
 62
     6
 10
65.776981
 20
161.652564
 40
1.080000
 50
-5.183902
 51
84.816098
  0
ARC
  8
CSLAYER1
  6
CONTINUOUS
 62
     6
 10
66.020934
 20
164.341521
 40
1.080000
 50
264.816098
 51
354.816098
  0
ARC
  8
CSLAYER1
  6
CONTINUOUS
 62
     6
 10
68.709890
 20
164.097568
 40
1.080000
 50
174.816098
 51
264.816098
  0
CIRCLE
  8
CSLAYER1
  6
CONTINUOUS
 62
     6
 10
67.243436
 20
162.875066
 40
2.500000
  0
LINE
  8
CSLAYER1
  6
CENTER
 62
     3
 10
72.650359
 20
161.921680
 11
61.836745
 21
163.828412
  0
LINE
  8
CSLAYER1
  6
CENTER
 62
     3
 10
165.460308
 20
67.300413
 11
165.460308
 21
81.354704
  0
LINE
  8
CSLAYER1
  6
CENTER
 62
     3
 10
173.734295
 20
75.656859
 11
156.835659
 21
75.656859
  0
ARC
  8
CSLAYER1
  6
CONTINUOUS
 62
     6
 10
165.460308
 20
75.656859
 40
2.500000
 50
179.999995
 51
360.000000
  0
LINE
  8
CSLAYER1
  6
CONTINUOUS
 62
     6
 10
162.960308
 20
75.656859
 11
162.960308
 21
87.428801
  0
LINE
  8
CSLAYER1
  6
CONTINUOUS
 62
     6
 10
167.960308
 20
75.656859
 11
167.960308
 21
87.428801
  0
ARC
  8
CSLAYER1
  6
CONTINUOUS
 62
     6
 10
151.692120
 20
91.192412
 40
11.353822
 50
-7.041553
 51
34.633120
  0
ARC
  8
CSLAYER1
  6
CONTINUOUS
 62
     6
 10
151.692120
 20
91.192412
 40
16.327621
 50
-4.890180
 51
34.633093
  0
LINE
  8
CSLAYER1
  6
CONTINUOUS
 62
     6
 10
161.034146
 20
97.645003
 11
165.126629
 21
100.471708
  0
ARC
  8
CSLAYER1
  6
CONTINUOUS
 62
     6
 10
164.210308
 20
85.263731
 40
2.500000
 50
60.000005
 51
119.999993
  0
ARC
  8
CSLAYER1
  6
CONTINUOUS
 62
     6
 10
166.710308
 20
85.263731
 40
2.500000
 50
60.000005
 51
119.999993
  0
ARC
  8
CSLAYER1
  6
CONTINUOUS
 62
     6
 10
166.710308
 20
89.593870
 40
2.500000
 50
239.999997
 51
299.999998
  0
ARC
  8
CSLAYER1
  6
CONTINUOUS
 62
     6
 10
166.710308
 20
91.965620
 40
2.500000
 50
240.000010
 51
300.000005
  0
ARC
  8
CSLAYER1
  6
CONTINUOUS
 62
     6
 10
164.210308
 20
91.965620
 40
2.500000
 50
240.000010
 51
300.000005
  0
ARC
  8
CSLAYER1
  6
CONTINUOUS
 62
     6
 10
164.210308
 20
87.635481
 40
2.500000
 50
60.000005
 51
119.999993
  0
LINE
  8
CSLAYER1
  6
CONTINUOUS
 62
     6
 10
161.716213
 20
98.116133
 11
159.356655
 21
100.405043
  0
LINE
  8
CSLAYER1
  6
CONTINUOUS
 62
     6
 10
162.398281
 20
98.587248
 11
160.241970
 21
101.126387
  0
LINE
  8
CSLAYER1
  6
CONTINUOUS
 62
     6
 10
163.080380
 20
99.058363
 11
161.225628
 21
101.683806
  0
LINE
  8
CSLAYER1
  6
CONTINUOUS
 62
     6
 10
163.762448
 20
99.529478
 11
162.078137
 21
102.536314
  0
LINE
  8
CSLAYER1
  6
CONTINUOUS
 62
     6
 10
164.444546
 20
100.000593
 11
163.225750
 21
102.929777
  0
LINE
  8
CSLAYER1
  6
CONTINUOUS
 62
     6
 10
159.586178
 20
100.864088
 11
158.766476
 21
101.421492
  0
LINE
  8
CSLAYER1
  6
CONTINUOUS
 62
     6
 10
159.914074
 20
100.896864
 11
158.930416
 21
101.782164
  0
LINE
  8
CSLAYER1
  6
CONTINUOUS
 62
     6
 10
160.537060
 20
101.421492
 11
159.618984
 21
102.208418
  0
LINE
  8
CSLAYER1
  6
CONTINUOUS
 62
     6
 10
160.832165
 20
101.618223
 11
160.110806
 21
102.437941
  0
LINE
  8
CSLAYER1
  6
CONTINUOUS
 62
     6
 10
161.848614
 20
102.077269
 11
161.028897
 21
103.028151
  0
LINE
  8
CSLAYER1
  6
CONTINUOUS
 62
     6
 10
162.635556
 20
102.831404
 11
162.307659
 21
103.782301
  0
LINE
  8
CSLAYER1
  6
CONTINUOUS
 62
     6
 10
160.209179
 20
74.156859
 11
160.209179
 21
75.656859
  0
LINE
  8
CSLAYER1
  6
CONTINUOUS
 62
     6
 10
170.711437
 20
74.156859
 11
170.711437
 21
75.656859
  0
POLYLINE
  8
CSLAYER1
  6
CONTINUOUS
 62
     6
 66
     1
 10
0.0
 20
0.0
 30
0.0
  0
VERTEX
  8
CSLAYER1
  6
CONTINUOUS
 62
     6
 10
162.960308
 20
79.174227
 30
0.0
  0
VERTEX
  8
CSLAYER1
  6
CONTINUOUS
 62
     6
 10
162.567463
 20
78.994832
 30
0.0
  0
VERTEX
  8
CSLAYER1
  6
CONTINUOUS
 62
     6
 10
162.196634
 20
78.790032
 30
0.0
  0
VERTEX
  8
CSLAYER1
  6
CONTINUOUS
 62
     6
 10
161.850644
 20
78.561387
 30
0.0
  0
VERTEX
  8
CSLAYER1
  6
CONTINUOUS
 62
     6
 10
161.532125
 20
78.310637
 30
0.0
  0
VERTEX
  8
CSLAYER1
  6
CONTINUOUS
 62
     6
 10
161.243502
 20
78.039690
 30
0.0
  0
VERTEX
  8
CSLAYER1
  6
CONTINUOUS
 62
     6
 10
160.986972
 20
77.750608
 30
0.0
  0
VERTEX
  8
CSLAYER1
  6
CONTINUOUS
 62
     6
 10
160.764486
 20
77.445592
 30
0.0
  0
VERTEX
  8
CSLAYER1
  6
CONTINUOUS
 62
     6
 10
160.577738
 20
77.126962
 30
0.0
  0
VERTEX
  8
CSLAYER1
  6
CONTINUOUS
 62
     6
 10
160.428150
 20
76.797144
 30
0.0
  0
VERTEX
  8
CSLAYER1
  6
CONTINUOUS
 62
     6
 10
160.316860
 20
76.458647
 30
0.0
  0
VERTEX
  8
CSLAYER1
  6
CONTINUOUS
 62
     6
 10
160.244714
 20
76.114049
 30
0.0
  0
VERTEX
  8
CSLAYER1
  6
CONTINUOUS
 62
     6
 10
160.212262
 20
75.765971
 30
0.0
  0
VERTEX
  8
CSLAYER1
  6
CONTINUOUS
 62
     6
 10
160.219751
 20
75.417062
 30
0.0
  0
VERTEX
  8
CSLAYER1
  6
CONTINUOUS
 62
     6
 10
160.267123
 20
75.069979
 30
0.0
  0
VERTEX
  8
CSLAYER1
  6
CONTINUOUS
 62
     6
 10
160.354019
 20
74.727362
 30
0.0
  0
VERTEX
  8
CSLAYER1
  6
CONTINUOUS
 62
     6
 10
160.479777
 20
74.391819
 30
0.0
  0
VERTEX
  8
CSLAYER1
  6
CONTINUOUS
 62
     6
 10
160.643440
 20
74.065904
 30
0.0
  0
VERTEX
  8
CSLAYER1
  6
CONTINUOUS
 62
     6
 10
160.843762
 20
73.752097
 30
0.0
  0
VERTEX
  8
CSLAYER1
  6
CONTINUOUS
 62
     6
 10
161.079219
 20
73.452786
 30
0.0
  0
VERTEX
  8
CSLAYER1
  6
CONTINUOUS
 62
     6
 10
161.348018
 20
73.170250
 30
0.0
  0
VERTEX
  8
CSLAYER1
  6
CONTINUOUS
 62
     6
 10
161.648115
 20
72.906638
 30
0.0
  0
VERTEX
  8
CSLAYER1
  6
CONTINUOUS
 62
     6
 10
161.977224
 20
72.663957
 30
0.0
  0
VERTEX
  8
CSLAYER1
  6
CONTINUOUS
 62
     6
 10
162.332842
 20
72.444054
 30
0.0
  0
VERTEX
  8
CSLAYER1
  6
CONTINUOUS
 62
     6
 10
162.712262
 20
72.248602
 30
0.0
  0
VERTEX
  8
CSLAYER1
  6
CONTINUOUS
 62
     6
 10
163.112596
 20
72.079089
 30
0.0
  0
VERTEX
  8
CSLAYER1
  6
CONTINUOUS
 62
     6
 10
163.530798
 20
71.936805
 30
0.0
  0
VERTEX
  8
CSLAYER1
  6
CONTINUOUS
 62
     6
 10
163.963684
 20
71.822833
 30
0.0
  0
VERTEX
  8
CSLAYER1
  6
CONTINUOUS
 62
     6
 10
164.407961
 20
71.738041
 30
0.0
  0
VERTEX
  8
CSLAYER1
  6
CONTINUOUS
 62
     6
 10
164.860246
 20
71.683072
 30
0.0
  0
VERTEX
  8
CSLAYER1
  6
CONTINUOUS
 62
     6
 10
165.317099
 20
71.658347
 30
0.0
  0
VERTEX
  8
CSLAYER1
  6
CONTINUOUS
 62
     6
 10
165.775041
 20
71.664053
 30
0.0
  0
VERTEX
  8
CSLAYER1
  6
CONTINUOUS
 62
     6
 10
166.230588
 20
71.700146
 30
0.0
  0
VERTEX
  8
CSLAYER1
  6
CONTINUOUS
 62
     6
 10
166.680273
 20
71.766353
 30
0.0
  0
VERTEX
  8
CSLAYER1
  6
CONTINUOUS
 62
     6
 10
167.120673
 20
71.862168
 30
0.0
  0
VERTEX
  8
CSLAYER1
  6
CONTINUOUS
 62
     6
 10
167.548437
 20
71.986864
 30
0.0
  0
VERTEX
  8
CSLAYER1
  6
CONTINUOUS
 62
     6
 10
167.960308
 20
72.139490
 30
0.0
  0
VERTEX
  8
CSLAYER1
  6
CONTINUOUS
 62
     6
 10
168.353154
 20
72.318886
 30
0.0
  0
VERTEX
  8
CSLAYER1
  6
CONTINUOUS
 62
     6
 10
168.723983
 20
72.523685
 30
0.0
  0
VERTEX
  8
CSLAYER1
  6
CONTINUOUS
 62
     6
 10
169.069973
 20
72.752330
 30
0.0
  0
VERTEX
  8
CSLAYER1
  6
CONTINUOUS
 62
     6
 10
169.388492
 20
73.003080
 30
0.0
  0
VERTEX
  8
CSLAYER1
  6
CONTINUOUS
 62
     6
 10
169.677115
 20
73.274027
 30
0.0
  0
VERTEX
  8
CSLAYER1
  6
CONTINUOUS
 62
     6
 10
169.933645
 20
73.563109
 30
0.0
  0
VERTEX
  8
CSLAYER1
  6
CONTINUOUS
 62
     6
 10
170.156131
 20
73.868125
 30
0.0
  0
VERTEX
  8
CSLAYER1
  6
CONTINUOUS
 62
     6
 10
170.342878
 20
74.186755
 30
0.0
  0
VERTEX
  8
CSLAYER1
  6
CONTINUOUS
 62
     6
 10
170.492467
 20
74.516573
 30
0.0
  0
VERTEX
  8
CSLAYER1
  6
CONTINUOUS
 62
     6
 10
170.603757
 20
74.855070
 30
0.0
  0
VERTEX
  8
CSLAYER1
  6
CONTINUOUS
 62
     6
 10
170.675903
 20
75.199668
 30
0.0
  0
VERTEX
  8
CSLAYER1
  6
CONTINUOUS
 62
     6
 10
170.708355
 20
75.547746
 30
0.0
  0
VERTEX
  8
CSLAYER1
  6
CONTINUOUS
 62
     6
 10
170.700866
 20
75.896655
 30
0.0
  0
VERTEX
  8
CSLAYER1
  6
CONTINUOUS
 62
     6
 10
170.653493
 20
76.243738
 30
0.0
  0
VERTEX
  8
CSLAYER1
  6
CONTINUOUS
 62
     6
 10
170.566597
 20
76.586355
 30
0.0
  0
VERTEX
  8
CSLAYER1
  6
CONTINUOUS
 62
     6
 10
170.440839
 20
76.921898
 30
0.0
  0
VERTEX
  8
CSLAYER1
  6
CONTINUOUS
 62
     6
 10
170.277177
 20
77.247813
 30
0.0
  0
VERTEX
  8
CSLAYER1
  6
CONTINUOUS
 62
     6
 10
170.076855
 20
77.561621
 30
0.0
  0
VERTEX
  8
CSLAYER1
  6
CONTINUOUS
 62
     6
 10
169.841398
 20
77.860931
 30
0.0
  0
VERTEX
  8
CSLAYER1
  6
CONTINUOUS
 62
     6
 10
169.572599
 20
78.143468
 30
0.0
  0
VERTEX
  8
CSLAYER1
  6
CONTINUOUS
 62
     6
 10
169.272502
 20
78.407079
 30
0.0
  0
VERTEX
  8
CSLAYER1
  6
CONTINUOUS
 62
     6
 10
168.943392
 20
78.649760
 30
0.0
  0
VERTEX
  8
CSLAYER1
  6
CONTINUOUS
 62
     6
 10
168.587775
 20
78.869663
 30
0.0
  0
VERTEX
  8
CSLAYER1
  6
CONTINUOUS
 62
     6
 10
168.208355
 20
79.065115
 30
0.0
  0
VERTEX
  8
CSLAYER1
  6
CONTINUOUS
 62
     6
 10
167.960308
 20
79.174227
 30
0.0
  0
SEQEND
  0
POLYLINE
  8
CSLAYER1
  6
CONTINUOUS
 62
     6
 66
     1
 10
0.0
 20
0.0
 30
0.0
  0
VERTEX
  8
CSLAYER1
  6
CONTINUOUS
 62
     6
 10
160.210308
 20
74.156859
 30
0.0
  0
VERTEX
  8
CSLAYER1
  6
CONTINUOUS
 62
     6
 10
160.230286
 20
73.808236
 30
0.0
  0
VERTEX
  8
CSLAYER1
  6
CONTINUOUS
 62
     6
 10
160.290068
 20
73.462266
 30
0.0
  0
VERTEX
  8
CSLAYER1
  6
CONTINUOUS
 62
     6
 10
160.389198
 20
73.121582
 30
0.0
  0
VERTEX
  8
CSLAYER1
  6
CONTINUOUS
 62
     6
 10
160.526922
 20
72.788778
 30
0.0
  0
VERTEX
  8
CSLAYER1
  6
CONTINUOUS
 62
     6
 10
160.702192
 20
72.466386
 30
0.0
  0
VERTEX
  8
CSLAYER1
  6
CONTINUOUS
 62
     6
 10
160.913675
 20
72.156859
 30
0.0
  0
VERTEX
  8
CSLAYER1
  6
CONTINUOUS
 62
     6
 10
161.159760
 20
71.862553
 30
0.0
  0
VERTEX
  8
CSLAYER1
  6
CONTINUOUS
 62
     6
 10
161.438575
 20
71.585708
 30
0.0
  0
VERTEX
  8
CSLAYER1
  6
CONTINUOUS
 62
     6
 10
161.747998
 20
71.328431
 30
0.0
  0
VERTEX
  8
CSLAYER1
  6
CONTINUOUS
 62
     6
 10
162.085673
 20
71.092681
 30
0.0
  0
VERTEX
  8
CSLAYER1
  6
CONTINUOUS
 62
     6
 10
162.449032
 20
70.880250
 30
0.0
  0
VERTEX
  8
CSLAYER1
  6
CONTINUOUS
 62
     6
 10
162.835308
 20
70.692757
 30
0.0
  0
VERTEX
  8
CSLAYER1
  6
CONTINUOUS
 62
     6
 10
163.241562
 20
70.531627
 30
0.0
  0
VERTEX
  8
CSLAYER1
  6
CONTINUOUS
 62
     6
 10
163.664703
 20
70.398088
 30
0.0
  0
VERTEX
  8
CSLAYER1
  6
CONTINUOUS
 62
     6
 10
164.101508
 20
70.293155
 30
0.0
  0
VERTEX
  8
CSLAYER1
  6
CONTINUOUS
 62
     6
 10
164.548655
 20
70.217628
 30
0.0
  0
VERTEX
  8
CSLAYER1
  6
CONTINUOUS
 62
     6
 10
165.002741
 20
70.172080
 30
0.0
  0
VERTEX
  8
CSLAYER1
  6
CONTINUOUS
 62
     6
 10
165.460308
 20
70.156859
 30
0.0
  0
VERTEX
  8
CSLAYER1
  6
CONTINUOUS
 62
     6
 10
165.917876
 20
70.172080
 30
0.0
  0
VERTEX
  8
CSLAYER1
  6
CONTINUOUS
 62
     6
 10
166.371961
 20
70.217628
 30
0.0
  0
VERTEX
  8
CSLAYER1
  6
CONTINUOUS
 62
     6
 10
166.819108
 20
70.293155
 30
0.0
  0
VERTEX
  8
CSLAYER1
  6
CONTINUOUS
 62
     6
 10
167.255914
 20
70.398088
 30
0.0
  0
VERTEX
  8
CSLAYER1
  6
CONTINUOUS
 62
     6
 10
167.679054
 20
70.531627
 30
0.0
  0
VERTEX
  8
CSLAYER1
  6
CONTINUOUS
 62
     6
 10
168.085308
 20
70.692757
 30
0.0
  0
VERTEX
  8
CSLAYER1
  6
CONTINUOUS
 62
     6
 10
168.471585
 20
70.880250
 30
0.0
  0
VERTEX
  8
CSLAYER1
  6
CONTINUOUS
 62
     6
 10
168.834943
 20
71.092681
 30
0.0
  0
VERTEX
  8
CSLAYER1
  6
CONTINUOUS
 62
     6
 10
169.172619
 20
71.328431
 30
0.0
  0
VERTEX
  8
CSLAYER1
  6
CONTINUOUS
 62
     6
 10
169.482042
 20
71.585708
 30
0.0
  0
VERTEX
  8
CSLAYER1
  6
CONTINUOUS
 62
     6
 10
169.760857
 20
71.862553
 30
0.0
  0
VERTEX
  8
CSLAYER1
  6
CONTINUOUS
 62
     6
 10
170.006942
 20
72.156859
 30
0.0
  0
VERTEX
  8
CSLAYER1
  6
CONTINUOUS
 62
     6
 10
170.218424
 20
72.466386
 30
0.0
  0
VERTEX
  8
CSLAYER1
  6
CONTINUOUS
 62
     6
 10
170.393695
 20
72.788778
 30
0.0
  0
VERTEX
  8
CSLAYER1
  6
CONTINUOUS
 62
     6
 10
170.531419
 20
73.121582
 30
0.0
  0
VERTEX
  8
CSLAYER1
  6
CONTINUOUS
 62
     6
 10
170.630549
 20
73.462266
 30
0.0
  0
VERTEX
  8
CSLAYER1
  6
CONTINUOUS
 62
     6
 10
170.690330
 20
73.808236
 30
0.0
  0
VERTEX
  8
CSLAYER1
  6
CONTINUOUS
 62
     6
 10
170.710308
 20
74.156859
 30
0.0
  0
SEQEND
  0
LINE
  8
CSLAYER1
  6
CENTER
 62
     3
 10
143.460324
 20
245.881197
 11
293.960308
 21
245.881197
  0
LINE
  8
CSLAYER1
  6
CONTINUOUS
 62
     6
 10
290.960308
 20
249.881201
 11
266.460308
 21
249.881201
  0
LINE
  8
CSLAYER1
  6
CONTINUOUS
 62
     6
 10
290.960308
 20
241.881201
 11
266.460324
 21
241.881201
  0
LINE
  8
CSLAYER1
  6
CONTINUOUS
 62
     6
 10
254.460308
 20
276.881201
 11
254.460308
 21
214.881201
  0
LINE
  8
CSLAYER1
  6
CONTINUOUS
 62
     6
 10
202.460308
 20
276.881201
 11
202.460308
 21
214.881201
  0
LINE
  8
CSLAYER1
  6
CONTINUOUS
 62
     6
 10
254.460308
 20
276.881201
 11
202.460308
 21
276.881201
  0
LINE
  8
CSLAYER1
  6
CONTINUOUS
 62
     6
 10
254.460308
 20
214.881201
 11
202.460308
 21
214.881201
  0
LINE
  8
CSLAYER1
  6
CONTINUOUS
 62
     6
 10
255.460308
 20
215.881201
 11
254.460308
 21
215.881201
  0
LINE
  8
CSLAYER1
  6
CONTINUOUS
 62
     6
 10
266.460308
 20
230.881201
 11
266.460308
 21
260.881201
  0
LINE
  8
CSLAYER1
  6
CONTINUOUS
 62
     6
 10
255.460308
 20
275.881201
 11
254.460308
 21
275.881201
  0
ARC
  8
CSLAYER1
  6
CONTINUOUS
 62
     6
 10
257.460308
 20
275.881201
 40
2.000000
 50
90.000003
 51
179.999991
  0
LINE
  8
CSLAYER1
  6
CONTINUOUS
 62
     6
 10
264.460308
 20
213.881171
 11
264.460308
 21
277.881201
  0
LINE
  8
CSLAYER1
  6
CONTINUOUS
 62
     6
 10
266.460308
 20
260.881201
 11
264.460308
 21
260.881201
  0
LINE
  8
CSLAYER1
  6
CONTINUOUS
 62
     6
 10
264.460308
 20
277.881201
 11
257.460308
 21
277.881201
  0
LINE
  8
CSLAYER1
  6
CONTINUOUS
 62
     6
 10
266.460308
 20
230.881201
 11
264.460308
 21
230.881201
  0
ARC
  8
CSLAYER1
  6
CONTINUOUS
 62
     6
 10
257.460308
 20
215.881171
 40
2.000000
 50
180.000005
 51
269.999973
  0
LINE
  8
CSLAYER1
  6
CONTINUOUS
 62
     6
 10
264.460308
 20
213.881171
 11
257.460308
 21
213.881171
  0
LINE
  8
CSLAYER1
  6
CONTINUOUS
 62
     6
 10
255.460308
 20
275.881201
 11
255.460308
 21
215.881171
  0
LINE
  8
CSLAYER1
  6
CENTER
 62
     3
 10
252.460308
 20
219.881186
 11
266.460308
 21
219.881186
  0
LINE
  8
CSLAYER1
  6
CENTER
 62
     3
 10
252.460315
 20
271.881196
 11
266.460315
 21
271.881193
  0
LINE
  8
CSLAYER1
  6
CONTINUOUS
 62
     6
 10
255.460293
 20
275.881217
 11
254.460293
 21
275.881217
  0
LINE
  8
CSLAYER1
  6
CONTINUOUS
 62
     6
 10
172.460164
 20
275.357528
 11
202.460324
 21
275.881182
  0
LINE
  8
CSLAYER1
  6
CONTINUOUS
 62
     6
 10
172.460178
 20
216.404866
 11
202.460324
 21
215.881212
  0
LINE
  8
CSLAYER1
  6
CONTINUOUS
 62
     6
 10
171.460308
 20
217.422341
 11
171.460308
 21
274.259173
  0
LINE
  8
CSLAYER1
  6
CONTINUOUS
 62
     3
 10
210.827694
 20
219.034416
 11
246.827694
 21
219.034416
  0
ARC
  8
CSLAYER1
  6
CONTINUOUS
 62
     3
 10
210.827694
 20
220.034416
 40
1.000000
 50
180.000005
 51
270.000001
  0
ARC
  8
CSLAYER1
  6
CONTINUOUS
 62
     3
 10
246.827694
 20
220.034416
 40
1.000000
 50
270.000001
 51
359.942691
  0
LINE
  8
CSLAYER1
  6
CONTINUOUS
 62
     3
 10
209.827694
 20
271.727984
 11
209.827694
 21
220.034416
  0
LINE
  8
CSLAYER1
  6
CONTINUOUS
 62
     3
 10
247.827694
 20
271.727984
 11
247.827694
 21
220.034416
  0
TEXT
  8
CSLAYER1
 62
     3
 10
227.606598
 20
251.379578
 40
3.500000
 41
1.125000
  1
N P
 50
-90.000000
 51
10.000000
  7
JX_FONT
 72
     5
 11
227.606598
 21
240.879578
  0
LINE
  8
CSLAYER1
  6
CONTINUOUS
 62
     3
 10
210.827694
 20
272.727984
 11
246.827694
 21
272.727984
  0
ARC
  8
CSLAYER1
  6
CONTINUOUS
 62
     3
 10
210.827694
 20
271.727984
 40
1.000000
 50
90.000009
 51
180.000005
  0
ARC
  8
CSLAYER1
  6
CONTINUOUS
 62
     3
 10
246.827694
 20
271.727984
 40
1.000000
 50
0.057319
 51
90.000009
  0
LINE
  8
CSLAYER1
  6
CONTINUOUS
 62
     6
 10
290.960308
 20
241.881201
 11
290.960308
 21
249.881201
  0
LINE
  8
CSLAYER1
  6
CONTINUOUS
 62
     6
 10
171.460317
 20
273.381197
 11
148.460311
 21
273.381222
  0
LINE
  8
CSLAYER1
  6
CONTINUOUS
 62
     6
 10
171.460330
 20
218.381197
 11
148.460311
 21
218.381166
  0
LINE
  8
CSLAYER1
  6
CONTINUOUS
 62
     6
 10
171.460331
 20
217.422318
 11
171.460317
 21
274.340076
  0
LINE
  8
CSLAYER1
  6
CONTINUOUS
 62
     6
 10
162.960324
 20
218.381186
 11
162.960324
 21
213.043010
  0
LINE
  8
CSLAYER1
  6
CONTINUOUS
 62
     6
 10
167.960324
 20
218.381192
 11
167.960324
 21
213.043010
  0
ARC
  8
CSLAYER1
  6
CONTINUOUS
 62
     6
 10
151.692135
 20
209.279399
 40
11.353822
 50
-34.633120
 51
7.041553
  0
ARC
  8
CSLAYER1
  6
CONTINUOUS
 62
     6
 10
151.692135
 20
209.279399
 40
16.327621
 50
-34.633093
 51
4.890180
  0
LINE
  8
CSLAYER1
  6
CONTINUOUS
 62
     6
 10
161.034161
 20
202.826808
 11
165.126644
 21
200.000102
  0
ARC
  8
CSLAYER1
  6
CONTINUOUS
 62
     6
 10
164.210324
 20
215.208079
 40
2.500000
 50
240.000007
 51
299.999995
  0
ARC
  8
CSLAYER1
  6
CONTINUOUS
 62
     6
 10
166.710324
 20
215.208079
 40
2.500000
 50
240.000007
 51
299.999995
  0
ARC
  8
CSLAYER1
  6
CONTINUOUS
 62
     6
 10
166.710324
 20
210.877940
 40
2.500000
 50
60.000002
 51
120.000003
  0
ARC
  8
CSLAYER1
  6
CONTINUOUS
 62
     6
 10
166.710324
 20
208.506190
 40
2.500000
 50
59.999995
 51
119.999990
  0
ARC
  8
CSLAYER1
  6
CONTINUOUS
 62
     6
 10
164.210324
 20
208.506190
 40
2.500000
 50
59.999995
 51
119.999990
  0
ARC
  8
CSLAYER1
  6
CONTINUOUS
 62
     6
 10
164.210324
 20
212.836329
 40
2.500000
 50
240.000007
 51
299.999995
  0
LINE
  8
CSLAYER1
  6
CONTINUOUS
 62
     6
 10
161.716229
 20
202.355678
 11
159.356671
 21
200.066768
  0
LINE
  8
CSLAYER1
  6
CONTINUOUS
 62
     6
 10
162.398297
 20
201.884562
 11
160.241986
 21
199.345424
  0
LINE
  8
CSLAYER1
  6
CONTINUOUS
 62
     6
 10
163.080395
 20
201.413447
 11
161.225643
 21
198.788005
  0
LINE
  8
CSLAYER1
  6
CONTINUOUS
 62
     6
 10
163.762463
 20
200.942332
 11
162.078152
 21
197.935496
  0
LINE
  8
CSLAYER1
  6
CONTINUOUS
 62
     6
 10
164.444561
 20
200.471217
 11
163.225765
 21
197.542033
  0
LINE
  8
CSLAYER1
  6
CONTINUOUS
 62
     6
 10
159.586193
 20
199.607722
 11
158.766491
 21
199.050319
  0
LINE
  8
CSLAYER1
  6
CONTINUOUS
 62
     6
 10
159.914089
 20
199.574946
 11
158.930432
 21
198.689647
  0
LINE
  8
CSLAYER1
  6
CONTINUOUS
 62
     6
 10
160.537075
 20
199.050319
 11
159.619000
 21
198.263392
  0
LINE
  8
CSLAYER1
  6
CONTINUOUS
 62
     6
 10
160.832180
 20
198.853587
 11
160.110821
 21
198.033870
  0
LINE
  8
CSLAYER1
  6
CONTINUOUS
 62
     6
 10
161.848629
 20
198.394542
 11
161.028912
 21
197.443660
  0
LINE
  8
CSLAYER1
  6
CONTINUOUS
 62
     6
 10
162.635571
 20
197.640407
 11
162.307675
 21
196.689509
  0
ARC
  8
CSLAYER1
  6
CONTINUOUS
 62
     6
 10
112.204280
 20
110.873334
 40
11.353822
 50
5.366880
 51
47.041553
  0
ARC
  8
CSLAYER1
  6
CONTINUOUS
 62
     6
 10
112.204280
 20
110.873334
 40
16.327621
 50
5.366907
 51
44.890180
  0
LINE
  8
CSLAYER1
  6
CONTINUOUS
 62
     6
 10
123.508333
 20
111.935301
 11
128.460329
 21
112.400517
  0
LINE
  8
CSLAYER1
  6
CONTINUOUS
 62
     6
 10
124.333664
 20
112.012819
 11
123.997421
 21
108.742718
  0
LINE
  8
CSLAYER1
  6
CONTINUOUS
 62
     6
 10
125.158985
 20
112.090349
 11
125.139282
 21
108.759206
  0
LINE
  8
CSLAYER1
  6
CONTINUOUS
 62
     6
 10
125.984330
 20
112.167898
 11
126.251110
 21
108.964481
  0
LINE
  8
CSLAYER1
  6
CONTINUOUS
 62
     6
 10
126.809651
 20
112.245428
 11
127.452151
 21
108.859404
  0
LINE
  8
CSLAYER1
  6
CONTINUOUS
 62
     6
 10
127.634996
 20
112.322977
 11
128.584187
 21
109.295665
  0
LINE
  8
CSLAYER1
  6
CONTINUOUS
 62
     6
 10
124.468314
 20
108.538603
 11
124.198678
 21
107.584713
  0
LINE
  8
CSLAYER1
  6
CONTINUOUS
 62
     6
 10
124.740565
 20
108.724263
 11
124.556099
 21
107.413801
  0
LINE
  8
CSLAYER1
  6
CONTINUOUS
 62
     6
 10
125.555024
 20
108.722822
 11
125.357564
 21
107.529874
  0
LINE
  8
CSLAYER1
  6
CONTINUOUS
 62
     6
 10
125.907544
 20
108.761807
 11
125.881855
 21
107.670186
  0
LINE
  8
CSLAYER1
  6
CONTINUOUS
 62
     6
 10
126.981258
 20
109.063519
 11
126.964533
 21
107.808196
  0
LINE
  8
CSLAYER1
  6
CONTINUOUS
 62
     6
 10
128.068839
 20
108.991654
 11
128.428881
 21
108.052457
  0
LINE
  8
CSLAYER1
  6
CENTER
 62
     3
 10
105.894890
 20
139.812056
 11
124.276549
 21
117.905647
  0
LINE
  8
CSLAYER1
  6
CENTER
 62
     3
 10
165.460308
 20
206.485691
 11
165.460308
 21
221.900896
  0
ARC
  8
CSLAYER1
  6
CONTINUOUS
 62
     6
 10
74.135146
 20
120.445533
 40
15.758816
 50
332.536202
 51
359.942691
  0
ARC
  8
CSLAYER1
  6
CONTINUOUS
 62
     6
 10
74.135146
 20
120.445533
 40
13.558834
 50
332.536202
 51
359.877558
  0
ARC
  8
CSLAYER1
  6
CONTINUOUS
 62
     6
 10
89.343978
 20
119.492942
 40
1.099999
 50
60.000350
 51
120.000345
  0
ARC
  8
CSLAYER1
  6
CONTINUOUS
 62
     6
 10
88.243980
 20
119.492927
 40
1.099999
 50
60.000350
 51
120.000345
  0
ARC
  8
CSLAYER1
  6
CONTINUOUS
 62
     6
 10
88.243972
 20
121.398185
 40
1.099999
 50
240.000362
 51
300.000350
  0
LINE
  8
CSLAYER1
  6
CONTINUOUS
 62
     6
 10
86.823547
 20
113.850577
 11
85.206390
 21
110.912513
  0
LINE
  8
CSLAYER1
  6
CONTINUOUS
 62
     6
 10
87.312469
 20
113.596442
 11
85.735687
 21
110.589026
  0
LINE
  8
CSLAYER1
  6
CONTINUOUS
 62
     6
 10
87.710601
 20
113.389487
 11
86.309112
 21
110.309684
  0
LINE
  8
CSLAYER1
  6
CONTINUOUS
 62
     6
 10
86.165923
 20
114.192374
 11
88.117980
 21
113.177756
  0
ARC
  8
CSLAYER1
  6
CONTINUOUS
 62
     6
 10
88.244003
 20
124.310401
 40
1.100006
 50
240.000007
 51
299.999995
  0
ARC
  8
CSLAYER1
  6
CONTINUOUS
 62
     6
 10
89.344009
 20
124.310401
 40
1.100006
 50
240.000007
 51
299.999995
  0
ARC
  8
CSLAYER1
  6
CONTINUOUS
 62
     6
 10
89.344009
 20
122.405128
 40
1.100006
 50
60.000002
 51
120.000003
  0
LINE
  8
CSLAYER1
  6
CONTINUOUS
 62
     6
 10
89.894010
 20
128.881126
 11
89.893996
 21
123.357764
  0
LINE
  8
CSLAYER1
  6
CONTINUOUS
 62
     6
 10
87.694013
 20
128.918419
 11
87.694000
 21
123.357764
  0
ARC
  8
CSLAYER1
  6
CONTINUOUS
 62
     6
 10
105.652847
 20
120.445533
 40
15.758816
 50
180.057309
 51
207.463798
  0
ARC
  8
CSLAYER1
  6
CONTINUOUS
 62
     6
 10
105.652847
 20
120.445533
 40
13.558834
 50
180.122442
 51
207.463798
  0
ARC
  8
CSLAYER1
  6
CONTINUOUS
 62
     6
 10
90.444015
 20
119.492942
 40
1.099999
 50
59.999655
 51
119.999650
  0
ARC
  8
CSLAYER1
  6
CONTINUOUS
 62
     6
 10
91.544013
 20
119.492927
 40
1.099999
 50
59.999655
 51
119.999650
  0
ARC
  8
CSLAYER1
  6
CONTINUOUS
 62
     6
 10
91.544021
 20
121.398185
 40
1.099999
 50
239.999650
 51
299.999638
  0
LINE
  8
CSLAYER1
  6
CONTINUOUS
 62
     6
 10
92.964446
 20
113.850577
 11
94.581603
 21
110.912513
  0
LINE
  8
CSLAYER1
  6
CONTINUOUS
 62
     6
 10
92.475524
 20
113.596442
 11
94.052306
 21
110.589026
  0
LINE
  8
CSLAYER1
  6
CONTINUOUS
 62
     6
 10
92.077392
 20
113.389487
 11
93.478881
 21
110.309684
  0
LINE
  8
CSLAYER1
  6
CONTINUOUS
 62
     6
 10
93.622070
 20
114.192374
 11
91.670013
 21
113.177756
  0
ARC
  8
CSLAYER1
  6
CONTINUOUS
 62
     6
 10
91.543990
 20
124.310401
 40
1.100006
 50
240.000005
 51
299.999993
  0
ARC
  8
CSLAYER1
  6
CONTINUOUS
 62
     6
 10
90.443984
 20
124.310401
 40
1.100006
 50
240.000005
 51
299.999993
  0
ARC
  8
CSLAYER1
  6
CONTINUOUS
 62
     6
 10
90.443984
 20
122.405128
 40
1.100006
 50
59.999997
 51
119.999998
  0
LINE
  8
CSLAYER1
  6
CONTINUOUS
 62
     6
 10
92.094007
 20
128.918419
 11
92.093993
 21
123.357764
  0
LINE
  8
CSLAYER1
  6
CONTINUOUS
 62
     6
 10
121.354814
 20
125.276959
 11
123.771787
 21
122.396529
  0
LINE
  8
CSLAYER1
  6
CONTINUOUS
 62
     6
 10
120.069238
 20
126.809047
 11
110.444877
 21
138.278890
  0
LINE
  8
CSLAYER1
  6
CONTINUOUS
 62
     6
 10
119.941575
 20
119.182578
 11
117.524595
 21
122.063017
  0
LINE
  8
CSLAYER1
  6
CONTINUOUS
 62
     6
 10
116.239019
 20
123.595105
 11
106.624961
 21
135.052669
  0
ARC
  8
CSLAYER1
  6
CONTINUOUS
 62
     6
 10
117.767578
 20
123.718095
 40
1.672819
 50
261.648061
 51
358.352053
  0
ARC
  8
CSLAYER1
  6
CONTINUOUS
 62
     6
 10
119.196722
 20
122.014910
 40
1.672819
 50
81.648061
 51
178.352053
  0
ARC
  8
CSLAYER1
  6
CONTINUOUS
 62
     6
 10
121.111832
 20
123.621881
 40
1.672819
 50
81.648061
 51
178.352053
  0
ARC
  8
CSLAYER1
  6
CONTINUOUS
 62
     6
 10
116.482001
 20
125.250183
 40
1.672819
 50
261.648061
 51
358.352053
  0
ARC
  8
CSLAYER1
  6
CONTINUOUS
 62
     6
 10
118.397110
 20
126.857154
 40
1.672819
 50
261.648061
 51
358.352053
  0
ARC
  8
CSLAYER1
  6
CONTINUOUS
 62
     6
 10
119.826255
 20
125.153969
 40
1.672819
 50
81.648061
 51
178.352053
  0
LINE
  8
CSLAYER1
  6
CONTINUOUS
 62
     6
 10
172.460164
 20
275.357528
 11
171.460317
 21
274.340076
  0
LINE
  8
CSLAYER1
  6
CONTINUOUS
 62
     6
 10
171.460331
 20
217.422318
 11
172.460178
 21
216.404866
  0
LINE
  8
CSLAYER1
  6
CONTINUOUS
 62
     6
 10
172.460178
 20
216.404866
 11
172.460164
 21
275.357528
  0
LINE
  8
CSLAYER1
  6
CONTINUOUS
 62
     6
 10
146.460308
 20
220.381166
 11
146.460308
 21
271.381222
  0
ARC
  8
CSLAYER1
  6
CONTINUOUS
 62
     6
 10
148.460308
 20
271.381222
 40
2.000000
 50
89.999938
 51
180.000000
  0
ARC
  8
CSLAYER1
  6
CONTINUOUS
 62
     6
 10
148.460308
 20
220.381166
 40
2.000000
 50
180.000000
 51
270.000076
  0
LINE
  8
CSLAYER1
  6
CONTINUOUS
 62
     6
 10
171.460308
 20
187.340029
 11
171.460308
 21
130.422304
  0
LINE
  8
CSLAYER1
  6
CONTINUOUS
 62
     6
 10
171.460308
 20
187.340029
 11
172.460156
 21
188.357483
  0
LINE
  8
CSLAYER1
  6
CONTINUOUS
 62
     6
 10
172.460156
 20
129.404850
 11
171.460308
 21
130.422304
  0
LINE
  8
CSLAYER1
  6
CONTINUOUS
 62
     6
 10
172.460156
 20
188.357483
 11
172.460156
 21
129.404850
  0
LINE
  8
CSLAYER1
  6
CONTINUOUS
 62
     6
 10
146.460308
 20
184.381201
 11
146.460308
 21
133.381170
  0
ARC
  8
CSLAYER1
  6
CONTINUOUS
 62
     6
 10
148.460308
 20
184.381201
 40
2.000000
 50
89.999924
 51
180.000000
  0
ARC
  8
CSLAYER1
  6
CONTINUOUS
 62
     6
 10
148.460308
 20
133.381170
 40
2.000000
 50
180.000000
 51
270.000000
  0
LINE
  8
CSLAYER1
  6
CONTINUOUS
 62
     6
 10
167.960308
 20
131.381170
 11
171.460308
 21
131.381170
  0
LINE
  8
CSLAYER1
  6
CONTINUOUS
 62
     6
 10
171.460308
 20
83.049482
 11
171.460308
 21
26.131757
  0
LINE
  8
CSLAYER1
  6
CONTINUOUS
 62
     6
 10
146.460308
 20
80.090587
 11
146.460308
 21
29.090587
  0
LINE
  8
CSLAYER1
  6
CONTINUOUS
 62
     6
 10
172.460156
 20
84.066936
 11
171.460308
 21
83.049482
  0
LINE
  8
CSLAYER1
  6
CONTINUOUS
 62
     6
 10
172.460156
 20
25.114304
 11
171.460308
 21
26.131757
  0
LINE
  8
CSLAYER1
  6
CONTINUOUS
 62
     6
 10
172.460156
 20
25.114304
 11
172.460156
 21
84.066936
  0
LINE
  8
CSLAYER1
  6
CONTINUOUS
 62
     6
 10
167.960324
 20
82.090569
 11
171.460308
 21
82.090569
  0
ARC
  8
CSLAYER1
  6
CONTINUOUS
 62
     6
 10
148.460308
 20
80.090587
 40
2.000000
 50
89.999924
 51
180.000000
  0
ARC
  8
CSLAYER1
  6
CONTINUOUS
 62
     6
 10
148.460308
 20
29.090587
 40
2.000000
 50
180.000000
 51
270.000062
  0
LINE
  8
CSLAYER1
  6
CONTINUOUS
 62
     6
 10
162.635556
 20
110.640394
 11
162.307659
 21
109.689496
  0
ARC
  8
CSLAYER1
  6
CONTINUOUS
 62
     6
 10
89.894008
 20
158.881163
 40
31.000000
 50
274.069567
 51
305.374339
  0
ARC
  8
CSLAYER1
  6
CONTINUOUS
 62
     6
 10
89.894008
 20
158.881163
 40
31.000000
 50
-45.374360
 51
265.930432
  0
ENDSEC
  0
EOF
