  0
SECTION
  2
HEADER
  9
$ACADVER
  1
AC1006
  9
$INSBASE
 10
0.000000
 20
0.000000
 30
0.0
  9
$EXTMIN
 10
0.000000
 20
0.000000
  9
$EXTMAX
 10
420.000000
 20
297.000000
  9
$LIMMIN
 10
0.000000
 20
0.000000
  9
$LIMMAX
 10
420.000000
 20
297.000000
  9
$VIEWCTR
 10
210.000000
 20
148.500000
  9
$VIEWSIZE
 40
297.000000
  9
$SNAPMODE
 70
     0
  9
$SNAPUNIT
 10
1.0
 20
1.0
  9
$SNAPBASE
 10
0.0
 20
0.0
  9
$SNAPANG
 50
0.0
  9
$SNAPSTYLE
 70
     0
  9
$SNAPISOPAIR
 70
     0
  9
$GRIDMODE
 70
     0
  9
$GRIDUNIT
 10
0.0
 20
0.0
  9
$ORTHOMODE
 70
     0
  9
$REGENMODE
 70
     1
  9
$FILLMODE
 70
     1
  9
$QTEXTMODE
 70
     0
  9
$DRAGMODE
 70
     2
  9
$LTSCALE
 40
15.000000
  9
$OSMODE
 70
     0
  9
$ATTMODE
 70
     1
  9
$TEXTSIZE
 40
0.2
  9
$TRACEWID
 40
0.05
  9
$TEXTSTYLE
  7
STANDARD
  9
$CLAYER
  8
CSLAYER1
  9
$CELTYPE
  6
BYLAYER
  9
$CECOLOR
 62
   256
  9
$DIMSCALE
 40
1.0
  9
$DIMASZ
 40
0.18
  9
$DIMEXO
 40
0.0625
  9
$DIMDLI
 40
0.38
  9
$DIMRND
 40
0.0
  9
$DIMDLE
 40
0.0
  9
$DIMEXE
 40
0.18
  9
$DIMTP
 40
0.0
  9
$DIMTM
 40
0.0
  9
$DIMTXT
 40
0.18
  9
$DIMCEN
 40
0.09
  9
$DIMTSZ
 40
0.0
  9
$DIMTOL
 70
     0
  9
$DIMLIM
 70
     0
  9
$DIMTIH
 70
     1
  9
$DIMTOH
 70
     1
  9
$DIMSE1
 70
     0
  9
$DIMSE2
 70
     0
  9
$DIMTAD
 70
     0
  9
$DIMZIN
 70
     0
  9
$DIMBLK
  1

  9
$LUNITS
 70
     2
  9
$LUPREC
 70
     4
  9
$AXISMODE
 70
     0
  9
$AXISUNIT
 10
0.0
 20
0.0
  9
$SKETCHINC
 40
0.1
  9
$FILLETRAD
 40
0.0
  9
$AUNITS
 70
     0
  9
$AUPREC
 70
     0
  9
$MENU
  1
ACAD
  9
$ELEVATION
 40
0.0
  9
$THICKNESS
 40
0.0
  9
$VIEWDIR
 10
0.0
 20
0.0
 30
1.0
  9
$LIMCHECK
 70
     0
  9
$BLIPMODE
 70
     1
  9
$CHAMFERA
 40
0.0
  9
$CHAMFERB
 40
0.0
  9
$FASTZOOM
 70
     1
  9
$SKPOLY
 70
     0
  9
$TDCREATE
 40
0.000000
  9
$TDUPDATE
 40
0.000000
  9
$TDINDWG
 40
0.0
  9
$TDUSRTIMER
 40
0.0
  9
$USRTIMER
 70
     1
  9
$ANGBASE
 50
0.0
  9
$ANGDIR
 70
     0
  9
$PDMODE
 70
     0
  9
$PDSIZE
 40
0.0
  9
$PLINEWID
 40
0.0
  9
$COORDS
 70
     0
  9
$USERI1
 70
     0
  9
$USERI2
 70
     0
  9
$USERI3
 70
     0
  9
$USERI4
 70
     0
  9
$USERI5
 70
     0
  9
$USERR1
 40
0.0
  9
$USERR2
 40
0.0
  9
$USERR3
 40
0.0
  9
$USERR4
 40
0.0
  9
$USERR5
 40
0.0
  0
ENDSEC
  0
SECTION
  2
TABLES
  0
TABLE
  2
LTYPE
 70
     9
  0
LTYPE
  2
CONTINUOUS
 70
    64
  3
Solid line
 72
    65
 73
     0
 40
0.0
  0
LTYPE
  2
DASHED
 70
    64
  3
__ __ __ __ __ __ __ __ __ __ __ __ __ __ __
 72
    65
 73
     2
 40
0.75
 49
0.5
 49
-0.25
  0
LTYPE
  2
HIDDEN
 70
    64
  3
_ _ _ _ _ _ _ _ _ _ _ _ _ _ _ _ _ _ _ _ _ _ _
 72
    65
 73
     2
 40
0.375
 49
0.25
 49
-0.125
  0
LTYPE
  2
DOT
 70
    64
  3
...............................................
 72
    65
 73
     2
 40
0.25
 49
0.0
 49
-0.25
  0
LTYPE
  2
DASHDOT
 70
    64
  3
__ . __ . __ . __ . __ . __ . __ . __ . __ . __
 72
    65
 73
     4
 40
1.0
 49
0.5
 49
-0.25
 49
0.0
 49
-0.25
  0
LTYPE
  2
DIVIDE
 70
    64
  3
__ . . __ . . __ . . __ . . __ . . __ . . __
 72
    65
 73
     6
 40
1.25
 49
0.5
 49
-0.25
 49
0.0
 49
-0.25
 49
0.0
 49
-0.25
  0
LTYPE
  2
CENTER
 70
    64
  3
____ _ ____ _ ____ _ ____ _ ____ _ ____ _ ____ 
 72
    65
 73
     4
 40
2.0
 49
1.25
 49
-0.25
 49
0.25
 49
-0.25
  0
LTYPE
  2
PHANTOM
 70
    64
  3
______  __  __  ______  __  __  ______  __  __ 
 72
    65
 73
     6
 40
2.5
 49
1.25
 49
-0.25
 49
0.25
 49
-0.25
 49
0.25
 49
-0.25
  0
LTYPE
  2
BORDER
 70
    64
  3
__ __ . __ __ . __ __ . __ __ . __ __ . __ __ .
 72
    65
 73
     6
 40
1.75
 49
0.5
 49
-0.25
 49
0.5
 49
-0.25
 49
0.0
 49
-0.25
  0
ENDTAB
  0
TABLE
  2
LAYER
 70
    16
  0
LAYER
  2
CSLAYER1
 70
    64
 62
     7
  6
CONTINUOUS
  0
LAYER
  2
CSLAYER2
 70
    64
 62
     7
  6
CONTINUOUS
  0
LAYER
  2
CSLAYER3
 70
    64
 62
     7
  6
CONTINUOUS
  0
LAYER
  2
CSLAYER4
 70
    64
 62
     7
  6
CONTINUOUS
  0
LAYER
  2
CSLAYER5
 70
    64
 62
     7
  6
CONTINUOUS
  0
LAYER
  2
CSLAYER6
 70
    64
 62
     7
  6
CONTINUOUS
  0
LAYER
  2
CSLAYER7
 70
    64
 62
     7
  6
CONTINUOUS
  0
LAYER
  2
CSLAYER8
 70
    64
 62
     7
  6
CONTINUOUS
  0
LAYER
  2
CSLAYER9
 70
    64
 62
     7
  6
CONTINUOUS
  0
LAYER
  2
CSLAYER10
 70
    64
 62
     7
  6
CONTINUOUS
  0
LAYER
  2
CSLAYER11
 70
    64
 62
     7
  6
CONTINUOUS
  0
LAYER
  2
CSLAYER12
 70
    64
 62
     7
  6
CONTINUOUS
  0
LAYER
  2
CSLAYER13
 70
    64
 62
     7
  6
CONTINUOUS
  0
LAYER
  2
CSLAYER14
 70
    64
 62
     7
  6
CONTINUOUS
  0
LAYER
  2
CSLAYER15
 70
    64
 62
     7
  6
CONTINUOUS
  0
LAYER
  2
CSLAYER16
 70
    64
 62
     7
  6
CONTINUOUS
  0
ENDTAB
  0
TABLE
  2
STYLE
 70
     1
  0
STYLE
  2
JX_FONT
 70
     0
 40
1.0
 41
1.0
 50
0.0
 71
     0
 42
1.0
  3
monotxt
  4
bigfont
  0
ENDTAB
  0
TABLE
  2
VIEW
 70
     0
  0
ENDTAB
  0
ENDSEC
  0
SECTION
  2
BLOCKS
  0
ENDSEC
  0
SECTION
  2
ENTITIES
  0
LINE
  8
CSLAYER1
  6
CENTER
 62
     3
 10
78.099849
 20
97.980077
 11
78.099849
 21
181.336135
  0
ARC
  8
CSLAYER1
  6
CENTER
 62
     3
 10
78.099849
 20
146.336135
 40
22.000000
 50
32.622854
 51
57.377146
  0
LINE
  8
CSLAYER1
  6
CENTER
 62
     3
 10
97.191732
 20
165.428018
 11
78.099849
 21
146.336135
  0
LINE
  8
CSLAYER1
  6
CENTER
 62
     3
 10
78.099849
 20
146.336135
 11
59.007962
 21
127.244256
  0
LINE
  8
CSLAYER1
  6
CENTER
 62
     3
 10
52.099849
 20
125.336135
 11
52.099849
 21
115.396865
  0
LINE
  8
CSLAYER1
  6
CENTER
 62
     3
 10
47.099849
 20
120.336135
 11
57.099849
 21
120.336135
  0
ARC
  8
CSLAYER1
  6
CENTER
 62
     3
 10
78.099849
 20
146.336135
 40
22.000000
 50
212.622854
 51
237.377146
  0
ARC
  8
CSLAYER1
  6
CENTER
 62
     3
 10
78.099849
 20
146.336135
 40
14.000000
 50
200.397443
 51
249.602557
  0
LINE
  8
CSLAYER1
  6
CONTINUOUS
 62
     3
 10
65.849849
 20
146.086135
 11
62.349849
 21
146.086135
  0
ARC
  8
CSLAYER1
  6
CONTINUOUS
 62
     3
 10
62.349849
 20
146.336135
 40
0.250000
 50
90.000001
 51
270.000021
  0
LINE
  8
CSLAYER1
  6
CONTINUOUS
 62
     3
 10
62.349849
 20
146.586135
 11
65.849849
 21
146.586135
  0
ARC
  8
CSLAYER1
  6
CONTINUOUS
 62
     3
 10
65.849849
 20
146.336135
 40
0.250000
 50
-90.000019
 51
90.000001
  0
LINE
  8
CSLAYER1
  6
CENTER
 62
     3
 10
43.099849
 20
146.336135
 11
113.099849
 21
146.336135
  0
LINE
  8
CSLAYER1
  6
CENTER
 62
     3
 10
133.099866
 20
146.336144
 11
299.599859
 21
146.336124
  0
LINE
  8
CSLAYER1
  6
CENTER
 62
     3
 10
272.099849
 20
120.336125
 11
258.099849
 21
120.336125
  0
LINE
  8
CSLAYER1
  6
CENTER
 62
     3
 10
258.099856
 20
75.989030
 11
272.099856
 21
75.989026
  0
LINE
  8
CSLAYER1
  6
CENTER
 62
     3
 10
299.599849
 20
49.989023
 11
133.099849
 21
49.989023
  0
LINE
  8
CSLAYER1
  6
CENTER
 62
     3
 10
147.099849
 20
23.489100
 11
147.099849
 21
76.489100
  0
LINE
  8
CSLAYER1
  6
CENTER
 62
     3
 10
147.099849
 20
125.336142
 11
147.099849
 21
167.336142
  0
LINE
  8
CSLAYER1
  6
CENTER
 62
     3
 10
169.359981
 20
161.936189
 11
182.099849
 21
161.936189
  0
LINE
  8
CSLAYER1
  6
CENTER
 62
     3
 10
197.099849
 20
159.336139
 11
197.099849
 21
97.764621
  0
LINE
  8
CSLAYER1
  6
CENTER
 62
     3
 10
182.099842
 20
130.736092
 11
169.359977
 21
130.736095
  0
LINE
  8
CSLAYER1
  6
CENTER
 62
     3
 10
148.599856
 20
135.836129
 11
145.599856
 21
135.836128
  0
LINE
  8
CSLAYER1
  6
CENTER
 62
     3
 10
109.099849
 20
120.336135
 11
99.099849
 21
120.336135
  0
LINE
  8
CSLAYER1
  6
CENTER
 62
     3
 10
104.099849
 20
115.396865
 11
104.099849
 21
125.336135
  0
LINE
  8
CSLAYER1
  6
CENTER
 62
     3
 10
97.191732
 20
127.244252
 11
89.374614
 21
135.061377
  0
ARC
  8
CSLAYER1
  6
CENTER
 62
     3
 10
78.099849
 20
146.336135
 40
22.000000
 50
302.622854
 51
327.377146
  0
LINE
  8
CSLAYER1
  6
CONTINUOUS
 62
     3
 10
91.849849
 20
144.570914
 11
91.849849
 21
146.086135
  0
LINE
  8
CSLAYER1
  6
CONTINUOUS
 62
     3
 10
91.849849
 20
146.086135
 11
90.349849
 21
146.086135
  0
ARC
  8
CSLAYER1
  6
CONTINUOUS
 62
     3
 10
90.349849
 20
146.336135
 40
0.250000
 50
101.471877
 51
270.000021
  0
LINE
  8
CSLAYER1
  6
CONTINUOUS
 62
     3
 10
90.300128
 20
146.586135
 11
91.849849
 21
146.586135
  0
LINE
  8
CSLAYER1
  6
CONTINUOUS
 62
     3
 10
91.849849
 20
146.586135
 11
91.849849
 21
148.076102
  0
ARC
  8
CSLAYER1
  6
CONTINUOUS
 62
     3
 10
92.099849
 20
148.086135
 40
0.250000
 50
0.000020
 51
182.300752
  0
LINE
  8
CSLAYER1
  6
CONTINUOUS
 62
     3
 10
92.349849
 20
148.086135
 11
92.349849
 21
146.586135
  0
LINE
  8
CSLAYER1
  6
CONTINUOUS
 62
     3
 10
92.349849
 20
146.586135
 11
93.849849
 21
146.586135
  0
ARC
  8
CSLAYER1
  6
CONTINUOUS
 62
     3
 10
93.849849
 20
146.336135
 40
0.250000
 50
-90.000019
 51
90.000001
  0
LINE
  8
CSLAYER1
  6
CONTINUOUS
 62
     3
 10
93.849849
 20
146.086135
 11
92.349849
 21
146.086135
  0
LINE
  8
CSLAYER1
  6
CONTINUOUS
 62
     3
 10
92.349849
 20
146.086135
 11
92.349849
 21
144.586135
  0
ARC
  8
CSLAYER1
  6
CONTINUOUS
 62
     3
 10
92.099849
 20
144.586135
 40
0.250000
 50
-176.508968
 51
0.000020
  0
ARC
  8
CSLAYER1
  6
CENTER
 62
     3
 10
78.099849
 20
146.336135
 40
14.000000
 50
20.397443
 51
69.602557
  0
LINE
  8
CSLAYER1
  6
CENTER
 62
     3
 10
66.234843
 20
158.201148
 11
59.007962
 21
165.428014
  0
LINE
  8
CSLAYER1
  6
CENTER
 62
     3
 10
52.099849
 20
167.336135
 11
52.099849
 21
177.275405
  0
LINE
  8
CSLAYER1
  6
CENTER
 62
     3
 10
47.099849
 20
172.336135
 11
57.099849
 21
172.336135
  0
ARC
  8
CSLAYER1
  6
CENTER
 62
     3
 10
78.099849
 20
146.336135
 40
22.000000
 50
122.622854
 51
147.377146
  0
LINE
  8
CSLAYER1
  6
CENTER
 62
     3
 10
99.099849
 20
172.336135
 11
109.039119
 21
172.336135
  0
LINE
  8
CSLAYER1
  6
CENTER
 62
     3
 10
147.099849
 20
216.183308
 11
147.099849
 21
269.183308
  0
LINE
  8
CSLAYER1
  6
CENTER
 62
     3
 10
169.359981
 20
258.283283
 11
182.099849
 21
258.283283
  0
LINE
  8
CSLAYER1
  6
CENTER
 62
     3
 10
182.099849
 20
227.083186
 11
169.359977
 21
227.083189
  0
LINE
  8
CSLAYER1
  6
CENTER
 62
     3
 10
133.099872
 20
242.683264
 11
299.599872
 21
242.683224
  0
LINE
  8
CSLAYER1
  6
CENTER
 62
     3
 10
272.099856
 20
268.683235
 11
258.099856
 21
268.683238
  0
LINE
  8
CSLAYER1
  6
CONTINUOUS
 62
     3
 10
253.099849
 20
266.183268
 11
253.099849
 21
219.183207
  0
ARC
  8
CSLAYER1
  6
CONTINUOUS
 62
     3
 10
252.099849
 20
219.183207
 40
1.000000
 50
269.999999
 51
359.999995
  0
LINE
  8
CSLAYER1
  6
CONTINUOUS
 62
     3
 10
252.099849
 20
218.183207
 11
216.099849
 21
218.183207
  0
ARC
  8
CSLAYER1
  6
CONTINUOUS
 62
     3
 10
216.099849
 20
219.183207
 40
1.000000
 50
180.000005
 51
270.000001
  0
LINE
  8
CSLAYER1
  6
CONTINUOUS
 62
     3
 10
215.099849
 20
219.183207
 11
215.099849
 21
266.183268
  0
ARC
  8
CSLAYER1
  6
CONTINUOUS
 62
     3
 10
216.099849
 20
266.183268
 40
1.000000
 50
90.000009
 51
180.000005
  0
LINE
  8
CSLAYER1
  6
CONTINUOUS
 62
     3
 10
216.099849
 20
267.183268
 11
252.099849
 21
267.183268
  0
ARC
  8
CSLAYER1
  6
CONTINUOUS
 62
     3
 10
252.099849
 20
266.183268
 40
1.000000
 50
-0.000005
 51
89.999991
  0
LINE
  8
CSLAYER1
  6
CENTER
 62
     3
 10
258.099849
 20
216.683228
 11
272.099849
 21
216.683228
  0
LINE
  8
CSLAYER1
  6
CONTINUOUS
 62
     3
 10
253.099849
 20
177.336139
 11
253.099849
 21
162.836108
  0
ARC
  8
CSLAYER1
  6
CONTINUOUS
 62
     3
 10
252.099849
 20
162.836108
 40
1.000000
 50
269.999999
 51
359.999995
  0
LINE
  8
CSLAYER1
  6
CONTINUOUS
 62
     3
 10
252.099849
 20
161.836108
 11
216.099865
 21
161.836108
  0
ARC
  8
CSLAYER1
  6
CONTINUOUS
 62
     3
 10
216.099865
 20
162.836108
 40
1.000000
 50
180.000005
 51
270.000001
  0
LINE
  8
CSLAYER1
  6
CONTINUOUS
 62
     3
 10
215.099865
 20
162.836108
 11
215.099865
 21
177.336139
  0
LINE
  8
CSLAYER1
  6
CENTER
 62
     3
 10
258.099856
 20
172.336135
 11
272.099856
 21
172.336132
  0
LINE
  8
CSLAYER1
  6
CENTER
 62
     3
 10
319.599849
 20
172.336135
 11
329.599849
 21
172.336135
  0
LINE
  8
CSLAYER1
  6
CENTER
 62
     3
 10
328.649471
 20
168.286513
 11
338.609125
 21
158.326874
  0
ARC
  8
CSLAYER1
  6
CENTER
 62
     3
 10
350.599849
 20
146.336119
 40
24.000000
 50
114.927254
 51
155.072670
  0
LINE
  8
CSLAYER1
  6
CENTER
 62
     3
 10
324.599849
 20
167.336135
 11
324.599849
 21
177.275405
  0
LINE
  8
CSLAYER1
  6
CENTER
 62
     3
 10
350.599849
 20
181.336104
 11
350.599849
 21
111.336226
  0
ARC
  8
CSLAYER1
  6
CENTER
 62
     3
 10
350.599849
 20
146.336150
 40
24.000000
 50
294.927254
 51
335.072670
  0
LINE
  8
CSLAYER1
  6
CENTER
 62
     3
 10
362.590574
 20
134.345396
 11
372.550228
 21
124.385756
  0
LINE
  8
CSLAYER1
  6
CENTER
 62
     3
 10
376.599849
 20
125.336135
 11
376.599849
 21
115.396865
  0
LINE
  8
CSLAYER1
  6
CENTER
 62
     3
 10
381.599849
 20
120.336135
 11
371.599849
 21
120.336135
  0
LINE
  8
CSLAYER1
  6
CENTER
 62
     3
 10
385.599849
 20
146.336135
 11
315.599849
 21
146.336135
  0
LINE
  8
CSLAYER1
  6
CENTER
 62
     3
 10
324.599849
 20
125.336135
 11
324.599849
 21
115.336135
  0
LINE
  8
CSLAYER1
  6
CENTER
 62
     3
 10
319.660579
 20
120.336135
 11
329.599849
 21
120.336135
  0
LINE
  8
CSLAYER1
  6
CENTER
 62
     3
 10
376.599849
 20
167.336135
 11
376.599849
 21
177.275405
  0
LINE
  8
CSLAYER1
  6
CENTER
 62
     3
 10
381.599849
 20
172.336135
 11
371.599849
 21
172.336135
  0
CIRCLE
  8
CSLAYER1
  6
CONTINUOUS
 62
     3
 10
197.099849
 20
146.336139
 40
5.500000
  0
LINE
  8
CSLAYER1
  6
CENTER
 62
     3
 10
182.099849
 20
65.589075
 11
169.359981
 21
65.589075
  0
LINE
  8
CSLAYER1
  6
CENTER
 62
     3
 10
197.099849
 20
60.989069
 11
197.099849
 21
38.989069
  0
LINE
  8
CSLAYER1
  6
CENTER
 62
     3
 10
182.099849
 20
34.388978
 11
169.359977
 21
34.388981
  0
LINE
  8
CSLAYER1
  6
CENTER
 62
     3
 10
258.099849
 20
23.989020
 11
272.099849
 21
23.989020
  0
LINE
  8
CSLAYER1
  6
CENTER
 62
     3
 10
104.099849
 20
167.336135
 11
104.099849
 21
177.336135
  0
TEXT
  8
CSLAYER1
 62
     3
 10
231.637589
 20
174.836121
 40
3.500000
 41
1.125000
  1
N P
 50
270.000000
 51
10.000000
  7
JX_FONT
 72
     5
 11
231.637589
 21
164.336121
  0
TEXT
  8
CSLAYER1
 62
     3
 10
231.469925
 20
247.918655
 40
3.500000
 41
1.125000
  1
N P
 50
-90.000000
 51
10.000000
  7
JX_FONT
 72
     5
 11
231.469925
 21
237.418655
  0
LINE
  8
CSLAYER1
  6
CONTINUOUS
 62
     6
 10
73.082967
 20
98.656487
 11
74.859810
 21
101.677486
  0
LINE
  8
CSLAYER1
  6
CONTINUOUS
 62
     6
 10
74.371829
 20
101.931124
 11
76.323874
 21
100.916510
  0
ARC
  8
CSLAYER1
  6
CONTINUOUS
 62
     6
 10
62.340892
 20
108.184260
 40
15.758933
 50
-27.463461
 51
0.000397
  0
ARC
  8
CSLAYER1
  6
CONTINUOUS
 62
     6
 10
77.549848
 20
107.231748
 40
1.099999
 50
60.000350
 51
120.000345
  0
ARC
  8
CSLAYER1
  6
CONTINUOUS
 62
     6
 10
76.449838
 20
109.136991
 40
1.099999
 50
240.000362
 51
300.000350
  0
ARC
  8
CSLAYER1
  6
CONTINUOUS
 62
     6
 10
62.340892
 20
108.184260
 40
13.558951
 50
-27.463363
 51
0.000417
  0
LINE
  8
CSLAYER1
  6
CONTINUOUS
 62
     6
 10
75.347826
 20
101.423839
 11
73.733650
 21
98.318281
  0
LINE
  8
CSLAYER1
  6
CONTINUOUS
 62
     6
 10
74.384333
 20
97.980076
 11
75.835839
 21
101.170186
  0
LINE
  8
CSLAYER1
  6
CONTINUOUS
 62
     6
 10
79.875896
 20
100.916524
 11
81.827945
 21
101.931142
  0
ARC
  8
CSLAYER1
  6
CONTINUOUS
 62
     6
 10
93.858875
 20
108.184432
 40
13.559023
 50
180.000308
 51
207.464006
  0
ARC
  8
CSLAYER1
  6
CONTINUOUS
 62
     6
 10
79.749853
 20
107.231717
 40
1.099999
 50
59.999715
 51
119.999716
  0
ARC
  8
CSLAYER1
  6
CONTINUOUS
 62
     6
 10
78.649854
 20
107.231733
 40
1.099999
 50
59.999715
 51
119.999716
  0
ARC
  8
CSLAYER1
  6
CONTINUOUS
 62
     6
 10
78.649862
 20
109.136991
 40
1.099999
 50
239.999733
 51
299.999721
  0
ARC
  8
CSLAYER1
  6
CONTINUOUS
 62
     6
 10
93.858875
 20
108.184432
 40
15.759004
 50
180.000235
 51
207.463987
  0
LINE
  8
CSLAYER1
  6
CONTINUOUS
 62
     6
 10
80.363905
 20
101.170187
 11
81.815412
 21
97.980077
  0
LINE
  8
CSLAYER1
  6
CONTINUOUS
 62
     6
 10
82.466095
 20
98.318283
 11
80.851917
 21
101.423840
  0
LINE
  8
CSLAYER1
  6
CONTINUOUS
 62
     6
 10
81.339933
 20
101.677488
 11
83.116778
 21
98.656489
  0
ARC
  8
CSLAYER1
  6
CONTINUOUS
 62
     6
 10
76.449850
 20
107.231733
 40
1.099999
 50
60.000350
 51
120.000345
  0
ARC
  8
CSLAYER1
  6
CONTINUOUS
 62
     6
 10
76.449829
 20
112.049201
 40
1.099999
 50
240.000198
 51
300.000186
  0
ARC
  8
CSLAYER1
  6
CONTINUOUS
 62
     6
 10
77.549827
 20
112.049201
 40
1.099999
 50
240.000198
 51
300.000186
  0
ARC
  8
CSLAYER1
  6
CONTINUOUS
 62
     6
 10
77.549835
 20
110.143958
 40
1.099999
 50
60.000186
 51
120.000181
  0
LINE
  8
CSLAYER1
  6
CONTINUOUS
 62
     6
 10
75.899852
 20
111.096580
 11
75.899856
 21
116.416915
  0
ARC
  8
CSLAYER1
  6
CONTINUOUS
 62
     6
 10
78.099849
 20
146.336135
 40
31.000000
 50
-85.930420
 51
265.930438
  0
LINE
  8
CSLAYER1
  6
CONTINUOUS
 62
     6
 10
80.299854
 20
116.416915
 11
80.299850
 21
111.096580
  0
ARC
  8
CSLAYER1
  6
CONTINUOUS
 62
     6
 10
79.749862
 20
110.143958
 40
1.099999
 50
59.999858
 51
119.999853
  0
ARC
  8
CSLAYER1
  6
CONTINUOUS
 62
     6
 10
79.749870
 20
112.049201
 40
1.099999
 50
239.999870
 51
299.999858
  0
ARC
  8
CSLAYER1
  6
CONTINUOUS
 62
     6
 10
78.649871
 20
112.049201
 40
1.099999
 50
239.999870
 51
299.999858
  0
LINE
  8
CSLAYER1
  6
CONTINUOUS
 62
     6
 10
78.099845
 20
111.096580
 11
78.099857
 21
116.416915
  0
LINE
  8
CSLAYER1
  6
CONTINUOUS
 62
     6
 10
80.299852
 20
114.336135
 11
104.099849
 21
114.336135
  0
ARC
  8
CSLAYER1
  6
CONTINUOUS
 62
     6
 10
104.099849
 20
120.336135
 40
6.000000
 50
-90.000000
 51
0.000003
  0
LINE
  8
CSLAYER1
  6
CONTINUOUS
 62
     6
 10
110.099849
 20
120.336135
 11
110.099849
 21
172.336074
  0
ARC
  8
CSLAYER1
  6
CONTINUOUS
 62
     6
 10
104.099849
 20
172.336135
 40
6.000000
 50
0.000000
 51
90.000003
  0
LINE
  8
CSLAYER1
  6
CONTINUOUS
 62
     6
 10
104.099849
 20
178.336074
 11
52.099849
 21
178.336074
  0
ARC
  8
CSLAYER1
  6
CONTINUOUS
 62
     6
 10
52.099849
 20
172.336135
 40
6.000000
 50
90.000000
 51
180.000003
  0
LINE
  8
CSLAYER1
  6
CONTINUOUS
 62
     6
 10
46.099849
 20
172.336074
 11
46.099849
 21
120.336135
  0
ARC
  8
CSLAYER1
  6
CONTINUOUS
 62
     6
 10
52.099849
 20
120.336135
 40
6.000000
 50
179.999997
 51
270.000000
  0
LINE
  8
CSLAYER1
  6
CONTINUOUS
 62
     6
 10
52.099849
 20
114.336135
 11
75.899855
 21
114.336135
  0
LINE
  8
CSLAYER1
  6
CONTINUOUS
 62
     6
 10
67.671275
 20
131.664908
 11
70.321666
 21
134.315314
  0
ARC
  8
CSLAYER1
  6
CONTINUOUS
 62
     6
 10
68.200358
 20
136.436637
 40
3.000000
 50
-44.999971
 51
134.999992
  0
LINE
  8
CSLAYER1
  6
CONTINUOUS
 62
     6
 10
66.079021
 20
138.557959
 11
63.428630
 21
135.907554
  0
LINE
  8
CSLAYER1
  6
CONTINUOUS
 62
     6
 10
66.523295
 20
135.936637
 11
67.200358
 21
135.936637
  0
ARC
  8
CSLAYER1
  6
CONTINUOUS
 62
     6
 10
67.200358
 20
135.436637
 40
0.500000
 50
0.000020
 51
90.000001
  0
LINE
  8
CSLAYER1
  6
CONTINUOUS
 62
     6
 10
67.700358
 20
135.436637
 11
67.700358
 21
134.759589
  0
ARC
  8
CSLAYER1
  6
CONTINUOUS
 62
     6
 10
68.200358
 20
136.436637
 40
1.750000
 50
253.398415
 51
286.601605
  0
LINE
  8
CSLAYER1
  6
CONTINUOUS
 62
     6
 10
68.700358
 20
134.759589
 11
68.700358
 21
135.436637
  0
ARC
  8
CSLAYER1
  6
CONTINUOUS
 62
     6
 10
69.200358
 20
135.436637
 40
0.500000
 50
90.000001
 51
179.942687
  0
LINE
  8
CSLAYER1
  6
CONTINUOUS
 62
     6
 10
69.200358
 20
135.936637
 11
69.877391
 21
135.936637
  0
ARC
  8
CSLAYER1
  6
CONTINUOUS
 62
     6
 10
68.200358
 20
136.436637
 40
1.750000
 50
-16.601547
 51
16.601587
  0
LINE
  8
CSLAYER1
  6
CONTINUOUS
 62
     6
 10
69.877391
 20
136.936637
 11
69.200358
 21
136.936637
  0
ARC
  8
CSLAYER1
  6
CONTINUOUS
 62
     6
 10
69.200358
 20
137.436637
 40
0.500000
 50
180.000000
 51
269.999981
  0
LINE
  8
CSLAYER1
  6
CONTINUOUS
 62
     6
 10
68.700358
 20
137.436637
 11
68.700358
 21
138.113684
  0
ARC
  8
CSLAYER1
  6
CONTINUOUS
 62
     6
 10
68.200358
 20
136.436637
 40
1.750000
 50
73.398434
 51
106.601568
  0
LINE
  8
CSLAYER1
  6
CONTINUOUS
 62
     6
 10
67.700358
 20
138.113684
 11
67.700358
 21
137.436637
  0
ARC
  8
CSLAYER1
  6
CONTINUOUS
 62
     6
 10
67.200358
 20
137.436637
 40
0.500000
 50
-90.000019
 51
0.000020
  0
LINE
  8
CSLAYER1
  6
CONTINUOUS
 62
     6
 10
67.200358
 20
136.936637
 11
66.523295
 21
136.936637
  0
ARC
  8
CSLAYER1
  6
CONTINUOUS
 62
     6
 10
68.200358
 20
136.436637
 40
1.750000
 50
163.398416
 51
196.601606
  0
CIRCLE
  8
CSLAYER1
  6
CONTINUOUS
 62
     6
 10
68.200358
 20
136.436637
 40
2.750000
  0
ARC
  8
CSLAYER1
  6
CONTINUOUS
 62
     6
 10
62.543498
 20
130.779784
 40
1.750000
 50
-16.601547
 51
16.601587
  0
LINE
  8
CSLAYER1
  6
CONTINUOUS
 62
     6
 10
64.220546
 20
130.279784
 11
63.543498
 21
130.279784
  0
ARC
  8
CSLAYER1
  6
CONTINUOUS
 62
     6
 10
63.543498
 20
129.779784
 40
0.500000
 50
90.000001
 51
179.942687
  0
LINE
  8
CSLAYER1
  6
CONTINUOUS
 62
     6
 10
63.043498
 20
129.779784
 11
63.043498
 21
129.102736
  0
ARC
  8
CSLAYER1
  6
CONTINUOUS
 62
     6
 10
62.543498
 20
130.779784
 40
1.750000
 50
253.398415
 51
286.601605
  0
LINE
  8
CSLAYER1
  6
CONTINUOUS
 62
     6
 10
62.043498
 20
129.102736
 11
62.043498
 21
129.779784
  0
ARC
  8
CSLAYER1
  6
CONTINUOUS
 62
     6
 10
61.543498
 20
129.779784
 40
0.500000
 50
0.000020
 51
90.000001
  0
LINE
  8
CSLAYER1
  6
CONTINUOUS
 62
     6
 10
61.543498
 20
130.279784
 11
60.866450
 21
130.279784
  0
ARC
  8
CSLAYER1
  6
CONTINUOUS
 62
     6
 10
62.543498
 20
130.779784
 40
1.750000
 50
163.398416
 51
196.601606
  0
LINE
  8
CSLAYER1
  6
CONTINUOUS
 62
     6
 10
60.866450
 20
131.279784
 11
61.543498
 21
131.279784
  0
ARC
  8
CSLAYER1
  6
CONTINUOUS
 62
     6
 10
61.543498
 20
131.779784
 40
0.500000
 50
-90.000019
 51
0.000020
  0
LINE
  8
CSLAYER1
  6
CONTINUOUS
 62
     6
 10
62.043498
 20
131.779784
 11
62.043498
 21
132.456832
  0
ARC
  8
CSLAYER1
  6
CONTINUOUS
 62
     6
 10
62.543498
 20
130.779784
 40
1.750000
 50
73.398434
 51
106.601568
  0
LINE
  8
CSLAYER1
  6
CONTINUOUS
 62
     6
 10
63.043498
 20
132.456832
 11
63.043498
 21
131.779784
  0
ARC
  8
CSLAYER1
  6
CONTINUOUS
 62
     6
 10
63.543498
 20
131.779784
 40
0.500000
 50
180.000000
 51
269.999981
  0
LINE
  8
CSLAYER1
  6
CONTINUOUS
 62
     6
 10
63.543498
 20
131.279784
 11
64.220546
 21
131.279784
  0
CIRCLE
  8
CSLAYER1
  6
CONTINUOUS
 62
     6
 10
62.543498
 20
130.779784
 40
2.750000
  0
LINE
  8
CSLAYER1
  6
CONTINUOUS
 62
     6
 10
58.199840
 20
134.336135
 11
58.199840
 21
141.836135
  0
LINE
  8
CSLAYER1
  6
CONTINUOUS
 62
     6
 10
57.699840
 20
141.836135
 11
57.699840
 21
134.336127
  0
LINE
  8
CSLAYER1
  6
CONTINUOUS
 62
     6
 10
57.699840
 20
134.336127
 11
58.199840
 21
134.336135
  0
LINE
  8
CSLAYER1
  6
CONTINUOUS
 62
     6
 10
59.599849
 20
140.336135
 11
61.099864
 21
140.336135
  0
ARC
  8
CSLAYER1
  6
CONTINUOUS
 62
     6
 10
78.099849
 20
146.336135
 40
19.000000
 50
198.408504
 51
341.591516
  0
LINE
  8
CSLAYER1
  6
CONTINUOUS
 62
     6
 10
96.599849
 20
140.336135
 11
96.599849
 21
141.836135
  0
LINE
  8
CSLAYER1
  6
CONTINUOUS
 62
     6
 10
96.599849
 20
141.836135
 11
100.599849
 21
141.836135
  0
LINE
  8
CSLAYER1
  6
CONTINUOUS
 62
     6
 10
100.599849
 20
141.336135
 11
100.599849
 21
152.336135
  0
LINE
  8
CSLAYER1
  6
CONTINUOUS
 62
     6
 10
100.599849
 20
152.336135
 11
95.099841
 21
152.336135
  0
ARC
  8
CSLAYER1
  6
CONTINUOUS
 62
     6
 10
78.099849
 20
146.336135
 40
19.000000
 50
18.408466
 51
161.591536
  0
LINE
  8
CSLAYER1
  6
CONTINUOUS
 62
     6
 10
61.099864
 20
152.336135
 11
55.599849
 21
152.336135
  0
LINE
  8
CSLAYER1
  6
CONTINUOUS
 62
     6
 10
55.599849
 20
152.336135
 11
55.599849
 21
141.336135
  0
ARC
  8
CSLAYER1
  6
CONTINUOUS
 62
     6
 10
54.949855
 20
141.298735
 40
0.650002
 50
-179.999943
 51
3.291720
  0
LINE
  8
CSLAYER1
  6
CONTINUOUS
 62
     6
 10
54.299846
 20
140.586119
 11
54.299846
 21
152.086119
  0
LINE
  8
CSLAYER1
  6
CONTINUOUS
 62
     6
 10
54.299846
 20
152.086119
 11
53.099849
 21
152.086119
  0
LINE
  8
CSLAYER1
  6
CONTINUOUS
 62
     6
 10
53.099849
 20
152.086119
 11
53.099849
 21
140.586119
  0
LINE
  8
CSLAYER1
  6
CONTINUOUS
 62
     6
 10
53.099849
 20
140.586119
 11
54.299846
 21
140.586119
  0
ARC
  8
CSLAYER1
  6
CONTINUOUS
 62
     6
 10
78.099849
 20
146.336135
 40
25.000000
 50
193.297090
 51
346.702873
  0
LINE
  8
CSLAYER1
  6
CONTINUOUS
 62
     6
 10
101.899844
 20
140.586119
 11
101.899844
 21
152.086119
  0
LINE
  8
CSLAYER1
  6
CONTINUOUS
 62
     6
 10
101.899844
 20
152.086119
 11
103.099849
 21
152.086119
  0
LINE
  8
CSLAYER1
  6
CONTINUOUS
 62
     6
 10
103.099849
 20
152.086119
 11
103.099849
 21
140.586119
  0
LINE
  8
CSLAYER1
  6
CONTINUOUS
 62
     6
 10
103.099849
 20
140.586119
 11
101.899844
 21
140.586119
  0
ARC
  8
CSLAYER1
  6
CONTINUOUS
 62
     6
 10
101.249843
 20
141.298735
 40
0.650002
 50
-183.291660
 51
0.000002
  0
LINE
  8
CSLAYER1
  6
CONTINUOUS
 62
     6
 10
98.499858
 20
141.836135
 11
98.499850
 21
134.336127
  0
LINE
  8
CSLAYER1
  6
CONTINUOUS
 62
     6
 10
98.499850
 20
134.336127
 11
97.999858
 21
134.336135
  0
LINE
  8
CSLAYER1
  6
CONTINUOUS
 62
     6
 10
97.999858
 20
134.336135
 11
97.999858
 21
141.836135
  0
LINE
  8
CSLAYER1
  6
CONTINUOUS
 62
     6
 10
96.599849
 20
140.336135
 11
95.099841
 21
140.336135
  0
ARC
  8
CSLAYER1
  6
CONTINUOUS
 62
     6
 10
93.656200
 20
130.779784
 40
1.750000
 50
73.398434
 51
106.601568
  0
LINE
  8
CSLAYER1
  6
CONTINUOUS
 62
     6
 10
93.156200
 20
132.456832
 11
93.156200
 21
131.779784
  0
ARC
  8
CSLAYER1
  6
CONTINUOUS
 62
     6
 10
92.656200
 20
131.779784
 40
0.500000
 50
-90.000019
 51
0.000020
  0
LINE
  8
CSLAYER1
  6
CONTINUOUS
 62
     6
 10
92.656200
 20
131.279784
 11
91.979152
 21
131.279784
  0
ARC
  8
CSLAYER1
  6
CONTINUOUS
 62
     6
 10
93.656200
 20
130.779784
 40
1.750000
 50
163.398416
 51
196.601606
  0
LINE
  8
CSLAYER1
  6
CONTINUOUS
 62
     6
 10
91.979152
 20
130.279784
 11
92.656200
 21
130.279784
  0
ARC
  8
CSLAYER1
  6
CONTINUOUS
 62
     6
 10
92.656200
 20
129.779784
 40
0.500000
 50
0.000020
 51
90.000001
  0
LINE
  8
CSLAYER1
  6
CONTINUOUS
 62
     6
 10
93.156200
 20
129.779784
 11
93.156200
 21
129.102736
  0
ARC
  8
CSLAYER1
  6
CONTINUOUS
 62
     6
 10
93.656200
 20
130.779784
 40
1.750000
 50
253.398415
 51
286.601605
  0
LINE
  8
CSLAYER1
  6
CONTINUOUS
 62
     6
 10
94.156200
 20
129.102736
 11
94.156200
 21
129.779784
  0
ARC
  8
CSLAYER1
  6
CONTINUOUS
 62
     6
 10
94.656200
 20
129.779784
 40
0.500000
 50
90.000001
 51
179.942687
  0
LINE
  8
CSLAYER1
  6
CONTINUOUS
 62
     6
 10
94.656200
 20
130.279784
 11
95.333247
 21
130.279784
  0
ARC
  8
CSLAYER1
  6
CONTINUOUS
 62
     6
 10
93.656200
 20
130.779784
 40
1.750000
 50
-16.601547
 51
16.601587
  0
LINE
  8
CSLAYER1
  6
CONTINUOUS
 62
     6
 10
95.333247
 20
131.279784
 11
94.656200
 21
131.279784
  0
ARC
  8
CSLAYER1
  6
CONTINUOUS
 62
     6
 10
94.656200
 20
131.779784
 40
0.500000
 50
180.000000
 51
269.999981
  0
LINE
  8
CSLAYER1
  6
CONTINUOUS
 62
     6
 10
94.156200
 20
131.779784
 11
94.156200
 21
132.456832
  0
CIRCLE
  8
CSLAYER1
  6
CONTINUOUS
 62
     6
 10
93.656200
 20
130.779784
 40
2.750000
  0
CIRCLE
  8
CSLAYER1
  6
CONTINUOUS
 62
     6
 10
104.099849
 20
120.336135
 40
2.250000
  0
LINE
  8
CSLAYER1
  6
CONTINUOUS
 62
     6
 10
80.599818
 20
143.836135
 11
73.099818
 21
146.336135
  0
LINE
  8
CSLAYER1
  6
CONTINUOUS
 62
     6
 10
73.099818
 20
146.336135
 11
75.569240
 21
146.336135
  0
LINE
  8
CSLAYER1
  6
CONTINUOUS
 62
     6
 10
75.569240
 20
146.336135
 11
75.599818
 21
148.836135
  0
LINE
  8
CSLAYER1
  6
CONTINUOUS
 62
     6
 10
75.599818
 20
148.836135
 11
83.099818
 21
146.336135
  0
LINE
  8
CSLAYER1
  6
CONTINUOUS
 62
     6
 10
83.099818
 20
146.336135
 11
80.582851
 21
146.336135
  0
LINE
  8
CSLAYER1
  6
CONTINUOUS
 62
     6
 10
80.582851
 20
146.336135
 11
80.599818
 21
143.836135
  0
CIRCLE
  8
CSLAYER1
  6
CONTINUOUS
 62
     6
 10
78.099849
 20
146.336135
 40
30.000000
  0
CIRCLE
  8
CSLAYER1
  6
CONTINUOUS
 62
     6
 10
78.099841
 20
146.336135
 40
18.000000
  0
CIRCLE
  8
CSLAYER1
  6
CONTINUOUS
 62
     6
 10
78.099818
 20
146.336135
 40
5.000000
  0
CIRCLE
  8
CSLAYER1
  6
CONTINUOUS
 62
     6
 10
78.099818
 20
146.336135
 40
5.800000
  0
LINE
  8
CSLAYER1
  6
CONTINUOUS
 62
     6
 10
59.599849
 20
141.836135
 11
59.599849
 21
140.336135
  0
LINE
  8
CSLAYER1
  6
CONTINUOUS
 62
     6
 10
59.599849
 20
141.836135
 11
55.599849
 21
141.836135
  0
CIRCLE
  8
CSLAYER1
  6
CONTINUOUS
 62
     6
 10
52.099849
 20
120.336135
 40
2.250000
  0
ARC
  8
CSLAYER1
  6
CONTINUOUS
 62
     6
 10
54.949855
 20
151.373504
 40
0.650002
 50
-3.291680
 51
179.942687
  0
ARC
  8
CSLAYER1
  6
CONTINUOUS
 62
     6
 10
78.099849
 20
146.336135
 40
25.000000
 50
13.297052
 51
166.702950
  0
ARC
  8
CSLAYER1
  6
CONTINUOUS
 62
     6
 10
101.249843
 20
151.373504
 40
0.650002
 50
0.000020
 51
183.291682
  0
LINE
  8
CSLAYER1
  6
CONTINUOUS
 62
     6
 10
92.771075
 20
156.764716
 11
90.120669
 21
154.114310
  0
ARC
  8
CSLAYER1
  6
CONTINUOUS
 62
     6
 10
87.999347
 20
156.235633
 40
3.000000
 50
134.999992
 51
315.000012
  0
LINE
  8
CSLAYER1
  6
CONTINUOUS
 62
     6
 10
85.878024
 20
158.356955
 11
88.528430
 21
161.007361
  0
ARC
  8
CSLAYER1
  6
CONTINUOUS
 62
     6
 10
87.999347
 20
156.235633
 40
1.750000
 50
73.398434
 51
106.601568
  0
LINE
  8
CSLAYER1
  6
CONTINUOUS
 62
     6
 10
87.499347
 20
157.912680
 11
87.499347
 21
157.235633
  0
ARC
  8
CSLAYER1
  6
CONTINUOUS
 62
     6
 10
86.999347
 20
157.235633
 40
0.500000
 50
-90.000019
 51
0.000020
  0
LINE
  8
CSLAYER1
  6
CONTINUOUS
 62
     6
 10
86.999347
 20
156.735633
 11
86.322299
 21
156.735633
  0
ARC
  8
CSLAYER1
  6
CONTINUOUS
 62
     6
 10
87.999347
 20
156.235633
 40
1.750000
 50
163.398416
 51
196.601549
  0
LINE
  8
CSLAYER1
  6
CONTINUOUS
 62
     6
 10
86.322299
 20
155.735633
 11
86.999347
 21
155.735633
  0
ARC
  8
CSLAYER1
  6
CONTINUOUS
 62
     6
 10
86.999347
 20
155.235633
 40
0.500000
 50
0.000020
 51
90.000001
  0
LINE
  8
CSLAYER1
  6
CONTINUOUS
 62
     6
 10
87.499347
 20
155.235633
 11
87.499347
 21
154.558585
  0
ARC
  8
CSLAYER1
  6
CONTINUOUS
 62
     6
 10
87.999347
 20
156.235633
 40
1.750000
 50
253.398415
 51
286.601605
  0
LINE
  8
CSLAYER1
  6
CONTINUOUS
 62
     6
 10
88.499347
 20
154.558585
 11
88.499347
 21
155.235633
  0
ARC
  8
CSLAYER1
  6
CONTINUOUS
 62
     6
 10
88.999347
 20
155.235633
 40
0.500000
 50
90.000001
 51
179.942687
  0
LINE
  8
CSLAYER1
  6
CONTINUOUS
 62
     6
 10
88.999347
 20
155.735633
 11
89.676395
 21
155.735633
  0
ARC
  8
CSLAYER1
  6
CONTINUOUS
 62
     6
 10
87.999347
 20
156.235633
 40
1.750000
 50
-16.601604
 51
16.601587
  0
LINE
  8
CSLAYER1
  6
CONTINUOUS
 62
     6
 10
89.676395
 20
156.735633
 11
88.999347
 21
156.735633
  0
ARC
  8
CSLAYER1
  6
CONTINUOUS
 62
     6
 10
88.999347
 20
157.235633
 40
0.500000
 50
179.999982
 51
269.999964
  0
LINE
  8
CSLAYER1
  6
CONTINUOUS
 62
     6
 10
88.499347
 20
157.235633
 11
88.499347
 21
157.912680
  0
CIRCLE
  8
CSLAYER1
  6
CONTINUOUS
 62
     6
 10
87.999347
 20
156.235633
 40
2.750000
  0
ARC
  8
CSLAYER1
  6
CONTINUOUS
 62
     6
 10
93.656200
 20
161.892485
 40
1.750000
 50
163.398416
 51
196.601606
  0
LINE
  8
CSLAYER1
  6
CONTINUOUS
 62
     6
 10
91.979152
 20
162.392485
 11
92.656200
 21
162.392485
  0
ARC
  8
CSLAYER1
  6
CONTINUOUS
 62
     6
 10
92.656200
 20
162.892485
 40
0.500000
 50
-90.000019
 51
0.000020
  0
LINE
  8
CSLAYER1
  6
CONTINUOUS
 62
     6
 10
93.156200
 20
162.892485
 11
93.156200
 21
163.569533
  0
ARC
  8
CSLAYER1
  6
CONTINUOUS
 62
     6
 10
93.656200
 20
161.892485
 40
1.750000
 50
73.398434
 51
106.601568
  0
LINE
  8
CSLAYER1
  6
CONTINUOUS
 62
     6
 10
94.156200
 20
163.569533
 11
94.156200
 21
162.892485
  0
ARC
  8
CSLAYER1
  6
CONTINUOUS
 62
     6
 10
94.656200
 20
162.892485
 40
0.500000
 50
180.000000
 51
269.999981
  0
LINE
  8
CSLAYER1
  6
CONTINUOUS
 62
     6
 10
94.656200
 20
162.392485
 11
95.333247
 21
162.392485
  0
ARC
  8
CSLAYER1
  6
CONTINUOUS
 62
     6
 10
93.656200
 20
161.892485
 40
1.750000
 50
-16.601547
 51
16.601587
  0
LINE
  8
CSLAYER1
  6
CONTINUOUS
 62
     6
 10
95.333247
 20
161.392485
 11
94.656200
 21
161.392485
  0
ARC
  8
CSLAYER1
  6
CONTINUOUS
 62
     6
 10
94.656200
 20
160.892485
 40
0.500000
 50
90.000001
 51
179.942687
  0
LINE
  8
CSLAYER1
  6
CONTINUOUS
 62
     6
 10
94.156200
 20
160.892485
 11
94.156200
 21
160.215438
  0
ARC
  8
CSLAYER1
  6
CONTINUOUS
 62
     6
 10
93.656200
 20
161.892485
 40
1.750000
 50
253.398415
 51
286.601605
  0
LINE
  8
CSLAYER1
  6
CONTINUOUS
 62
     6
 10
93.156200
 20
160.215438
 11
93.156200
 21
160.892485
  0
ARC
  8
CSLAYER1
  6
CONTINUOUS
 62
     6
 10
92.656200
 20
160.892485
 40
0.500000
 50
0.000020
 51
90.000001
  0
LINE
  8
CSLAYER1
  6
CONTINUOUS
 62
     6
 10
92.656200
 20
161.392485
 11
91.979152
 21
161.392485
  0
CIRCLE
  8
CSLAYER1
  6
CONTINUOUS
 62
     6
 10
93.656200
 20
161.892485
 40
2.750000
  0
CIRCLE
  8
CSLAYER1
  6
CONTINUOUS
 62
     6
 10
104.099849
 20
172.336135
 40
2.250000
  0
ARC
  8
CSLAYER1
  6
CONTINUOUS
 62
     6
 10
62.543498
 20
161.892478
 40
1.750000
 50
-16.601547
 51
16.601587
  0
LINE
  8
CSLAYER1
  6
CONTINUOUS
 62
     6
 10
64.220546
 20
161.392478
 11
63.543498
 21
161.392478
  0
ARC
  8
CSLAYER1
  6
CONTINUOUS
 62
     6
 10
63.543498
 20
160.892478
 40
0.500000
 50
90.000001
 51
179.942687
  0
LINE
  8
CSLAYER1
  6
CONTINUOUS
 62
     6
 10
63.043498
 20
160.892478
 11
63.043498
 21
160.215430
  0
ARC
  8
CSLAYER1
  6
CONTINUOUS
 62
     6
 10
62.543498
 20
161.892478
 40
1.750000
 50
253.398415
 51
286.601605
  0
LINE
  8
CSLAYER1
  6
CONTINUOUS
 62
     6
 10
62.043498
 20
160.215430
 11
62.043498
 21
160.892478
  0
ARC
  8
CSLAYER1
  6
CONTINUOUS
 62
     6
 10
61.543498
 20
160.892478
 40
0.500000
 50
0.000020
 51
90.000001
  0
LINE
  8
CSLAYER1
  6
CONTINUOUS
 62
     6
 10
61.543498
 20
161.392478
 11
60.866450
 21
161.392478
  0
ARC
  8
CSLAYER1
  6
CONTINUOUS
 62
     6
 10
62.543498
 20
161.892478
 40
1.750000
 50
163.398416
 51
196.601606
  0
LINE
  8
CSLAYER1
  6
CONTINUOUS
 62
     6
 10
60.866450
 20
162.392478
 11
61.543498
 21
162.392478
  0
ARC
  8
CSLAYER1
  6
CONTINUOUS
 62
     6
 10
61.543498
 20
162.892478
 40
0.500000
 50
-90.000019
 51
0.000020
  0
LINE
  8
CSLAYER1
  6
CONTINUOUS
 62
     6
 10
62.043498
 20
162.892478
 11
62.043498
 21
163.569526
  0
ARC
  8
CSLAYER1
  6
CONTINUOUS
 62
     6
 10
62.543498
 20
161.892478
 40
1.750000
 50
73.398434
 51
106.601568
  0
LINE
  8
CSLAYER1
  6
CONTINUOUS
 62
     6
 10
63.043498
 20
163.569526
 11
63.043498
 21
162.892478
  0
ARC
  8
CSLAYER1
  6
CONTINUOUS
 62
     6
 10
63.543498
 20
162.892478
 40
0.500000
 50
180.000000
 51
269.999981
  0
LINE
  8
CSLAYER1
  6
CONTINUOUS
 62
     6
 10
63.543498
 20
162.392478
 11
64.220546
 21
162.392478
  0
CIRCLE
  8
CSLAYER1
  6
CONTINUOUS
 62
     6
 10
62.543498
 20
161.892478
 40
2.750000
  0
CIRCLE
  8
CSLAYER1
  6
CONTINUOUS
 62
     6
 10
52.099849
 20
172.336135
 40
2.250000
  0
LINE
  8
CSLAYER1
  6
CONTINUOUS
 62
     6
 10
136.099839
 20
163.336143
 11
136.099860
 21
129.336143
  0
LINE
  8
CSLAYER1
  6
CONTINUOUS
 62
     6
 10
136.099860
 20
129.336143
 11
137.099861
 21
128.336143
  0
LINE
  8
CSLAYER1
  6
CONTINUOUS
 62
     6
 10
137.099861
 20
128.336143
 11
146.099849
 21
128.336142
  0
LINE
  8
CSLAYER1
  6
CONTINUOUS
 62
     6
 10
146.099849
 20
127.828541
 11
146.099849
 21
134.336128
  0
LINE
  8
CSLAYER1
  6
CONTINUOUS
 62
     6
 10
145.699855
 20
134.336128
 11
145.699851
 21
140.759166
  0
LINE
  8
CSLAYER1
  6
CONTINUOUS
 62
     6
 10
146.599849
 20
143.336114
 11
147.599849
 21
143.336114
  0
LINE
  8
CSLAYER1
  6
CONTINUOUS
 62
     6
 10
147.599849
 20
143.336114
 11
147.599849
 21
149.336143
  0
LINE
  8
CSLAYER1
  6
CONTINUOUS
 62
     6
 10
147.599849
 20
149.336144
 11
146.599849
 21
149.336143
  0
LINE
  8
CSLAYER1
  6
CONTINUOUS
 62
     6
 10
146.599849
 20
149.336143
 11
146.599849
 21
143.336114
  0
CIRCLE
  8
CSLAYER1
  6
CONTINUOUS
 62
     6
 10
147.099849
 20
146.336129
 40
5.750000
  0
LINE
  8
CSLAYER1
  6
CONTINUOUS
 62
     6
 10
148.499839
 20
140.759164
 11
148.499843
 21
134.336129
  0
LINE
  8
CSLAYER1
  6
CONTINUOUS
 62
     6
 10
148.499843
 20
134.336129
 11
145.699855
 21
134.336128
  0
CIRCLE
  8
CSLAYER1
  6
CONTINUOUS
 62
     6
 10
147.099856
 20
135.836129
 40
0.500000
  0
LINE
  8
CSLAYER1
  6
CONTINUOUS
 62
     6
 10
148.099849
 20
134.336129
 11
148.099849
 21
127.828535
  0
ARC
  8
CSLAYER1
  6
CONTINUOUS
 62
     6
 10
147.099849
 20
128.597778
 40
1.261636
 50
217.568822
 51
322.431165
  0
LINE
  8
CSLAYER1
  6
CONTINUOUS
 62
     6
 10
148.099849
 20
128.336142
 11
171.946142
 21
128.336139
  0
ARC
  8
CSLAYER1
  6
CONTINUOUS
 62
     6
 10
172.639736
 20
129.056505
 40
1.000000
 50
196.257399
 51
264.999892
  0
LINE
  8
CSLAYER1
  6
CONTINUOUS
 62
     6
 10
172.552578
 20
128.060289
 11
173.182399
 21
128.005205
  0
ARC
  8
CSLAYER1
  6
CONTINUOUS
 62
     6
 10
173.199825
 20
128.204454
 40
0.200000
 50
264.999865
 51
359.942691
  0
LINE
  8
CSLAYER1
  6
CONTINUOUS
 62
     6
 10
173.399837
 20
127.936205
 11
173.399837
 21
133.536180
  0
ARC
  8
CSLAYER1
  6
CONTINUOUS
 62
     6
 10
173.499813
 20
133.536180
 40
0.100000
 50
90.000003
 51
180.000005
  0
LINE
  8
CSLAYER1
  6
CONTINUOUS
 62
     6
 10
173.499813
 20
133.636156
 11
173.999813
 21
133.636156
  0
ARC
  8
CSLAYER1
  6
CONTINUOUS
 62
     6
 10
173.999813
 20
133.536180
 40
0.100000
 50
0.000000
 51
90.000003
  0
ARC
  8
CSLAYER1
  6
CONTINUOUS
 62
     6
 10
173.199825
 20
133.267931
 40
0.200000
 50
0.000000
 51
95.000152
  0
LINE
  8
CSLAYER1
  6
CONTINUOUS
 62
     6
 10
173.182399
 20
133.467149
 11
172.552578
 21
133.412035
  0
ARC
  8
CSLAYER1
  6
CONTINUOUS
 62
     6
 10
172.639736
 20
132.415849
 40
1.000000
 50
95.000111
 51
163.742611
  0
ARC
  8
CSLAYER1
  6
CONTINUOUS
 62
     6
 10
178.399837
 20
130.736192
 40
7.000000
 50
163.742994
 51
196.257016
  0
ARC
  8
CSLAYER1
  6
CONTINUOUS
 62
     6
 10
173.499813
 20
127.936205
 40
0.100000
 50
180.000005
 51
270.000001
  0
LINE
  8
CSLAYER1
  6
CONTINUOUS
 62
     6
 10
173.499813
 20
127.836168
 11
173.999813
 21
127.836168
  0
ARC
  8
CSLAYER1
  6
CONTINUOUS
 62
     6
 10
173.999813
 20
127.936205
 40
0.100000
 50
270.000001
 51
359.942691
  0
LINE
  8
CSLAYER1
  6
CONTINUOUS
 62
     6
 10
173.399837
 20
130.140245
 11
174.099819
 21
130.584093
  0
LINE
  8
CSLAYER1
  6
CONTINUOUS
 62
     6
 10
174.099819
 20
131.084093
 11
173.399837
 21
130.640245
  0
LINE
  8
CSLAYER1
  6
CONTINUOUS
 62
     6
 10
174.099849
 20
121.336137
 11
174.099849
 21
171.336137
  0
LINE
  8
CSLAYER1
  6
CONTINUOUS
 62
     6
 10
174.099849
 20
171.336137
 11
178.099849
 21
171.336138
  0
LINE
  8
CSLAYER1
  6
CONTINUOUS
 62
     6
 10
178.099849
 20
174.812529
 11
178.099849
 21
117.859832
  0
LINE
  8
CSLAYER1
  6
CONTINUOUS
 62
     6
 10
178.099849
 20
117.859832
 11
179.099849
 21
116.859832
  0
LINE
  8
CSLAYER1
  6
CONTINUOUS
 62
     6
 10
179.099849
 20
116.859832
 11
179.099849
 21
175.812529
  0
LINE
  8
CSLAYER1
  6
CONTINUOUS
 62
     6
 10
179.099849
 20
175.812529
 11
178.099849
 21
174.812529
  0
LINE
  8
CSLAYER1
  6
CONTINUOUS
 62
     6
 10
179.099849
 20
175.812529
 11
208.099849
 21
176.336135
  0
LINE
  8
CSLAYER1
  6
CONTINUOUS
 62
     6
 10
208.099849
 20
177.336139
 11
208.099849
 21
115.336139
  0
LINE
  8
CSLAYER1
  6
CONTINUOUS
 62
     6
 10
208.099849
 20
115.336139
 11
260.099849
 21
115.336139
  0
LINE
  8
CSLAYER1
  6
CONTINUOUS
 62
     6
 10
260.099849
 20
115.336139
 11
260.099849
 21
177.336139
  0
LINE
  8
CSLAYER1
  6
CONTINUOUS
 62
     6
 10
260.099849
 20
177.336139
 11
208.099849
 21
177.336139
  0
LINE
  8
CSLAYER1
  6
CONTINUOUS
 62
     6
 10
208.099849
 20
211.683231
 11
208.099849
 21
273.683231
  0
LINE
  8
CSLAYER1
  6
CONTINUOUS
 62
     6
 10
208.099849
 20
273.683231
 11
260.099849
 21
273.683231
  0
LINE
  8
CSLAYER1
  6
CONTINUOUS
 62
     6
 10
260.099849
 20
273.683231
 11
260.099849
 21
211.683231
  0
LINE
  8
CSLAYER1
  6
CONTINUOUS
 62
     6
 10
260.099849
 20
211.683231
 11
208.099849
 21
211.683231
  0
LINE
  8
CSLAYER1
  6
CONTINUOUS
 62
     6
 10
208.099849
 20
212.683231
 11
179.099849
 21
213.206928
  0
LINE
  8
CSLAYER1
  6
CONTINUOUS
 62
     6
 10
179.099849
 20
213.206928
 11
179.099849
 21
272.159626
  0
LINE
  8
CSLAYER1
  6
CONTINUOUS
 62
     6
 10
179.099849
 20
272.159626
 11
178.099849
 21
271.159626
  0
LINE
  8
CSLAYER1
  6
CONTINUOUS
 62
     6
 10
178.099849
 20
271.159626
 11
178.099849
 21
214.206928
  0
LINE
  8
CSLAYER1
  6
CONTINUOUS
 62
     6
 10
178.099849
 20
214.206928
 11
179.099849
 21
213.206928
  0
LINE
  8
CSLAYER1
  6
CONTINUOUS
 62
     6
 10
178.099849
 20
217.683277
 11
174.099849
 21
217.683277
  0
LINE
  8
CSLAYER1
  6
CONTINUOUS
 62
     6
 10
174.099849
 20
217.683277
 11
174.099849
 21
267.683277
  0
LINE
  8
CSLAYER1
  6
CONTINUOUS
 62
     6
 10
174.099849
 20
267.683277
 11
178.099849
 21
267.683277
  0
LINE
  8
CSLAYER1
  6
CONTINUOUS
 62
     6
 10
179.099849
 20
272.159626
 11
208.099849
 21
272.683231
  0
ARC
  8
CSLAYER1
  6
CONTINUOUS
 62
     6
 10
173.999813
 20
261.083302
 40
0.100000
 50
0.000000
 51
90.000003
  0
LINE
  8
CSLAYER1
  6
CONTINUOUS
 62
     6
 10
173.999813
 20
261.183277
 11
173.499813
 21
261.183277
  0
ARC
  8
CSLAYER1
  6
CONTINUOUS
 62
     6
 10
173.499813
 20
261.083302
 40
0.100000
 50
90.000003
 51
180.000005
  0
LINE
  8
CSLAYER1
  6
CONTINUOUS
 62
     6
 10
173.399837
 20
261.083302
 11
173.399837
 21
255.483326
  0
ARC
  8
CSLAYER1
  6
CONTINUOUS
 62
     6
 10
173.499813
 20
255.483326
 40
0.100000
 50
180.000005
 51
270.000001
  0
LINE
  8
CSLAYER1
  6
CONTINUOUS
 62
     6
 10
173.499813
 20
255.383289
 11
173.999813
 21
255.383289
  0
ARC
  8
CSLAYER1
  6
CONTINUOUS
 62
     6
 10
173.999813
 20
255.483326
 40
0.100000
 50
270.000001
 51
359.942691
  0
ARC
  8
CSLAYER1
  6
CONTINUOUS
 62
     6
 10
173.199825
 20
255.751576
 40
0.200000
 50
264.999865
 51
359.942691
  0
LINE
  8
CSLAYER1
  6
CONTINUOUS
 62
     6
 10
173.182399
 20
255.552326
 11
172.552578
 21
255.607411
  0
ARC
  8
CSLAYER1
  6
CONTINUOUS
 62
     6
 10
172.639736
 20
256.603626
 40
1.000000
 50
196.257399
 51
264.999892
  0
ARC
  8
CSLAYER1
  6
CONTINUOUS
 62
     6
 10
178.399837
 20
258.283314
 40
7.000000
 50
163.742994
 51
196.257016
  0
ARC
  8
CSLAYER1
  6
CONTINUOUS
 62
     6
 10
172.639736
 20
259.962971
 40
1.000000
 50
95.000111
 51
163.742611
  0
LINE
  8
CSLAYER1
  6
CONTINUOUS
 62
     6
 10
172.552578
 20
260.959156
 11
173.182399
 21
261.014271
  0
ARC
  8
CSLAYER1
  6
CONTINUOUS
 62
     6
 10
173.199825
 20
260.815052
 40
0.200000
 50
0.000000
 51
95.000152
  0
LINE
  8
CSLAYER1
  6
CONTINUOUS
 62
     6
 10
171.946102
 20
260.683231
 11
153.099849
 21
260.683231
  0
LINE
  8
CSLAYER1
  6
CONTINUOUS
 62
     6
 10
153.099849
 20
260.683231
 11
153.099849
 21
265.683308
  0
LINE
  8
CSLAYER1
  6
CONTINUOUS
 62
     6
 10
153.099849
 20
265.683308
 11
141.099849
 21
265.683308
  0
LINE
  8
CSLAYER1
  6
CONTINUOUS
 62
     6
 10
141.099849
 20
265.683308
 11
141.099849
 21
260.683231
  0
LINE
  8
CSLAYER1
  6
CONTINUOUS
 62
     6
 10
141.099849
 20
260.683231
 11
137.099849
 21
260.683231
  0
LINE
  8
CSLAYER1
  6
CONTINUOUS
 62
     6
 10
137.099849
 20
260.683231
 11
136.099849
 21
259.683231
  0
LINE
  8
CSLAYER1
  6
CONTINUOUS
 62
     6
 10
136.099849
 20
259.683231
 11
136.099849
 21
225.683231
  0
LINE
  8
CSLAYER1
  6
CONTINUOUS
 62
     6
 10
136.099849
 20
225.683231
 11
137.099849
 21
224.683231
  0
LINE
  8
CSLAYER1
  6
CONTINUOUS
 62
     6
 10
137.099849
 20
224.683231
 11
141.099849
 21
224.683231
  0
ARC
  8
CSLAYER1
  6
CONTINUOUS
 62
     6
 10
147.099833
 20
207.183289
 40
18.500000
 50
93.098552
 51
108.924617
  0
ARC
  8
CSLAYER1
  6
CONTINUOUS
 62
     6
 10
147.099846
 20
226.476962
 40
1.293673
 50
219.376242
 51
320.623679
  0
LINE
  8
CSLAYER1
  6
CONTINUOUS
 62
     6
 10
148.099849
 20
225.656242
 11
148.099849
 21
259.710278
  0
ARC
  8
CSLAYER1
  6
CONTINUOUS
 62
     6
 10
147.099849
 20
278.183231
 40
18.500000
 50
273.098579
 51
288.924644
  0
LINE
  8
CSLAYER1
  6
CONTINUOUS
 62
     6
 10
154.099849
 20
260.683231
 11
154.099849
 21
224.683277
  0
LINE
  8
CSLAYER1
  6
CONTINUOUS
 62
     6
 10
154.099849
 20
224.683277
 11
171.946895
 21
224.683277
  0
ARC
  8
CSLAYER1
  6
CONTINUOUS
 62
     6
 10
172.639736
 20
225.403599
 40
1.000000
 50
196.257399
 51
264.999892
  0
LINE
  8
CSLAYER1
  6
CONTINUOUS
 62
     6
 10
172.552578
 20
224.407383
 11
173.182399
 21
224.352299
  0
ARC
  8
CSLAYER1
  6
CONTINUOUS
 62
     6
 10
173.199825
 20
224.551548
 40
0.200000
 50
264.999865
 51
359.942691
  0
LINE
  8
CSLAYER1
  6
CONTINUOUS
 62
     6
 10
173.399837
 20
224.283299
 11
173.399837
 21
229.883274
  0
ARC
  8
CSLAYER1
  6
CONTINUOUS
 62
     6
 10
173.499813
 20
229.883274
 40
0.100000
 50
90.000003
 51
180.000005
  0
LINE
  8
CSLAYER1
  6
CONTINUOUS
 62
     6
 10
173.499813
 20
229.983250
 11
173.999813
 21
229.983250
  0
ARC
  8
CSLAYER1
  6
CONTINUOUS
 62
     6
 10
173.999813
 20
229.883274
 40
0.100000
 50
0.000000
 51
90.000003
  0
ARC
  8
CSLAYER1
  6
CONTINUOUS
 62
     6
 10
173.199825
 20
229.615025
 40
0.200000
 50
0.000000
 51
95.000152
  0
LINE
  8
CSLAYER1
  6
CONTINUOUS
 62
     6
 10
173.182399
 20
229.814243
 11
172.552578
 21
229.759129
  0
ARC
  8
CSLAYER1
  6
CONTINUOUS
 62
     6
 10
172.639736
 20
228.762943
 40
1.000000
 50
95.000111
 51
163.742611
  0
ARC
  8
CSLAYER1
  6
CONTINUOUS
 62
     6
 10
178.399837
 20
227.083286
 40
7.000000
 50
163.742994
 51
196.257016
  0
ARC
  8
CSLAYER1
  6
CONTINUOUS
 62
     6
 10
173.499813
 20
224.283299
 40
0.100000
 50
180.000005
 51
270.000001
  0
LINE
  8
CSLAYER1
  6
CONTINUOUS
 62
     6
 10
173.499813
 20
224.183262
 11
173.999813
 21
224.183262
  0
ARC
  8
CSLAYER1
  6
CONTINUOUS
 62
     6
 10
173.999813
 20
224.283299
 40
0.100000
 50
270.000001
 51
359.942691
  0
LINE
  8
CSLAYER1
  6
CONTINUOUS
 62
     6
 10
173.399837
 20
226.487339
 11
174.099819
 21
226.931187
  0
LINE
  8
CSLAYER1
  6
CONTINUOUS
 62
     6
 10
174.099819
 20
227.431187
 11
173.399837
 21
226.987339
  0
LINE
  8
CSLAYER1
  6
CONTINUOUS
 62
     6
 10
154.099841
 20
224.683286
 11
153.099841
 21
224.683287
  0
ARC
  8
CSLAYER1
  6
CONTINUOUS
 62
     6
 10
147.099833
 20
207.183289
 40
18.500000
 50
71.075329
 51
86.901394
  0
LINE
  8
CSLAYER1
  6
CONTINUOUS
 62
     6
 10
146.099849
 20
225.656244
 11
146.099849
 21
259.710278
  0
ARC
  8
CSLAYER1
  6
CONTINUOUS
 62
     6
 10
147.099849
 20
278.183231
 40
18.500000
 50
251.075356
 51
266.901421
  0
LINE
  8
CSLAYER1
  6
CONTINUOUS
 62
     6
 10
137.099849
 20
260.683231
 11
137.099849
 21
232.254719
  0
LINE
  8
CSLAYER1
  6
CONTINUOUS
 62
     6
 10
137.099849
 20
232.254719
 11
141.099849
 21
232.254719
  0
LINE
  8
CSLAYER1
  6
CONTINUOUS
 62
     6
 10
141.099849
 20
232.254719
 11
141.099849
 21
228.012043
  0
LINE
  8
CSLAYER1
  6
CONTINUOUS
 62
     6
 10
141.099849
 20
228.012043
 11
137.099849
 21
228.012043
  0
LINE
  8
CSLAYER1
  6
CONTINUOUS
 62
     6
 10
137.099849
 20
228.012043
 11
136.099849
 21
229.012043
  0
LINE
  8
CSLAYER1
  6
CONTINUOUS
 62
     6
 10
137.099849
 20
228.012043
 11
137.099849
 21
224.683231
  0
LINE
  8
CSLAYER1
  6
CONTINUOUS
 62
     6
 10
141.099849
 20
224.683295
 11
141.099849
 21
219.683155
  0
LINE
  8
CSLAYER1
  6
CONTINUOUS
 62
     6
 10
141.099849
 20
219.683155
 11
153.099849
 21
219.683155
  0
LINE
  8
CSLAYER1
  6
CONTINUOUS
 62
     6
 10
153.099849
 20
219.683155
 11
153.099849
 21
224.683284
  0
ARC
  8
CSLAYER1
  6
CONTINUOUS
 62
     6
 10
140.986293
 20
229.983845
 40
0.100000
 50
270.000001
 51
359.942691
  0
LINE
  8
CSLAYER1
  6
CONTINUOUS
 62
     6
 10
140.986293
 20
229.883808
 11
140.486293
 21
229.883808
  0
ARC
  8
CSLAYER1
  6
CONTINUOUS
 62
     6
 10
140.486293
 20
229.983845
 40
0.100000
 50
179.999991
 51
269.942682
  0
LINE
  8
CSLAYER1
  6
CONTINUOUS
 62
     6
 10
140.386287
 20
229.983845
 11
140.386287
 21
232.254719
  0
ARC
  8
CSLAYER1
  6
CONTINUOUS
 62
     6
 10
145.386287
 20
232.783833
 40
7.000000
 50
184.334839
 51
196.257016
  0
ARC
  8
CSLAYER1
  6
CONTINUOUS
 62
     6
 10
139.626217
 20
231.104145
 40
1.000000
 50
196.257399
 51
264.999892
  0
LINE
  8
CSLAYER1
  6
CONTINUOUS
 62
     6
 10
139.539058
 20
230.107929
 11
140.168880
 21
230.052815
  0
ARC
  8
CSLAYER1
  6
CONTINUOUS
 62
     6
 10
140.186306
 20
230.252094
 40
0.200000
 50
264.999865
 51
359.942691
  0
LINE
  8
CSLAYER1
  6
CONTINUOUS
 62
     6
 10
137.099849
 20
232.254719
 11
136.099849
 21
233.254719
  0
ARC
  8
CSLAYER1
  6
CONTINUOUS
 62
     6
 10
147.099849
 20
258.889568
 40
1.293664
 50
39.376084
 51
140.623916
  0
ARC
  8
CSLAYER1
  6
CONTINUOUS
 62
     6
 10
152.099849
 20
266.183308
 40
0.500000
 50
-89.999999
 51
90.000019
  0
LINE
  8
CSLAYER1
  6
CONTINUOUS
 62
     6
 10
152.849849
 20
266.683308
 11
152.849849
 21
267.683308
  0
LINE
  8
CSLAYER1
  6
CONTINUOUS
 62
     6
 10
152.849849
 20
267.683308
 11
141.349849
 21
267.683308
  0
LINE
  8
CSLAYER1
  6
CONTINUOUS
 62
     6
 10
141.349849
 20
267.683308
 11
141.349849
 21
266.683308
  0
LINE
  8
CSLAYER1
  6
CONTINUOUS
 62
     6
 10
141.349849
 20
266.683308
 11
152.849849
 21
266.683308
  0
ARC
  8
CSLAYER1
  6
CONTINUOUS
 62
     6
 10
142.099849
 20
266.183308
 40
0.500000
 50
90.000003
 51
269.942682
  0
LINE
  8
CSLAYER1
  6
CONTINUOUS
 62
     6
 10
173.399837
 20
258.187367
 11
174.099819
 21
258.631214
  0
LINE
  8
CSLAYER1
  6
CONTINUOUS
 62
     6
 10
174.099819
 20
258.131214
 11
173.399837
 21
257.687367
  0
ARC
  8
CSLAYER1
  6
CONTINUOUS
 62
     6
 10
152.099849
 20
219.183155
 40
0.500000
 50
-90.000019
 51
89.999999
  0
LINE
  8
CSLAYER1
  6
CONTINUOUS
 62
     6
 10
152.849849
 20
218.683155
 11
152.849849
 21
217.683155
  0
LINE
  8
CSLAYER1
  6
CONTINUOUS
 62
     6
 10
152.849849
 20
217.683155
 11
141.349849
 21
217.683155
  0
LINE
  8
CSLAYER1
  6
CONTINUOUS
 62
     6
 10
141.349849
 20
217.683155
 11
141.349849
 21
218.683155
  0
LINE
  8
CSLAYER1
  6
CONTINUOUS
 62
     6
 10
141.349849
 20
218.683155
 11
152.849849
 21
218.683155
  0
ARC
  8
CSLAYER1
  6
CONTINUOUS
 62
     6
 10
142.099849
 20
219.183155
 40
0.500000
 50
90.057318
 51
269.999997
  0
LINE
  8
CSLAYER1
  6
CONTINUOUS
 62
     6
 10
146.099849
 20
164.861002
 11
146.099849
 21
151.998504
  0
LINE
  8
CSLAYER1
  6
CONTINUOUS
 62
     6
 10
148.099849
 20
151.998504
 11
148.099849
 21
164.860936
  0
ARC
  8
CSLAYER1
  6
CONTINUOUS
 62
     6
 10
147.099820
 20
164.046311
 40
1.289831
 50
39.166091
 51
140.829784
  0
LINE
  8
CSLAYER1
  6
CONTINUOUS
 62
     6
 10
146.099849
 20
164.336142
 11
137.099838
 21
164.336143
  0
LINE
  8
CSLAYER1
  6
CONTINUOUS
 62
     6
 10
137.099838
 20
164.336143
 11
136.099839
 21
163.336143
  0
LINE
  8
CSLAYER1
  6
CONTINUOUS
 62
     6
 10
137.099838
 20
164.336143
 11
137.099840
 21
161.007302
  0
LINE
  8
CSLAYER1
  6
CONTINUOUS
 62
     6
 10
137.099840
 20
161.007302
 11
141.099840
 21
161.007304
  0
LINE
  8
CSLAYER1
  6
CONTINUOUS
 62
     6
 10
141.099840
 20
161.007304
 11
141.099843
 21
156.764628
  0
LINE
  8
CSLAYER1
  6
CONTINUOUS
 62
     6
 10
141.099843
 20
156.764628
 11
137.099843
 21
156.764626
  0
LINE
  8
CSLAYER1
  6
CONTINUOUS
 62
     6
 10
137.099843
 20
156.764626
 11
137.099861
 21
128.336143
  0
LINE
  8
CSLAYER1
  6
CONTINUOUS
 62
     6
 10
154.099849
 20
128.336141
 11
154.099849
 21
164.336183
  0
LINE
  8
CSLAYER1
  6
CONTINUOUS
 62
     6
 10
148.099849
 20
164.336142
 11
171.946034
 21
164.336139
  0
ARC
  8
CSLAYER1
  6
CONTINUOUS
 62
     6
 10
178.399837
 20
161.936220
 40
7.000000
 50
163.742994
 51
196.257016
  0
ARC
  8
CSLAYER1
  6
CONTINUOUS
 62
     6
 10
172.639736
 20
160.256532
 40
1.000000
 50
196.257399
 51
264.999892
  0
LINE
  8
CSLAYER1
  6
CONTINUOUS
 62
     6
 10
172.552578
 20
159.260317
 11
173.182399
 21
159.205232
  0
ARC
  8
CSLAYER1
  6
CONTINUOUS
 62
     6
 10
173.199825
 20
159.404482
 40
0.200000
 50
264.999865
 51
359.942691
  0
LINE
  8
CSLAYER1
  6
CONTINUOUS
 62
     6
 10
173.399837
 20
159.136232
 11
173.399837
 21
164.736208
  0
ARC
  8
CSLAYER1
  6
CONTINUOUS
 62
     6
 10
173.499813
 20
164.736208
 40
0.100000
 50
90.000003
 51
180.000005
  0
LINE
  8
CSLAYER1
  6
CONTINUOUS
 62
     6
 10
173.499813
 20
164.836183
 11
173.999813
 21
164.836183
  0
ARC
  8
CSLAYER1
  6
CONTINUOUS
 62
     6
 10
173.999813
 20
164.736208
 40
0.100000
 50
0.000000
 51
90.000003
  0
ARC
  8
CSLAYER1
  6
CONTINUOUS
 62
     6
 10
173.199825
 20
164.467958
 40
0.200000
 50
0.000000
 51
95.000152
  0
LINE
  8
CSLAYER1
  6
CONTINUOUS
 62
     6
 10
173.182399
 20
164.667177
 11
172.552578
 21
164.612062
  0
ARC
  8
CSLAYER1
  6
CONTINUOUS
 62
     6
 10
172.639736
 20
163.615877
 40
1.000000
 50
95.000111
 51
163.742611
  0
LINE
  8
CSLAYER1
  6
CONTINUOUS
 62
     6
 10
173.399837
 20
161.840273
 11
174.099819
 21
162.284120
  0
LINE
  8
CSLAYER1
  6
CONTINUOUS
 62
     6
 10
174.099819
 20
161.784120
 11
173.399837
 21
161.340273
  0
ARC
  8
CSLAYER1
  6
CONTINUOUS
 62
     6
 10
173.499813
 20
159.136232
 40
0.100000
 50
180.000005
 51
270.000001
  0
LINE
  8
CSLAYER1
  6
CONTINUOUS
 62
     6
 10
173.499813
 20
159.036195
 11
173.999813
 21
159.036195
  0
ARC
  8
CSLAYER1
  6
CONTINUOUS
 62
     6
 10
173.999813
 20
159.136232
 40
0.100000
 50
270.000001
 51
359.942691
  0
ARC
  8
CSLAYER1
  6
CONTINUOUS
 62
     6
 10
140.986286
 20
159.035502
 40
0.100000
 50
0.057345
 51
90.000035
  0
LINE
  8
CSLAYER1
  6
CONTINUOUS
 62
     6
 10
140.986285
 20
159.135539
 11
140.486285
 21
159.135539
  0
ARC
  8
CSLAYER1
  6
CONTINUOUS
 62
     6
 10
140.486286
 20
159.035502
 40
0.100000
 50
90.057354
 51
180.000044
  0
LINE
  8
CSLAYER1
  6
CONTINUOUS
 62
     6
 10
140.386279
 20
159.035502
 11
140.386281
 21
156.764628
  0
ARC
  8
CSLAYER1
  6
CONTINUOUS
 62
     6
 10
145.386281
 20
156.235517
 40
7.000000
 50
163.743019
 51
175.665197
  0
ARC
  8
CSLAYER1
  6
CONTINUOUS
 62
     6
 10
139.626209
 20
157.915201
 40
1.000000
 50
95.000143
 51
163.742637
  0
LINE
  8
CSLAYER1
  6
CONTINUOUS
 62
     6
 10
139.539050
 20
158.911417
 11
140.168872
 21
158.966532
  0
ARC
  8
CSLAYER1
  6
CONTINUOUS
 62
     6
 10
140.186298
 20
158.767252
 40
0.200000
 50
0.057345
 51
95.000171
  0
LINE
  8
CSLAYER1
  6
CONTINUOUS
 62
     6
 10
137.099843
 20
156.764626
 11
136.099843
 21
155.764625
  0
LINE
  8
CSLAYER1
  6
CONTINUOUS
 62
     6
 10
136.099841
 20
160.007301
 11
137.099840
 21
161.007302
  0
LINE
  8
CSLAYER1
  6
CONTINUOUS
 62
     6
 10
174.099865
 20
121.336137
 11
178.099849
 21
121.336138
  0
LINE
  8
CSLAYER1
  6
CONTINUOUS
 62
     6
 10
179.099849
 20
116.859832
 11
208.099849
 21
116.336135
  0
LINE
  8
CSLAYER1
  6
CONTINUOUS
 62
     6
 10
198.199855
 20
116.508944
 11
198.199855
 21
110.812716
  0
ARC
  8
CSLAYER1
  6
CONTINUOUS
 62
     6
 10
197.649868
 20
111.765353
 40
1.100006
 50
240.000007
 51
299.999995
  0
ARC
  8
CSLAYER1
  6
CONTINUOUS
 62
     6
 10
196.549862
 20
111.765353
 40
1.100006
 50
240.000007
 51
299.999995
  0
LINE
  8
CSLAYER1
  6
CONTINUOUS
 62
     6
 10
195.999859
 20
110.812716
 11
195.999859
 21
116.547351
  0
ARC
  8
CSLAYER1
  6
CONTINUOUS
 62
     6
 10
197.649868
 20
109.860080
 40
1.100006
 50
60.000002
 51
120.000003
  0
ARC
  8
CSLAYER1
  6
CONTINUOUS
 62
     6
 10
197.649837
 20
106.947894
 40
1.099999
 50
60.000350
 51
120.000345
  0
ARC
  8
CSLAYER1
  6
CONTINUOUS
 62
     6
 10
196.549831
 20
108.853137
 40
1.099999
 50
240.000362
 51
300.000350
  0
ARC
  8
CSLAYER1
  6
CONTINUOUS
 62
     6
 10
196.549839
 20
106.947879
 40
1.099999
 50
60.000350
 51
120.000345
  0
ARC
  8
CSLAYER1
  6
CONTINUOUS
 62
     6
 10
211.758693
 20
107.900485
 40
13.558834
 50
179.999978
 51
207.463868
  0
LINE
  8
CSLAYER1
  6
CONTINUOUS
 62
     6
 10
199.727916
 20
101.647311
 11
197.775859
 21
100.632693
  0
ARC
  8
CSLAYER1
  6
CONTINUOUS
 62
     6
 10
211.758693
 20
107.900485
 40
15.758816
 50
202.422068
 51
207.463868
  0
LINE
  8
CSLAYER1
  6
CONTINUOUS
 62
     6
 10
198.183239
 20
100.844439
 11
199.584743
 21
97.764621
  0
LINE
  8
CSLAYER1
  6
CONTINUOUS
 62
     6
 10
200.158153
 20
98.043979
 11
198.581371
 21
101.051379
  0
LINE
  8
CSLAYER1
  6
CONTINUOUS
 62
     6
 10
199.070293
 20
101.305499
 11
200.687465
 21
98.367442
  0
ARC
  8
CSLAYER1
  6
CONTINUOUS
 62
     6
 10
182.441005
 20
107.900485
 40
15.758816
 50
332.536202
 51
359.942691
  0
ARC
  8
CSLAYER1
  6
CONTINUOUS
 62
     6
 10
182.441005
 20
107.900485
 40
13.558834
 50
332.536202
 51
359.942691
  0
LINE
  8
CSLAYER1
  6
CONTINUOUS
 62
     6
 10
194.471782
 20
101.647326
 11
196.423839
 21
100.632709
  0
LINE
  8
CSLAYER1
  6
CONTINUOUS
 62
     6
 10
196.016460
 20
100.844439
 11
194.614971
 21
97.764636
  0
LINE
  8
CSLAYER1
  6
CONTINUOUS
 62
     6
 10
194.041546
 20
98.043979
 11
195.618328
 21
101.051394
  0
LINE
  8
CSLAYER1
  6
CONTINUOUS
 62
     6
 10
195.129406
 20
101.305530
 11
193.512249
 21
98.367457
  0
LINE
  8
CSLAYER1
  6
CONTINUOUS
 62
     6
 10
208.099849
 20
80.989023
 11
260.099849
 21
80.989023
  0
LINE
  8
CSLAYER1
  6
CONTINUOUS
 62
     6
 10
260.099849
 20
80.989023
 11
260.099849
 21
18.989023
  0
LINE
  8
CSLAYER1
  6
CONTINUOUS
 62
     6
 10
260.099849
 20
18.989023
 11
208.099849
 21
18.989023
  0
LINE
  8
CSLAYER1
  6
CONTINUOUS
 62
     6
 10
208.099849
 20
18.989023
 11
208.099849
 21
80.989023
  0
LINE
  8
CSLAYER1
  6
CONTINUOUS
 62
     6
 10
208.099849
 20
79.989023
 11
179.099849
 21
79.465418
  0
LINE
  8
CSLAYER1
  6
CONTINUOUS
 62
     6
 10
179.099849
 20
79.465418
 11
179.099849
 21
20.512720
  0
LINE
  8
CSLAYER1
  6
CONTINUOUS
 62
     6
 10
179.099849
 20
20.512720
 11
178.099849
 21
21.512720
  0
LINE
  8
CSLAYER1
  6
CONTINUOUS
 62
     6
 10
178.099849
 20
21.512720
 11
178.099849
 21
78.465418
  0
LINE
  8
CSLAYER1
  6
CONTINUOUS
 62
     6
 10
178.099849
 20
78.465418
 11
179.099849
 21
79.465418
  0
LINE
  8
CSLAYER1
  6
CONTINUOUS
 62
     6
 10
178.099849
 20
74.989069
 11
174.099849
 21
74.989069
  0
LINE
  8
CSLAYER1
  6
CONTINUOUS
 62
     6
 10
174.099849
 20
74.989069
 11
174.099849
 21
24.989069
  0
LINE
  8
CSLAYER1
  6
CONTINUOUS
 62
     6
 10
174.099849
 20
24.989069
 11
178.099849
 21
24.989069
  0
LINE
  8
CSLAYER1
  6
CONTINUOUS
 62
     6
 10
179.099849
 20
20.512720
 11
208.099849
 21
19.989023
  0
ARC
  8
CSLAYER1
  6
CONTINUOUS
 62
     6
 10
197.099849
 20
48.889063
 40
1.100006
 50
-90.000027
 51
89.999992
  0
ARC
  8
CSLAYER1
  6
CONTINUOUS
 62
     6
 10
197.099849
 20
51.089075
 40
1.100006
 50
-89.999999
 51
90.000019
  0
LINE
  8
CSLAYER1
  6
CONTINUOUS
 62
     6
 10
197.099849
 20
52.189051
 11
191.666378
 21
52.189051
  0
ARC
  8
CSLAYER1
  6
CONTINUOUS
 62
     6
 10
192.619014
 20
51.639078
 40
1.100006
 50
149.999997
 51
209.999999
  0
ARC
  8
CSLAYER1
  6
CONTINUOUS
 62
     6
 10
192.619014
 20
50.539072
 40
1.100006
 50
149.999997
 51
209.999999
  0
ARC
  8
CSLAYER1
  6
CONTINUOUS
 62
     6
 10
192.619014
 20
49.439066
 40
1.100006
 50
149.999997
 51
209.999999
  0
ARC
  8
CSLAYER1
  6
CONTINUOUS
 62
     6
 10
192.619014
 20
48.339060
 40
1.100006
 50
149.999997
 51
209.999999
  0
ARC
  8
CSLAYER1
  6
CONTINUOUS
 62
     6
 10
190.713741
 20
48.339060
 40
1.100006
 50
-30.000011
 51
29.999977
  0
LINE
  8
CSLAYER1
  6
CONTINUOUS
 62
     6
 10
191.666378
 20
47.789087
 11
197.099849
 21
47.789087
  0
LINE
  8
CSLAYER1
  6
CONTINUOUS
 62
     6
 10
198.199855
 20
48.889063
 11
198.199855
 21
51.089075
  0
LINE
  8
CSLAYER1
  6
CONTINUOUS
 62
     6
 10
197.099849
 20
49.989069
 11
191.666378
 21
49.989069
  0
ARC
  8
CSLAYER1
  6
CONTINUOUS
 62
     6
 10
190.713741
 20
50.539072
 40
1.100006
 50
-30.000011
 51
29.999977
  0
ARC
  8
CSLAYER1
  6
CONTINUOUS
 62
     6
 10
189.074779
 20
50.539103
 40
1.099999
 50
-29.999656
 51
30.000332
  0
ARC
  8
CSLAYER1
  6
CONTINUOUS
 62
     6
 10
190.980022
 20
49.439097
 40
1.099999
 50
150.000353
 51
210.000354
  0
ARC
  8
CSLAYER1
  6
CONTINUOUS
 62
     6
 10
189.074764
 20
49.439081
 40
1.099999
 50
-29.999656
 51
30.000332
  0
LINE
  8
CSLAYER1
  6
CONTINUOUS
 62
     6
 10
190.027401
 20
49.989039
 11
188.754146
 21
49.989039
  0
ARC
  8
CSLAYER1
  6
CONTINUOUS
 62
     6
 10
188.754146
 20
34.230249
 40
15.758816
 50
90.000003
 51
117.463872
  0
LINE
  8
CSLAYER1
  6
CONTINUOUS
 62
     6
 10
181.486354
 20
48.213038
 11
182.500972
 21
46.261011
  0
ARC
  8
CSLAYER1
  6
CONTINUOUS
 62
     6
 10
188.754146
 20
34.230219
 40
13.558834
 50
89.999975
 51
117.463872
  0
LINE
  8
CSLAYER1
  6
CONTINUOUS
 62
     6
 10
188.754177
 20
47.789087
 11
190.027401
 21
47.789087
  0
ARC
  8
CSLAYER1
  6
CONTINUOUS
 62
     6
 10
189.074779
 20
48.339090
 40
1.099999
 50
-29.999656
 51
30.000332
  0
ARC
  8
CSLAYER1
  6
CONTINUOUS
 62
     6
 10
197.099849
 20
49.989069
 40
8.000000
 50
-164.038116
 51
164.037904
  0
ARC
  8
CSLAYER1
  6
CONTINUOUS
 62
     6
 10
189.074764
 20
51.639093
 40
1.099999
 50
-29.999656
 51
30.000332
  0
ARC
  8
CSLAYER1
  6
CONTINUOUS
 62
     6
 10
190.980022
 20
51.639109
 40
1.099999
 50
150.000353
 51
210.000354
  0
LINE
  8
CSLAYER1
  6
CONTINUOUS
 62
     6
 10
190.027401
 20
52.189081
 11
188.754177
 21
52.189081
  0
ARC
  8
CSLAYER1
  6
CONTINUOUS
 62
     6
 10
188.754146
 20
65.747919
 40
13.558834
 50
242.536193
 51
269.942682
  0
LINE
  8
CSLAYER1
  6
CONTINUOUS
 62
     6
 10
182.501003
 20
53.717127
 11
181.486385
 21
51.765101
  0
ARC
  8
CSLAYER1
  6
CONTINUOUS
 62
     6
 10
188.754146
 20
65.747919
 40
15.758816
 50
242.536193
 51
269.942682
  0
LINE
  8
CSLAYER1
  6
CONTINUOUS
 62
     6
 10
182.159206
 20
53.059534
 11
179.221126
 21
54.676661
  0
LINE
  8
CSLAYER1
  6
CONTINUOUS
 62
     6
 10
179.897640
 20
54.147364
 11
181.905056
 21
52.570582
  0
LINE
  8
CSLAYER1
  6
CONTINUOUS
 62
     6
 10
181.698116
 20
52.172449
 11
179.618312
 21
53.573938
  0
LINE
  8
CSLAYER1
  6
CONTINUOUS
 62
     6
 10
181.698116
 20
47.805689
 11
179.618282
 21
46.404169
  0
LINE
  8
CSLAYER1
  6
CONTINUOUS
 62
     6
 10
179.897640
 20
45.830774
 11
181.905056
 21
47.407557
  0
LINE
  8
CSLAYER1
  6
CONTINUOUS
 62
     6
 10
182.159176
 20
46.918604
 11
179.221096
 21
45.301447
  0
ARC
  8
CSLAYER1
  6
CONTINUOUS
 62
     6
 10
173.999813
 20
37.189066
 40
0.100000
 50
0.000000
 51
90.000003
  0
LINE
  8
CSLAYER1
  6
CONTINUOUS
 62
     6
 10
173.999813
 20
37.289042
 11
173.499813
 21
37.289042
  0
ARC
  8
CSLAYER1
  6
CONTINUOUS
 62
     6
 10
173.499813
 20
37.189066
 40
0.100000
 50
90.000003
 51
180.000005
  0
LINE
  8
CSLAYER1
  6
CONTINUOUS
 62
     6
 10
173.399837
 20
37.189066
 11
173.399837
 21
31.589090
  0
ARC
  8
CSLAYER1
  6
CONTINUOUS
 62
     6
 10
173.499813
 20
31.589090
 40
0.100000
 50
180.000005
 51
270.000001
  0
LINE
  8
CSLAYER1
  6
CONTINUOUS
 62
     6
 10
173.499813
 20
31.489054
 11
173.999813
 21
31.489054
  0
ARC
  8
CSLAYER1
  6
CONTINUOUS
 62
     6
 10
173.999813
 20
31.589090
 40
0.100000
 50
270.000001
 51
359.942691
  0
ARC
  8
CSLAYER1
  6
CONTINUOUS
 62
     6
 10
173.199825
 20
31.857340
 40
0.200000
 50
264.999865
 51
359.942691
  0
LINE
  8
CSLAYER1
  6
CONTINUOUS
 62
     6
 10
173.182399
 20
31.658091
 11
172.552578
 21
31.713175
  0
ARC
  8
CSLAYER1
  6
CONTINUOUS
 62
     6
 10
172.639736
 20
32.709391
 40
1.000000
 50
196.257399
 51
264.999892
  0
ARC
  8
CSLAYER1
  6
CONTINUOUS
 62
     6
 10
178.399837
 20
34.389078
 40
7.000000
 50
163.742994
 51
196.257016
  0
ARC
  8
CSLAYER1
  6
CONTINUOUS
 62
     6
 10
172.639736
 20
36.068735
 40
1.000000
 50
95.000111
 51
163.742611
  0
LINE
  8
CSLAYER1
  6
CONTINUOUS
 62
     6
 10
172.552578
 20
37.064921
 11
173.182399
 21
37.120035
  0
ARC
  8
CSLAYER1
  6
CONTINUOUS
 62
     6
 10
173.199825
 20
36.920817
 40
0.200000
 50
0.000000
 51
95.000152
  0
LINE
  8
CSLAYER1
  6
CONTINUOUS
 62
     6
 10
174.099819
 20
34.736979
 11
173.399837
 21
34.293131
  0
LINE
  8
CSLAYER1
  6
CONTINUOUS
 62
     6
 10
173.399837
 20
33.793131
 11
174.099819
 21
34.236979
  0
LINE
  8
CSLAYER1
  6
CONTINUOUS
 62
     6
 10
171.946895
 20
31.989069
 11
154.099849
 21
31.989069
  0
LINE
  8
CSLAYER1
  6
CONTINUOUS
 62
     6
 10
154.099849
 20
31.989069
 11
154.099849
 21
67.989023
  0
LINE
  8
CSLAYER1
  6
CONTINUOUS
 62
     6
 10
154.099849
 20
67.989023
 11
171.946102
 21
67.989023
  0
ARC
  8
CSLAYER1
  6
CONTINUOUS
 62
     6
 10
178.399837
 20
65.589106
 40
7.000000
 50
163.742994
 51
196.257016
  0
ARC
  8
CSLAYER1
  6
CONTINUOUS
 62
     6
 10
172.639736
 20
63.909418
 40
1.000000
 50
196.257399
 51
264.999892
  0
LINE
  8
CSLAYER1
  6
CONTINUOUS
 62
     6
 10
172.552578
 20
62.913202
 11
173.182399
 21
62.858118
  0
ARC
  8
CSLAYER1
  6
CONTINUOUS
 62
     6
 10
173.199825
 20
63.057367
 40
0.200000
 50
264.999865
 51
359.942691
  0
LINE
  8
CSLAYER1
  6
CONTINUOUS
 62
     6
 10
173.399837
 20
62.789118
 11
173.399837
 21
68.389093
  0
ARC
  8
CSLAYER1
  6
CONTINUOUS
 62
     6
 10
173.499813
 20
68.389093
 40
0.100000
 50
90.000003
 51
180.000005
  0
LINE
  8
CSLAYER1
  6
CONTINUOUS
 62
     6
 10
173.499813
 20
68.489069
 11
173.999813
 21
68.489069
  0
ARC
  8
CSLAYER1
  6
CONTINUOUS
 62
     6
 10
173.999813
 20
68.389093
 40
0.100000
 50
0.000000
 51
90.000003
  0
ARC
  8
CSLAYER1
  6
CONTINUOUS
 62
     6
 10
173.199825
 20
68.120844
 40
0.200000
 50
0.000000
 51
95.000152
  0
LINE
  8
CSLAYER1
  6
CONTINUOUS
 62
     6
 10
173.182399
 20
68.320063
 11
172.552578
 21
68.264948
  0
ARC
  8
CSLAYER1
  6
CONTINUOUS
 62
     6
 10
172.639736
 20
67.268763
 40
1.000000
 50
95.000111
 51
163.742611
  0
LINE
  8
CSLAYER1
  6
CONTINUOUS
 62
     6
 10
173.399837
 20
65.493158
 11
174.099819
 21
65.937006
  0
LINE
  8
CSLAYER1
  6
CONTINUOUS
 62
     6
 10
174.099819
 20
65.437006
 11
173.399837
 21
64.993158
  0
ARC
  8
CSLAYER1
  6
CONTINUOUS
 62
     6
 10
173.499813
 20
62.789118
 40
0.100000
 50
180.000005
 51
270.000001
  0
LINE
  8
CSLAYER1
  6
CONTINUOUS
 62
     6
 10
173.499813
 20
62.689081
 11
173.999813
 21
62.689081
  0
ARC
  8
CSLAYER1
  6
CONTINUOUS
 62
     6
 10
173.999813
 20
62.789118
 40
0.100000
 50
270.000001
 51
359.942691
  0
LINE
  8
CSLAYER1
  6
CONTINUOUS
 62
     6
 10
154.099849
 20
67.988996
 11
153.099849
 21
67.988996
  0
LINE
  8
CSLAYER1
  6
CONTINUOUS
 62
     6
 10
153.099849
 20
67.988996
 11
153.099849
 21
72.989100
  0
LINE
  8
CSLAYER1
  6
CONTINUOUS
 62
     6
 10
153.099849
 20
72.989100
 11
141.099849
 21
72.989100
  0
LINE
  8
CSLAYER1
  6
CONTINUOUS
 62
     6
 10
141.099849
 20
72.989100
 11
141.099849
 21
67.989023
  0
LINE
  8
CSLAYER1
  6
CONTINUOUS
 62
     6
 10
141.099849
 20
67.989023
 11
137.099849
 21
67.989023
  0
LINE
  8
CSLAYER1
  6
CONTINUOUS
 62
     6
 10
137.099849
 20
67.989023
 11
136.099849
 21
66.989023
  0
LINE
  8
CSLAYER1
  6
CONTINUOUS
 62
     6
 10
136.099849
 20
66.989023
 11
136.099849
 21
32.989023
  0
LINE
  8
CSLAYER1
  6
CONTINUOUS
 62
     6
 10
136.099849
 20
32.989023
 11
137.099849
 21
31.989023
  0
LINE
  8
CSLAYER1
  6
CONTINUOUS
 62
     6
 10
137.099849
 20
31.989023
 11
141.099849
 21
31.989023
  0
ARC
  8
CSLAYER1
  6
CONTINUOUS
 62
     6
 10
147.099833
 20
14.489054
 40
18.500000
 50
93.098552
 51
108.924617
  0
ARC
  8
CSLAYER1
  6
CONTINUOUS
 62
     6
 10
147.099846
 20
33.782726
 40
1.293673
 50
219.376242
 51
320.623679
  0
LINE
  8
CSLAYER1
  6
CONTINUOUS
 62
     6
 10
148.099849
 20
32.962006
 11
148.099849
 21
67.016043
  0
ARC
  8
CSLAYER1
  6
CONTINUOUS
 62
     6
 10
147.099849
 20
85.488996
 40
18.500000
 50
273.098579
 51
288.924644
  0
LINE
  8
CSLAYER1
  6
CONTINUOUS
 62
     6
 10
150.599819
 20
68.989100
 11
150.599819
 21
72.989100
  0
LINE
  8
CSLAYER1
  6
CONTINUOUS
 62
     6
 10
149.099849
 20
72.989069
 11
149.099849
 21
70.389063
  0
LINE
  8
CSLAYER1
  6
CONTINUOUS
 62
     6
 10
149.099849
 20
70.389063
 11
148.499843
 21
70.389063
  0
LINE
  8
CSLAYER1
  6
CONTINUOUS
 62
     6
 10
148.499843
 20
70.889063
 11
148.499843
 21
69.083368
  0
LINE
  8
CSLAYER1
  6
CONTINUOUS
 62
     6
 10
148.499843
 20
69.083368
 11
148.099849
 21
68.783350
  0
LINE
  8
CSLAYER1
  6
CONTINUOUS
 62
     6
 10
148.099849
 20
68.783350
 11
146.099849
 21
68.783350
  0
LINE
  8
CSLAYER1
  6
CONTINUOUS
 62
     6
 10
146.099849
 20
68.783350
 11
145.699855
 21
69.083368
  0
LINE
  8
CSLAYER1
  6
CONTINUOUS
 62
     6
 10
145.699855
 20
69.083368
 11
145.699855
 21
70.889063
  0
LINE
  8
CSLAYER1
  6
CONTINUOUS
 62
     6
 10
145.699825
 20
70.389063
 11
145.099849
 21
70.389063
  0
LINE
  8
CSLAYER1
  6
CONTINUOUS
 62
     6
 10
145.099849
 20
70.389063
 11
145.099849
 21
72.989069
  0
LINE
  8
CSLAYER1
  6
CONTINUOUS
 62
     6
 10
143.599849
 20
72.989100
 11
143.599849
 21
68.989100
  0
LINE
  8
CSLAYER1
  6
CONTINUOUS
 62
     6
 10
143.599849
 20
68.989100
 11
145.825538
 21
68.989100
  0
LINE
  8
CSLAYER1
  6
CONTINUOUS
 62
     6
 10
146.095577
 20
69.000513
 11
148.095577
 21
69.000513
  0
LINE
  8
CSLAYER1
  6
CONTINUOUS
 62
     6
 10
148.095577
 20
69.000513
 11
148.499843
 21
69.303682
  0
LINE
  8
CSLAYER1
  6
CONTINUOUS
 62
     6
 10
148.374161
 20
68.989100
 11
150.599819
 21
68.989100
  0
LINE
  8
CSLAYER1
  6
CONTINUOUS
 62
     6
 10
149.099849
 20
70.889063
 11
145.099849
 21
70.889063
  0
LINE
  8
CSLAYER1
  6
CONTINUOUS
 62
     6
 10
145.699855
 20
69.297297
 11
146.095577
 21
69.000513
  0
CIRCLE
  8
CSLAYER1
  6
CONTINUOUS
 62
     6
 10
147.100948
 20
69.691126
 40
0.470497
  0
ARC
  8
CSLAYER1
  6
CONTINUOUS
 62
     6
 10
147.099849
 20
66.195332
 40
1.293664
 50
39.376084
 51
140.623916
  0
LINE
  8
CSLAYER1
  6
CONTINUOUS
 62
     6
 10
146.099849
 20
67.016043
 11
146.099849
 21
32.962008
  0
LINE
  8
CSLAYER1
  6
CONTINUOUS
 62
     6
 10
146.099849
 20
31.194697
 11
148.099849
 21
31.194697
  0
LINE
  8
CSLAYER1
  6
CONTINUOUS
 62
     6
 10
148.099849
 20
31.194697
 11
148.499843
 21
30.894678
  0
LINE
  8
CSLAYER1
  6
CONTINUOUS
 62
     6
 10
148.499843
 20
30.894678
 11
148.499843
 21
29.088984
  0
LINE
  8
CSLAYER1
  6
CONTINUOUS
 62
     6
 10
148.499843
 20
29.588984
 11
149.099849
 21
29.588984
  0
LINE
  8
CSLAYER1
  6
CONTINUOUS
 62
     6
 10
149.099849
 20
29.588984
 11
149.099849
 21
26.988978
  0
LINE
  8
CSLAYER1
  6
CONTINUOUS
 62
     6
 10
150.599819
 20
26.988947
 11
150.599819
 21
30.988947
  0
LINE
  8
CSLAYER1
  6
CONTINUOUS
 62
     6
 10
150.599819
 20
30.988947
 11
148.374161
 21
30.988947
  0
LINE
  8
CSLAYER1
  6
CONTINUOUS
 62
     6
 10
148.095577
 20
30.977533
 11
146.095577
 21
30.977533
  0
LINE
  8
CSLAYER1
  6
CONTINUOUS
 62
     6
 10
146.095577
 20
30.977533
 11
145.699855
 21
30.680750
  0
LINE
  8
CSLAYER1
  6
CONTINUOUS
 62
     6
 10
145.699855
 20
30.894678
 11
145.699855
 21
29.088984
  0
LINE
  8
CSLAYER1
  6
CONTINUOUS
 62
     6
 10
145.699825
 20
29.588984
 11
145.099849
 21
29.588984
  0
LINE
  8
CSLAYER1
  6
CONTINUOUS
 62
     6
 10
145.099849
 20
29.588984
 11
145.099849
 21
26.988978
  0
LINE
  8
CSLAYER1
  6
CONTINUOUS
 62
     6
 10
143.599849
 20
26.988947
 11
143.599849
 21
30.988947
  0
LINE
  8
CSLAYER1
  6
CONTINUOUS
 62
     6
 10
143.599849
 20
30.988947
 11
145.825538
 21
30.988947
  0
LINE
  8
CSLAYER1
  6
CONTINUOUS
 62
     6
 10
145.699855
 20
30.894678
 11
146.099849
 21
31.194697
  0
CIRCLE
  8
CSLAYER1
  6
CONTINUOUS
 62
     6
 10
147.100948
 20
30.286921
 40
0.470497
  0
LINE
  8
CSLAYER1
  6
CONTINUOUS
 62
     6
 10
148.095577
 20
30.977533
 11
148.499843
 21
30.674365
  0
LINE
  8
CSLAYER1
  6
CONTINUOUS
 62
     6
 10
149.099849
 20
29.088984
 11
145.099849
 21
29.088984
  0
ARC
  8
CSLAYER1
  6
CONTINUOUS
 62
     6
 10
142.099849
 20
26.488947
 40
0.500000
 50
90.057318
 51
269.999997
  0
LINE
  8
CSLAYER1
  6
CONTINUOUS
 62
     6
 10
141.349849
 20
25.988947
 11
141.349849
 21
24.988947
  0
LINE
  8
CSLAYER1
  6
CONTINUOUS
 62
     6
 10
141.349849
 20
24.988947
 11
152.849849
 21
24.988947
  0
LINE
  8
CSLAYER1
  6
CONTINUOUS
 62
     6
 10
152.849849
 20
24.988947
 11
152.849849
 21
25.988947
  0
LINE
  8
CSLAYER1
  6
CONTINUOUS
 62
     6
 10
152.849849
 20
25.988947
 11
141.349849
 21
25.988947
  0
LINE
  8
CSLAYER1
  6
CONTINUOUS
 62
     6
 10
141.099849
 20
26.988947
 11
141.099849
 21
31.989060
  0
LINE
  8
CSLAYER1
  6
CONTINUOUS
 62
     6
 10
141.099849
 20
35.317835
 11
141.099849
 21
39.560511
  0
LINE
  8
CSLAYER1
  6
CONTINUOUS
 62
     6
 10
141.099849
 20
39.560511
 11
137.099849
 21
39.560511
  0
LINE
  8
CSLAYER1
  6
CONTINUOUS
 62
     6
 10
137.099849
 20
39.560511
 11
136.099849
 21
40.560511
  0
LINE
  8
CSLAYER1
  6
CONTINUOUS
 62
     6
 10
137.099849
 20
39.560511
 11
137.099849
 21
67.989023
  0
ARC
  8
CSLAYER1
  6
CONTINUOUS
 62
     6
 10
147.099849
 20
85.488996
 40
18.500000
 50
251.075356
 51
266.901421
  0
ARC
  8
CSLAYER1
  6
CONTINUOUS
 62
     6
 10
142.099849
 20
73.489100
 40
0.500000
 50
90.000003
 51
269.942682
  0
LINE
  8
CSLAYER1
  6
CONTINUOUS
 62
     6
 10
141.349849
 20
73.989100
 11
141.349849
 21
74.989100
  0
LINE
  8
CSLAYER1
  6
CONTINUOUS
 62
     6
 10
141.349849
 20
74.989100
 11
152.849849
 21
74.989100
  0
LINE
  8
CSLAYER1
  6
CONTINUOUS
 62
     6
 10
152.849849
 20
74.989100
 11
152.849849
 21
73.989100
  0
LINE
  8
CSLAYER1
  6
CONTINUOUS
 62
     6
 10
152.849849
 20
73.989100
 11
141.349849
 21
73.989100
  0
ARC
  8
CSLAYER1
  6
CONTINUOUS
 62
     6
 10
152.099849
 20
73.489100
 40
0.500000
 50
-89.999999
 51
90.000019
  0
LINE
  8
CSLAYER1
  6
CONTINUOUS
 62
     6
 10
140.386287
 20
39.560511
 11
140.386287
 21
37.289637
  0
ARC
  8
CSLAYER1
  6
CONTINUOUS
 62
     6
 10
140.486293
 20
37.289637
 40
0.100000
 50
179.999991
 51
269.942682
  0
LINE
  8
CSLAYER1
  6
CONTINUOUS
 62
     6
 10
140.486293
 20
37.189600
 11
140.986293
 21
37.189600
  0
ARC
  8
CSLAYER1
  6
CONTINUOUS
 62
     6
 10
140.986293
 20
37.289637
 40
0.100000
 50
270.000001
 51
359.942691
  0
ARC
  8
CSLAYER1
  6
CONTINUOUS
 62
     6
 10
140.186306
 20
37.557886
 40
0.200000
 50
264.999865
 51
359.942691
  0
LINE
  8
CSLAYER1
  6
CONTINUOUS
 62
     6
 10
140.168880
 20
37.358606
 11
139.539058
 21
37.413721
  0
ARC
  8
CSLAYER1
  6
CONTINUOUS
 62
     6
 10
139.626217
 20
38.409937
 40
1.000000
 50
196.257399
 51
264.999892
  0
ARC
  8
CSLAYER1
  6
CONTINUOUS
 62
     6
 10
145.386287
 20
40.089624
 40
7.000000
 50
184.334839
 51
196.257016
  0
LINE
  8
CSLAYER1
  6
CONTINUOUS
 62
     6
 10
136.099849
 20
36.317835
 11
137.099849
 21
35.317835
  0
LINE
  8
CSLAYER1
  6
CONTINUOUS
 62
     6
 10
137.099849
 20
35.317835
 11
141.099849
 21
35.317835
  0
LINE
  8
CSLAYER1
  6
CONTINUOUS
 62
     6
 10
137.099849
 20
35.317835
 11
137.099849
 21
31.989023
  0
LINE
  8
CSLAYER1
  6
CONTINUOUS
 62
     6
 10
141.099849
 20
26.988947
 11
153.099849
 21
26.988947
  0
LINE
  8
CSLAYER1
  6
CONTINUOUS
 62
     6
 10
153.099849
 20
26.988947
 11
153.099849
 21
31.989048
  0
LINE
  8
CSLAYER1
  6
CONTINUOUS
 62
     6
 10
153.099841
 20
31.989051
 11
154.099841
 21
31.989051
  0
ARC
  8
CSLAYER1
  6
CONTINUOUS
 62
     6
 10
147.099833
 20
14.489054
 40
18.500000
 50
71.075329
 51
86.901394
  0
ARC
  8
CSLAYER1
  6
CONTINUOUS
 62
     6
 10
152.099849
 20
26.488947
 40
0.500000
 50
-90.000019
 51
89.999999
  0
LINE
  8
CSLAYER1
  6
CONTINUOUS
 62
     6
 10
260.099849
 20
19.989023
 11
261.099849
 21
19.989023
  0
LINE
  8
CSLAYER1
  6
CONTINUOUS
 62
     6
 10
261.099849
 20
19.989023
 11
261.099849
 21
79.989023
  0
ARC
  8
CSLAYER1
  6
CONTINUOUS
 62
     6
 10
263.099849
 20
79.989023
 40
2.000000
 50
90.000000
 51
180.000000
  0
LINE
  8
CSLAYER1
  6
CONTINUOUS
 62
     6
 10
263.099849
 20
81.989023
 11
270.099849
 21
81.989023
  0
LINE
  8
CSLAYER1
  6
CONTINUOUS
 62
     6
 10
270.099849
 20
81.989023
 11
270.099849
 21
17.989023
  0
LINE
  8
CSLAYER1
  6
CONTINUOUS
 62
     6
 10
270.099849
 20
17.989023
 11
263.099849
 21
17.989023
  0
ARC
  8
CSLAYER1
  6
CONTINUOUS
 62
     6
 10
263.099849
 20
19.989023
 40
2.000000
 50
180.000000
 51
270.000000
  0
LINE
  8
CSLAYER1
  6
CONTINUOUS
 62
     6
 10
270.099849
 20
34.989023
 11
272.099849
 21
34.989023
  0
LINE
  8
CSLAYER1
  6
CONTINUOUS
 62
     6
 10
272.099849
 20
34.989023
 11
272.099849
 21
64.989023
  0
LINE
  8
CSLAYER1
  6
CONTINUOUS
 62
     6
 10
272.099849
 20
64.989023
 11
270.099849
 21
64.989023
  0
LINE
  8
CSLAYER1
  6
CONTINUOUS
 62
     6
 10
272.099849
 20
53.989023
 11
296.599849
 21
53.989023
  0
LINE
  8
CSLAYER1
  6
CONTINUOUS
 62
     6
 10
296.599849
 20
53.989023
 11
296.599849
 21
45.989023
  0
LINE
  8
CSLAYER1
  6
CONTINUOUS
 62
     6
 10
296.599849
 20
45.989023
 11
272.099849
 21
45.989023
  0
LINE
  8
CSLAYER1
  6
CONTINUOUS
 62
     6
 10
261.099849
 20
79.989023
 11
260.099849
 21
79.989023
  0
LINE
  8
CSLAYER1
  6
CONTINUOUS
 62
     6
 10
263.099849
 20
114.336129
 11
270.099849
 21
114.336129
  0
LINE
  8
CSLAYER1
  6
CONTINUOUS
 62
     6
 10
270.099849
 20
114.336129
 11
270.099849
 21
178.336129
  0
LINE
  8
CSLAYER1
  6
CONTINUOUS
 62
     6
 10
270.099849
 20
178.336129
 11
263.099849
 21
178.336129
  0
ARC
  8
CSLAYER1
  6
CONTINUOUS
 62
     6
 10
263.099849
 20
176.336129
 40
2.000000
 50
90.000000
 51
180.000000
  0
LINE
  8
CSLAYER1
  6
CONTINUOUS
 62
     6
 10
261.099849
 20
176.336129
 11
261.099849
 21
116.336129
  0
ARC
  8
CSLAYER1
  6
CONTINUOUS
 62
     6
 10
263.099849
 20
116.336129
 40
2.000000
 50
180.000000
 51
270.000000
  0
LINE
  8
CSLAYER1
  6
CONTINUOUS
 62
     6
 10
261.099849
 20
116.336129
 11
260.099849
 21
116.336129
  0
LINE
  8
CSLAYER1
  6
CONTINUOUS
 62
     6
 10
270.099849
 20
131.336129
 11
272.099849
 21
131.336129
  0
LINE
  8
CSLAYER1
  6
CONTINUOUS
 62
     6
 10
272.099849
 20
131.336129
 11
272.099849
 21
161.336129
  0
LINE
  8
CSLAYER1
  6
CONTINUOUS
 62
     6
 10
272.099849
 20
161.336129
 11
270.099849
 21
161.336129
  0
LINE
  8
CSLAYER1
  6
CONTINUOUS
 62
     6
 10
272.099849
 20
150.336129
 11
296.599849
 21
150.336129
  0
LINE
  8
CSLAYER1
  6
CONTINUOUS
 62
     6
 10
296.599849
 20
150.336129
 11
296.599849
 21
142.336129
  0
LINE
  8
CSLAYER1
  6
CONTINUOUS
 62
     6
 10
296.599849
 20
142.336129
 11
272.099849
 21
142.336129
  0
LINE
  8
CSLAYER1
  6
CONTINUOUS
 62
     6
 10
261.099849
 20
176.336129
 11
260.099849
 21
176.336129
  0
LINE
  8
CSLAYER1
  6
CONTINUOUS
 62
     6
 10
263.099849
 20
210.683231
 11
270.099849
 21
210.683231
  0
LINE
  8
CSLAYER1
  6
CONTINUOUS
 62
     6
 10
270.099849
 20
210.683231
 11
270.099849
 21
274.683231
  0
LINE
  8
CSLAYER1
  6
CONTINUOUS
 62
     6
 10
270.099849
 20
274.683231
 11
263.099849
 21
274.683231
  0
ARC
  8
CSLAYER1
  6
CONTINUOUS
 62
     6
 10
263.099849
 20
272.683231
 40
2.000000
 50
90.000000
 51
180.000000
  0
LINE
  8
CSLAYER1
  6
CONTINUOUS
 62
     6
 10
261.099849
 20
272.683231
 11
261.099849
 21
212.683231
  0
ARC
  8
CSLAYER1
  6
CONTINUOUS
 62
     6
 10
263.099849
 20
212.683231
 40
2.000000
 50
180.000000
 51
270.000000
  0
LINE
  8
CSLAYER1
  6
CONTINUOUS
 62
     6
 10
261.099849
 20
212.683231
 11
260.099849
 21
212.683231
  0
LINE
  8
CSLAYER1
  6
CONTINUOUS
 62
     6
 10
270.099849
 20
227.683231
 11
272.099849
 21
227.683231
  0
LINE
  8
CSLAYER1
  6
CONTINUOUS
 62
     6
 10
272.099849
 20
227.683231
 11
272.099849
 21
257.683231
  0
LINE
  8
CSLAYER1
  6
CONTINUOUS
 62
     6
 10
272.099849
 20
257.683231
 11
270.099849
 21
257.683231
  0
LINE
  8
CSLAYER1
  6
CONTINUOUS
 62
     6
 10
272.099849
 20
246.683231
 11
296.599849
 21
246.683231
  0
LINE
  8
CSLAYER1
  6
CONTINUOUS
 62
     6
 10
296.599849
 20
246.683231
 11
296.599849
 21
238.683231
  0
LINE
  8
CSLAYER1
  6
CONTINUOUS
 62
     6
 10
296.599849
 20
238.683231
 11
272.099849
 21
238.683231
  0
LINE
  8
CSLAYER1
  6
CONTINUOUS
 62
     6
 10
261.099849
 20
272.683231
 11
260.099849
 21
272.683231
  0
LINE
  8
CSLAYER1
  6
CONTINUOUS
 62
     6
 10
324.599849
 20
178.336135
 11
376.599849
 21
178.336135
  0
ARC
  8
CSLAYER1
  6
CONTINUOUS
 62
     6
 10
376.599849
 20
172.336135
 40
6.000000
 50
-0.000003
 51
90.000000
  0
LINE
  8
CSLAYER1
  6
CONTINUOUS
 62
     6
 10
382.599849
 20
172.336135
 11
382.599849
 21
120.336196
  0
ARC
  8
CSLAYER1
  6
CONTINUOUS
 62
     6
 10
376.599849
 20
120.336135
 40
6.000000
 50
-90.000000
 51
0.000003
  0
LINE
  8
CSLAYER1
  6
CONTINUOUS
 62
     6
 10
376.599849
 20
114.336196
 11
324.599849
 21
114.336196
  0
ARC
  8
CSLAYER1
  6
CONTINUOUS
 62
     6
 10
324.599849
 20
120.336135
 40
6.000000
 50
180.000000
 51
270.000003
  0
LINE
  8
CSLAYER1
  6
CONTINUOUS
 62
     6
 10
318.599849
 20
120.336196
 11
318.599849
 21
172.336135
  0
ARC
  8
CSLAYER1
  6
CONTINUOUS
 62
     6
 10
324.599849
 20
172.336135
 40
6.000000
 50
90.000000
 51
180.000003
  0
CIRCLE
  8
CSLAYER1
  6
CONTINUOUS
 62
     6
 10
324.599849
 20
172.336135
 40
2.250000
  0
ARC
  8
CSLAYER1
  6
CONTINUOUS
 62
     6
 10
333.629329
 20
163.306685
 40
2.397500
 50
163.398424
 51
196.601586
  0
LINE
  8
CSLAYER1
  6
CONTINUOUS
 62
     6
 10
331.331783
 20
162.621688
 11
332.259334
 21
162.621688
  0
ARC
  8
CSLAYER1
  6
CONTINUOUS
 62
     6
 10
332.259334
 20
161.936690
 40
0.685000
 50
0.000000
 51
90.000009
  0
LINE
  8
CSLAYER1
  6
CONTINUOUS
 62
     6
 10
332.944332
 20
161.936690
 11
332.944332
 21
161.009124
  0
ARC
  8
CSLAYER1
  6
CONTINUOUS
 62
     6
 10
333.629329
 20
163.306685
 40
2.397500
 50
253.398434
 51
286.601595
  0
LINE
  8
CSLAYER1
  6
CONTINUOUS
 62
     6
 10
334.314327
 20
161.009124
 11
334.314327
 21
161.936690
  0
ARC
  8
CSLAYER1
  6
CONTINUOUS
 62
     6
 10
334.999324
 20
161.936690
 40
0.685000
 50
90.000009
 51
180.000005
  0
LINE
  8
CSLAYER1
  6
CONTINUOUS
 62
     6
 10
334.999324
 20
162.621688
 11
335.926876
 21
162.621688
  0
ARC
  8
CSLAYER1
  6
CONTINUOUS
 62
     6
 10
333.629329
 20
163.306685
 40
2.397500
 50
-16.601584
 51
16.601604
  0
LINE
  8
CSLAYER1
  6
CONTINUOUS
 62
     6
 10
335.926876
 20
163.991683
 11
334.999324
 21
163.991683
  0
ARC
  8
CSLAYER1
  6
CONTINUOUS
 62
     6
 10
334.999324
 20
164.676680
 40
0.685000
 50
180.000005
 51
270.000001
  0
LINE
  8
CSLAYER1
  6
CONTINUOUS
 62
     6
 10
334.314327
 20
164.676680
 11
334.314327
 21
165.604247
  0
ARC
  8
CSLAYER1
  6
CONTINUOUS
 62
     6
 10
333.629329
 20
163.306685
 40
2.397500
 50
73.398442
 51
106.601576
  0
LINE
  8
CSLAYER1
  6
CONTINUOUS
 62
     6
 10
332.944332
 20
165.604247
 11
332.944332
 21
164.676680
  0
ARC
  8
CSLAYER1
  6
CONTINUOUS
 62
     6
 10
332.259334
 20
164.676680
 40
0.685000
 50
270.000001
 51
359.942691
  0
LINE
  8
CSLAYER1
  6
CONTINUOUS
 62
     6
 10
332.259334
 20
163.991683
 11
331.331783
 21
163.991683
  0
CIRCLE
  8
CSLAYER1
  6
CONTINUOUS
 62
     6
 10
333.629329
 20
163.306685
 40
4.500000
  0
CIRCLE
  8
CSLAYER1
  6
CONTINUOUS
 62
     6
 10
333.629329
 20
163.306685
 40
5.500000
  0
CIRCLE
  8
CSLAYER1
  6
CONTINUOUS
 62
     6
 10
376.599849
 20
172.336135
 40
2.250000
  0
CIRCLE
  8
CSLAYER1
  6
CONTINUOUS
 62
     6
 10
350.599849
 20
146.336135
 40
11.000000
  0
CIRCLE
  8
CSLAYER1
  6
CONTINUOUS
 62
     6
 10
350.599834
 20
146.336135
 40
4.000000
  0
CIRCLE
  8
CSLAYER1
  6
CONTINUOUS
 62
     6
 10
350.599834
 20
146.336135
 40
15.000000
  0
CIRCLE
  8
CSLAYER1
  6
CONTINUOUS
 62
     6
 10
350.599834
 20
146.336135
 40
17.500000
  0
ARC
  8
CSLAYER1
  6
CONTINUOUS
 62
     6
 10
343.828518
 20
140.482634
 40
0.999999
 50
217.903402
 51
309.763723
  0
ARC
  8
CSLAYER1
  6
CONTINUOUS
 62
     6
 10
350.599849
 20
145.754531
 40
9.581602
 50
-37.903087
 51
217.903071
  0
ARC
  8
CSLAYER1
  6
CONTINUOUS
 62
     6
 10
357.371181
 20
140.482634
 40
0.999999
 50
230.236306
 51
322.096613
  0
ARC
  8
CSLAYER1
  6
CONTINUOUS
 62
     6
 10
355.360744
 20
138.066542
 40
2.143138
 50
50.235874
 51
203.481567
  0
LINE
  8
CSLAYER1
  6
CONTINUOUS
 62
     6
 10
353.395076
 20
137.212615
 11
353.822139
 21
135.818709
  0
CIRCLE
  8
CSLAYER1
  6
CONTINUOUS
 62
     6
 10
355.360744
 20
138.066542
 40
0.999999
  0
LINE
  8
CSLAYER1
  6
CONTINUOUS
 62
     6
 10
347.804622
 20
137.212615
 11
347.377559
 21
135.818709
  0
ARC
  8
CSLAYER1
  6
CONTINUOUS
 62
     6
 10
345.838955
 20
138.066542
 40
2.143138
 50
-23.481552
 51
129.764124
  0
CIRCLE
  8
CSLAYER1
  6
CONTINUOUS
 62
     6
 10
345.838955
 20
138.066542
 40
0.999999
  0
ARC
  8
CSLAYER1
  6
CONTINUOUS
 62
     6
 10
367.570369
 20
129.365584
 40
2.397500
 50
163.398416
 51
196.601604
  0
LINE
  8
CSLAYER1
  6
CONTINUOUS
 62
     6
 10
365.272823
 20
128.680587
 11
366.200374
 21
128.680587
  0
ARC
  8
CSLAYER1
  6
CONTINUOUS
 62
     6
 10
366.200374
 20
127.995589
 40
0.685000
 50
0.000005
 51
90.000001
  0
LINE
  8
CSLAYER1
  6
CONTINUOUS
 62
     6
 10
366.885372
 20
127.995589
 11
366.885372
 21
127.068023
  0
ARC
  8
CSLAYER1
  6
CONTINUOUS
 62
     6
 10
367.570369
 20
129.365584
 40
2.397500
 50
253.398442
 51
286.601576
  0
LINE
  8
CSLAYER1
  6
CONTINUOUS
 62
     6
 10
368.255367
 20
127.068023
 11
368.255367
 21
127.995589
  0
ARC
  8
CSLAYER1
  6
CONTINUOUS
 62
     6
 10
368.940364
 20
127.995589
 40
0.685000
 50
90.000001
 51
179.942691
  0
LINE
  8
CSLAYER1
  6
CONTINUOUS
 62
     6
 10
368.940364
 20
128.680587
 11
369.867916
 21
128.680587
  0
ARC
  8
CSLAYER1
  6
CONTINUOUS
 62
     6
 10
367.570369
 20
129.365584
 40
2.397500
 50
-16.601576
 51
16.601586
  0
LINE
  8
CSLAYER1
  6
CONTINUOUS
 62
     6
 10
369.867916
 20
130.050582
 11
368.940364
 21
130.050582
  0
ARC
  8
CSLAYER1
  6
CONTINUOUS
 62
     6
 10
368.940364
 20
130.735579
 40
0.685000
 50
180.000000
 51
270.000009
  0
LINE
  8
CSLAYER1
  6
CONTINUOUS
 62
     6
 10
368.255367
 20
130.735579
 11
368.255367
 21
131.663146
  0
ARC
  8
CSLAYER1
  6
CONTINUOUS
 62
     6
 10
367.570369
 20
129.365584
 40
2.397500
 50
73.398434
 51
106.601595
  0
LINE
  8
CSLAYER1
  6
CONTINUOUS
 62
     6
 10
366.885372
 20
131.663146
 11
366.885372
 21
130.735579
  0
ARC
  8
CSLAYER1
  6
CONTINUOUS
 62
     6
 10
366.200374
 20
130.735579
 40
0.685000
 50
-89.999991
 51
0.000005
  0
LINE
  8
CSLAYER1
  6
CONTINUOUS
 62
     6
 10
366.200374
 20
130.050582
 11
365.272823
 21
130.050582
  0
CIRCLE
  8
CSLAYER1
  6
CONTINUOUS
 62
     6
 10
367.570369
 20
129.365584
 40
4.500000
  0
CIRCLE
  8
CSLAYER1
  6
CONTINUOUS
 62
     6
 10
367.570369
 20
129.365584
 40
5.500000
  0
CIRCLE
  8
CSLAYER1
  6
CONTINUOUS
 62
     6
 10
376.599849
 20
120.336135
 40
2.250000
  0
CIRCLE
  8
CSLAYER1
  6
CONTINUOUS
 62
     6
 10
324.599849
 20
120.336135
 40
2.250000
  0
LINE
  8
CSLAYER1
  6
CONTINUOUS
 62
     6
 10
199.849849
 20
145.536136
 11
194.349849
 21
145.536136
  0
LINE
  8
CSLAYER1
  6
CONTINUOUS
 62
     6
 10
194.349849
 20
145.536136
 11
194.349849
 21
147.136142
  0
LINE
  8
CSLAYER1
  6
CONTINUOUS
 62
     6
 10
194.349849
 20
147.136142
 11
199.849849
 21
147.136142
  0
LINE
  8
CSLAYER1
  6
CONTINUOUS
 62
     6
 10
199.849849
 20
147.136142
 11
199.849849
 21
145.536136
  0
CIRCLE
  8
CSLAYER1
  6
CONTINUOUS
 62
     6
 10
197.099849
 20
146.336139
 40
8.000000
  0
CIRCLE
  8
CSLAYER1
  6
CONTINUOUS
 62
     6
 10
197.099849
 20
146.336139
 40
6.000000
  0
ENDSEC
  0
EOF
