  0
SECTION
  2
HEADER
  9
$ACADVER
  1
AC1015
  9
$ACADMAINTVER
 70
     6
  9
$DWGCODEPAGE
  3
ANSI_932
  9
$INSBASE
 10
0.0
 20
0.0
 30
0.0
  9
$EXTMIN
 10
0.0
 20
0.0
 30
0.0
  9
$EXTMAX
 10
420.0
 20
297.0
 30
0.0
  9
$LIMMIN
 10
0.0
 20
0.0
  9
$LIMMAX
 10
420.0
 20
297.0
  9
$ORTHOMODE
 70
     0
  9
$REGENMODE
 70
     1
  9
$FILLMODE
 70
     1
  9
$QTEXTMODE
 70
     0
  9
$MIRRTEXT
 70
     1
  9
$LTSCALE
 40
1.0
  9
$ATTMODE
 70
     1
  9
$TEXTSIZE
 40
2.5
  9
$TRACEWID
 40
1.0
  9
$TEXTSTYLE
  7
FX_VECTOR
  9
$CLAYER
  8
0
  9
$CELTYPE
  6
ByLayer
  9
$CECOLOR
 62
   256
  9
$CELTSCALE
 40
1.0
  9
$DISPSILH
 70
     0
  9
$DIMSCALE
 40
1.0
  9
$DIMASZ
 40
3.0
  9
$DIMEXO
 40
1.0
  9
$DIMDLI
 40
8.0
  9
$DIMRND
 40
0.0
  9
$DIMDLE
 40
5.0
  9
$DIMEXE
 40
1.0
  9
$DIMTP
 40
0.0
  9
$DIMTM
 40
0.0
  9
$DIMTXT
 40
3.5
  9
$DIMCEN
 40
2.5
  9
$DIMTSZ
 40
0.0
  9
$DIMTOL
 70
     0
  9
$DIMLIM
 70
     0
  9
$DIMTIH
 70
     0
  9
$DIMTOH
 70
     0
  9
$DIMSE1
 70
     0
  9
$DIMSE2
 70
     0
  9
$DIMTAD
 70
     1
  9
$DIMZIN
 70
     8
  9
$DIMBLK
  1

  9
$DIMASO
 70
     1
  9
$DIMSHO
 70
     1
  9
$DIMPOST
  1

  9
$DIMAPOST
  1

  9
$DIMALT
 70
     0
  9
$DIMALTD
 70
     3
  9
$DIMALTF
 40
0.03937
  9
$DIMLFAC
 40
1.0
  9
$DIMTOFL
 70
     1
  9
$DIMTVP
 40
0.0
  9
$DIMTIX
 70
     0
  9
$DIMSOXD
 70
     0
  9
$DIMSAH
 70
     1
  9
$DIMBLK1
  1
FXTIP_ARROW_S
  9
$DIMBLK2
  1
FXTIP_ARROW_E
  9
$DIMSTYLE
  2
FXDIMINFO
  9
$DIMCLRD
 70
     7
  9
$DIMCLRE
 70
     7
  9
$DIMCLRT
 70
     7
  9
$DIMTFAC
 40
1.0
  9
$DIMGAP
 40
0.5
  9
$DIMJUST
 70
     0
  9
$DIMSD1
 70
     0
  9
$DIMSD2
 70
     0
  9
$DIMTOLJ
 70
     1
  9
$DIMTZIN
 70
     8
  9
$DIMALTZ
 70
     0
  9
$DIMALTTZ
 70
     0
  9
$DIMUPT
 70
     0
  9
$DIMDEC
 70
     2
  9
$DIMTDEC
 70
     2
  9
$DIMALTU
 70
     2
  9
$DIMALTTD
 70
     3
  9
$DIMTXSTY
  7
FX_VECTOR
  9
$DIMAUNIT
 70
     0
  9
$DIMADEC
 70
     2
  9
$DIMALTRND
 40
0.0
  9
$DIMAZIN
 70
     2
  9
$DIMDSEP
 70
    46
  9
$DIMATFIT
 70
     3
  9
$DIMFRAC
 70
     0
  9
$DIMLDRBLK
  1
FXTIP_ARROW_S
  9
$DIMLUNIT
 70
     2
  9
$DIMLWD
 70
    -2
  9
$DIMLWE
 70
    -2
  9
$DIMTMOVE
 70
     0
  9
$LUNITS
 70
     2
  9
$LUPREC
 70
     4
  9
$SKETCHINC
 40
1.0
  9
$FILLETRAD
 40
10.0
  9
$AUNITS
 70
     0
  9
$AUPREC
 70
     0
  9
$MENU
  1
.
  9
$ELEVATION
 40
0.0
  9
$PELEVATION
 40
0.0
  9
$THICKNESS
 40
0.0
  9
$LIMCHECK
 70
     0
  9
$CHAMFERA
 40
10.0
  9
$CHAMFERB
 40
10.0
  9
$CHAMFERC
 40
20.0
  9
$CHAMFERD
 40
0.0
  9
$SKPOLY
 70
     0
  9
$TDCREATE
 40
2456323.617399803
  9
$TDUCREATE
 40
2456323.242399803
  9
$TDUPDATE
 40
2456323.617399815
  9
$TDUUPDATE
 40
2456323.242399815
  9
$TDINDWG
 40
0.0000000116
  9
$TDUSRTIMER
 40
0.0000000116
  9
$USRTIMER
 70
     1
  9
$ANGBASE
 50
0.0
  9
$ANGDIR
 70
     0
  9
$PDMODE
 70
     0
  9
$PDSIZE
 40
0.0
  9
$PLINEWID
 40
0.0
  9
$SPLFRAME
 70
     0
  9
$SPLINETYPE
 70
     6
  9
$SPLINESEGS
 70
     8
  9
$HANDSEED
  5
2F4
  9
$SURFTAB1
 70
     6
  9
$SURFTAB2
 70
     6
  9
$SURFTYPE
 70
     6
  9
$SURFU
 70
     6
  9
$SURFV
 70
     6
  9
$UCSBASE
  2

  9
$UCSNAME
  2

  9
$UCSORG
 10
0.0
 20
0.0
 30
0.0
  9
$UCSXDIR
 10
1.0
 20
0.0
 30
0.0
  9
$UCSYDIR
 10
0.0
 20
1.0
 30
0.0
  9
$UCSORTHOREF
  2

  9
$UCSORTHOVIEW
 70
     0
  9
$UCSORGTOP
 10
0.0
 20
0.0
 30
0.0
  9
$UCSORGBOTTOM
 10
0.0
 20
0.0
 30
0.0
  9
$UCSORGLEFT
 10
0.0
 20
0.0
 30
0.0
  9
$UCSORGRIGHT
 10
0.0
 20
0.0
 30
0.0
  9
$UCSORGFRONT
 10
0.0
 20
0.0
 30
0.0
  9
$UCSORGBACK
 10
0.0
 20
0.0
 30
0.0
  9
$PUCSBASE
  2

  9
$PUCSNAME
  2

  9
$PUCSORG
 10
0.0
 20
0.0
 30
0.0
  9
$PUCSXDIR
 10
1.0
 20
0.0
 30
0.0
  9
$PUCSYDIR
 10
0.0
 20
1.0
 30
0.0
  9
$PUCSORTHOREF
  2

  9
$PUCSORTHOVIEW
 70
     0
  9
$PUCSORGTOP
 10
0.0
 20
0.0
 30
0.0
  9
$PUCSORGBOTTOM
 10
0.0
 20
0.0
 30
0.0
  9
$PUCSORGLEFT
 10
0.0
 20
0.0
 30
0.0
  9
$PUCSORGRIGHT
 10
0.0
 20
0.0
 30
0.0
  9
$PUCSORGFRONT
 10
0.0
 20
0.0
 30
0.0
  9
$PUCSORGBACK
 10
0.0
 20
0.0
 30
0.0
  9
$USERI1
 70
     0
  9
$USERI2
 70
     0
  9
$USERI3
 70
     0
  9
$USERI4
 70
     0
  9
$USERI5
 70
     0
  9
$USERR1
 40
0.0
  9
$USERR2
 40
0.0
  9
$USERR3
 40
0.0
  9
$USERR4
 40
0.0
  9
$USERR5
 40
0.0
  9
$WORLDVIEW
 70
     1
  9
$SHADEDGE
 70
     3
  9
$SHADEDIF
 70
    70
  9
$TILEMODE
 70
     1
  9
$MAXACTVP
 70
    64
  9
$PINSBASE
 10
0.0
 20
0.0
 30
0.0
  9
$PLIMCHECK
 70
     0
  9
$PEXTMIN
 10
1.000000000000000E+20
 20
1.000000000000000E+20
 30
1.000000000000000E+20
  9
$PEXTMAX
 10
-1.000000000000000E+20
 20
-1.000000000000000E+20
 30
-1.000000000000000E+20
  9
$PLIMMIN
 10
0.0
 20
0.0
  9
$PLIMMAX
 10
420.0
 20
297.0
  9
$UNITMODE
 70
     0
  9
$VISRETAIN
 70
     1
  9
$PLINEGEN
 70
     0
  9
$PSLTSCALE
 70
     1
  9
$TREEDEPTH
 70
  3020
  9
$CMLSTYLE
  2
Standard
  9
$CMLJUST
 70
     0
  9
$CMLSCALE
 40
20.0
  9
$PROXYGRAPHICS
 70
     1
  9
$MEASUREMENT
 70
     1
  9
$CELWEIGHT
370
    -1
  9
$ENDCAPS
280
     0
  9
$JOINSTYLE
280
     0
  9
$LWDISPLAY
290
     0
  9
$INSUNITS
 70
     4
  9
$HYPERLINKBASE
  1

  9
$STYLESHEET
  1

  9
$XEDIT
290
     1
  9
$CEPSNTYPE
380
     0
  9
$PSTYLEMODE
290
     1
  9
$FINGERPRINTGUID
  2
{EB239620-1F51-4A42-B7AC-825053653153}
  9
$VERSIONGUID
  2
{FAEB1C32-E019-11D5-929B-00C0DF256EC4}
  9
$EXTNAMES
290
     1
  9
$PSVPSCALE
 40
0.0
  9
$OLESTARTUP
290
     0
  0
ENDSEC
  0
SECTION
  2
CLASSES
  0
CLASS
  1
ACDBDICTIONARYWDFLT
  2
AcDbDictionaryWithDefault
  3
ObjectDBX Classes
 90
        0
280
     0
281
     0
  0
CLASS
  1
VISUALSTYLE
  2
AcDbVisualStyle
  3
ObjectDBX Classes
 90
     4095
280
     0
281
     0
  0
CLASS
  1
MATERIAL
  2
AcDbMaterial
  3
ObjectDBX Classes
 90
     1153
280
     0
281
     0
  0
CLASS
  1
DICTIONARYVAR
  2
AcDbDictionaryVar
  3
ObjectDBX Classes
 90
        0
280
     0
281
     0
  0
CLASS
  1
ACDBPLACEHOLDER
  2
AcDbPlaceHolder
  3
ObjectDBX Classes
 90
        0
280
     0
281
     0
  0
CLASS
  1
LAYOUT
  2
AcDbLayout
  3
ObjectDBX Classes
 90
        0
280
     0
281
     0
  0
ENDSEC
  0
SECTION
  2
TABLES
  0
TABLE
  2
VPORT
  5
8
330
0
100
AcDbSymbolTable
 70
     1
  0
VPORT
  5
29
330
8
100
AcDbSymbolTableRecord
100
AcDbViewportTableRecord
  2
*Active
 70
     0
 10
0.0
 20
0.0
 11
1.0
 21
1.0
 12
210.0
 22
148.5
 13
0.0
 23
0.0
 14
10.0
 24
10.0
 15
10.0
 25
10.0
 16
0.0
 26
0.0
 36
1.0
 17
0.0
 27
0.0
 37
0.0
 40
297.0
 41
1.414141414141414
 42
50.0
 43
0.0
 44
0.0
 50
0.0
 51
0.0
 71
     0
 72
   100
 73
     1
 74
     3
 75
     0
 76
     0
 77
     0
 78
     0
281
     0
 65
     1
110
0.0
120
0.0
130
0.0
111
1.0
121
0.0
131
0.0
112
0.0
122
1.0
132
0.0
 79
     0
146
0.0
  0
ENDTAB
  0
TABLE
  2
LTYPE
  5
5
330
0
100
AcDbSymbolTable
 70
     3
  0
LTYPE
  5
14
330
5
100
AcDbSymbolTableRecord
100
AcDbLinetypeTableRecord
  2
ByBlock
 70
     0
  3

 72
    65
 73
     0
 40
0.0
  0
LTYPE
  5
15
330
5
100
AcDbSymbolTableRecord
100
AcDbLinetypeTableRecord
  2
ByLayer
 70
     0
  3

 72
    65
 73
     0
 40
0.0
  0
LTYPE
  5
16
330
5
100
AcDbSymbolTableRecord
100
AcDbLinetypeTableRecord
  2
Continuous
 70
     0
  3
Solid line
 72
    65
 73
     0
 40
0.0
  0
LTYPE
  5
A8
330
5
100
AcDbSymbolTableRecord
100
AcDbLinetypeTableRecord
  2
実線
 70
     0
  3

 72
    65
 73
     0
 40
0.0
  0
LTYPE
  5
A9
330
5
100
AcDbSymbolTableRecord
100
AcDbLinetypeTableRecord
  2
一点鎖線
 70
     0
  3

 72
    65
 73
     4
 40
13.0
 49
10.0
 74
     0
 49
-1.0
 74
     0
 49
1.0
 74
     0
 49
-1.0
 74
     0
  0
ENDTAB
  0
TABLE
  2
LAYER
  5
2
330
0
100
AcDbSymbolTable
 70
     4
  0
LAYER
  5
10
330
2
100
AcDbSymbolTableRecord
100
AcDbLayerTableRecord
  2
0
 70
     0
 62
     7
  6
Continuous
370
    -3
390
F
  0
LAYER
  5
A7
330
2
100
AcDbSymbolTableRecord
100
AcDbLayerTableRecord
  2
作図レイヤ
 70
     0
 62
     5
  6
実線
370
    40
390
F
  0
LAYER
  5
AD
330
2
100
AcDbSymbolTableRecord
100
AcDbLayerTableRecord
  2
基準ﾚｲﾔｸﾞﾙｰﾌﾟ_01
 70
     0
 62
     3
  6
実線
370
    20
390
F
  0
LAYER
  5
BC
330
2
100
AcDbSymbolTableRecord
100
AcDbLayerTableRecord
  2
GR1_01
 70
     0
 62
     1
  6
実線
370
    40
390
F
  0
ENDTAB
  0
TABLE
  2
STYLE
  5
3
330
0
100
AcDbSymbolTable
 70
     2
  0
STYLE
  5
11
330
3
100
AcDbSymbolTableRecord
100
AcDbTextStyleTableRecord
  2
Standard
 70
     0
 40
0.0
 41
1.0
 50
0.0
 71
     0
 42
2.5
  3
txt
  4

  0
STYLE
  5
3F
330
3
100
AcDbSymbolTableRecord
100
AcDbTextStyleTableRecord
  2
FX_VECTOR
 70
     0
 40
0.0
 41
1.0
 50
0.0
 71
     0
 42
0.2
  3
MONOTXT.SHX
  4
BigFont.shx
  0
ENDTAB
  0
TABLE
  2
VIEW
  5
6
330
0
100
AcDbSymbolTable
 70
     0
  0
ENDTAB
  0
TABLE
  2
UCS
  5
7
330
0
100
AcDbSymbolTable
 70
     0
  0
ENDTAB
  0
TABLE
  2
APPID
  5
9
330
0
100
AcDbSymbolTable
 70
     1
  0
APPID
  5
12
330
9
100
AcDbSymbolTableRecord
100
AcDbRegAppTableRecord
  2
ACAD
 70
     0
  0
ENDTAB
  0
TABLE
  2
DIMSTYLE
  5
A
330
0
100
AcDbSymbolTable
 70
     2
100
AcDbDimStyleTable
  0
DIMSTYLE
105
27
330
A
100
AcDbSymbolTableRecord
100
AcDbDimStyleTableRecord
  2
ISO-25
 70
     0
 41
2.5
 42
0.625
 43
3.75
 44
1.25
 73
     0
 74
     0
 77
     1
 78
     8
140
2.5
141
2.5
143
0.03937007874016
147
0.625
171
     3
172
     1
178
     0
271
     2
272
     2
274
     3
278
    44
283
     0
284
     8
340
11
  0
DIMSTYLE
105
A6
330
A
100
AcDbSymbolTableRecord
100
AcDbDimStyleTableRecord
  2
FXDIMINFO
 70
     0
 41
3.0
 42
1.0
 43
8.0
 44
1.0
 46
5.0
 73
     0
 74
     0
 77
     1
 78
     8
 79
     2
140
3.5
141
2.5
143
0.03937
147
0.5
171
     3
172
     1
173
     1
176
     7
177
     7
271
     2
178
     7
179
     2
271
     2
272
     2
274
     3
284
     8
340
3F
341
40
343
40
344
46
  0
ENDTAB
  0
TABLE
  2
BLOCK_RECORD
  5
1
330
0
100
AcDbSymbolTable
 70
    34
  0
BLOCK_RECORD
  5
1F
330
1
100
AcDbSymbolTableRecord
100
AcDbBlockTableRecord
  2
*Model_Space
340
22
  0
BLOCK_RECORD
  5
1B
330
1
100
AcDbSymbolTableRecord
100
AcDbBlockTableRecord
  2
*Paper_Space
340
1E
  0
BLOCK_RECORD
  5
23
330
1
100
AcDbSymbolTableRecord
100
AcDbBlockTableRecord
  2
*Paper_Space0
340
26
  0
BLOCK_RECORD
  5
40
330
1
100
AcDbSymbolTableRecord
100
AcDbBlockTableRecord
  2
FXTIP_ARROW_S
340
0
  0
BLOCK_RECORD
  5
46
330
1
100
AcDbSymbolTableRecord
100
AcDbBlockTableRecord
  2
FXTIP_ARROW_E
340
0
  0
BLOCK_RECORD
  5
4C
330
1
100
AcDbSymbolTableRecord
100
AcDbBlockTableRecord
  2
FXTIP_BLACKDOT_S
340
0
  0
BLOCK_RECORD
  5
52
330
1
100
AcDbSymbolTableRecord
100
AcDbBlockTableRecord
  2
FXTIP_BLACKDOT_E
340
0
  0
BLOCK_RECORD
  5
58
330
1
100
AcDbSymbolTableRecord
100
AcDbBlockTableRecord
  2
FXTIP_TRIANGLE_S
340
0
  0
BLOCK_RECORD
  5
5F
330
1
100
AcDbSymbolTableRecord
100
AcDbBlockTableRecord
  2
FXTIP_TRIANGLE_E
340
0
  0
BLOCK_RECORD
  5
66
330
1
100
AcDbSymbolTableRecord
100
AcDbBlockTableRecord
  2
FXTIP_ARCHITECT_S
340
0
  0
BLOCK_RECORD
  5
6C
330
1
100
AcDbSymbolTableRecord
100
AcDbBlockTableRecord
  2
FXTIP_ARCHITECT_E
340
0
  0
BLOCK_RECORD
  5
72
330
1
100
AcDbSymbolTableRecord
100
AcDbBlockTableRecord
  2
FXTIP_CIVIL_S
340
0
  0
BLOCK_RECORD
  5
78
330
1
100
AcDbSymbolTableRecord
100
AcDbBlockTableRecord
  2
FXTIP_CIVIL_E
340
0
  0
BLOCK_RECORD
  5
7E
330
1
100
AcDbSymbolTableRecord
100
AcDbBlockTableRecord
  2
FXTIP_WHITEDOT_S
340
0
  0
BLOCK_RECORD
  5
83
330
1
100
AcDbSymbolTableRecord
100
AcDbBlockTableRecord
  2
FXTIP_WHITEDOT_E
340
0
  0
BLOCK_RECORD
  5
88
330
1
100
AcDbSymbolTableRecord
100
AcDbBlockTableRecord
  2
FXTIP_UPARROW_S
340
0
  0
BLOCK_RECORD
  5
8D
330
1
100
AcDbSymbolTableRecord
100
AcDbBlockTableRecord
  2
FXTIP_UPARROW_E
340
0
  0
BLOCK_RECORD
  5
92
330
1
100
AcDbSymbolTableRecord
100
AcDbBlockTableRecord
  2
FXTIP_DOWNARROW_S
340
0
  0
BLOCK_RECORD
  5
97
330
1
100
AcDbSymbolTableRecord
100
AcDbBlockTableRecord
  2
FXTIP_DOWNARROW_E
340
0
  0
BLOCK_RECORD
  5
9C
330
1
100
AcDbSymbolTableRecord
100
AcDbBlockTableRecord
  2
FXTIP_BLACKTRIANGLE_S
340
0
  0
BLOCK_RECORD
  5
A1
330
1
100
AcDbSymbolTableRecord
100
AcDbBlockTableRecord
  2
FXTIP_BLACKTRIANGLE_E
340
0
  0
BLOCK_RECORD
  5
D4
330
1
100
AcDbSymbolTableRecord
100
AcDbBlockTableRecord
  2
BLKF022
340
0
102
{BLKREFS
331
D7
102
}
  0
BLOCK_RECORD
  5
E3
330
1
100
AcDbSymbolTableRecord
100
AcDbBlockTableRecord
  2
BLKF023
340
0
102
{BLKREFS
331
E6
102
}
  0
BLOCK_RECORD
  5
F3
330
1
100
AcDbSymbolTableRecord
100
AcDbBlockTableRecord
  2
BLKF024
340
0
102
{BLKREFS
331
F6
102
}
  0
BLOCK_RECORD
  5
10F
330
1
100
AcDbSymbolTableRecord
100
AcDbBlockTableRecord
  2
BLKF025
340
0
102
{BLKREFS
331
112
102
}
  0
BLOCK_RECORD
  5
11B
330
1
100
AcDbSymbolTableRecord
100
AcDbBlockTableRecord
  2
BLKF026
340
0
102
{BLKREFS
331
11E
102
}
  0
BLOCK_RECORD
  5
127
330
1
100
AcDbSymbolTableRecord
100
AcDbBlockTableRecord
  2
BLKF027
340
0
102
{BLKREFS
331
12A
102
}
  0
BLOCK_RECORD
  5
133
330
1
100
AcDbSymbolTableRecord
100
AcDbBlockTableRecord
  2
BLKF028
340
0
102
{BLKREFS
331
136
102
}
  0
BLOCK_RECORD
  5
19E
330
1
100
AcDbSymbolTableRecord
100
AcDbBlockTableRecord
  2
BLKF029
340
0
102
{BLKREFS
331
1A1
102
}
  0
BLOCK_RECORD
  5
1AB
330
1
100
AcDbSymbolTableRecord
100
AcDbBlockTableRecord
  2
BLKF030
340
0
102
{BLKREFS
331
1AE
102
}
  0
BLOCK_RECORD
  5
1B8
330
1
100
AcDbSymbolTableRecord
100
AcDbBlockTableRecord
  2
BLKF031
340
0
102
{BLKREFS
331
1BB
102
}
  0
BLOCK_RECORD
  5
1C5
330
1
100
AcDbSymbolTableRecord
100
AcDbBlockTableRecord
  2
BLKF032
340
0
102
{BLKREFS
331
1C8
102
}
  0
BLOCK_RECORD
  5
221
330
1
100
AcDbSymbolTableRecord
100
AcDbBlockTableRecord
  2
BLKF033
340
0
102
{BLKREFS
331
224
102
}
  0
BLOCK_RECORD
  5
233
330
1
100
AcDbSymbolTableRecord
100
AcDbBlockTableRecord
  2
BLKF034
340
0
102
{BLKREFS
331
236
102
}
  0
BLOCK_RECORD
  5
2A0
330
1
100
AcDbSymbolTableRecord
100
AcDbBlockTableRecord
  2
BLKF035
340
0
102
{BLKREFS
331
2A3
102
}
  0
BLOCK_RECORD
  5
2B2
330
1
100
AcDbSymbolTableRecord
100
AcDbBlockTableRecord
  2
BLKF036
340
0
102
{BLKREFS
331
2B5
102
}
  0
ENDTAB
  0
ENDSEC
  0
SECTION
  2
BLOCKS
  0
BLOCK
  5
20
330
1F
100
AcDbEntity
  8
0
100
AcDbBlockBegin
  2
*Model_Space
 70
     0
 10
0.0
 20
0.0
 30
0.0
  3
*Model_Space
  1

  0
ENDBLK
  5
21
330
1F
100
AcDbEntity
  8
0
100
AcDbBlockEnd
  0
BLOCK
  5
1C
330
1B
100
AcDbEntity
 67
     1
  8
0
100
AcDbBlockBegin
  2
*Paper_Space
 70
     0
 10
0.0
 20
0.0
 30
0.0
  3
*Paper_Space
  1

  0
ENDBLK
  5
1D
330
1B
100
AcDbEntity
 67
     1
  8
0
100
AcDbBlockEnd
  0
BLOCK
  5
24
330
23
100
AcDbEntity
  8
0
100
AcDbBlockBegin
  2
*Paper_Space0
 70
     0
 10
0.0
 20
0.0
 30
0.0
  3
*Paper_Space0
  1

  0
ENDBLK
  5
25
330
23
100
AcDbEntity
  8
0
100
AcDbBlockEnd
  0
BLOCK
  5
41
330
40
100
AcDbEntity
  8
0
100
AcDbBlockBegin
  2
FXTIP_ARROW_S
 70
     0
 10
0.0
 20
0.0
 30
0.0
  3
FXTIP_ARROW_S
  1

  0
LINE
  5
43
330
40
100
AcDbEntity
  8
0
  6
Continuous
 62
     0
370
    -2
100
AcDbLine
 10
0.0
 20
0.0
 30
0.0
 11
-1.0
 21
0.0000000000000001
 31
0.0
  0
LINE
  5
44
330
40
100
AcDbEntity
  8
0
  6
Continuous
 62
     0
370
    -2
100
AcDbLine
 10
0.0
 20
0.0
 30
0.0
 11
-0.9914448613738104
 21
-0.1305261922200515
 31
0.0
  0
LINE
  5
45
330
40
100
AcDbEntity
  8
0
  6
Continuous
 62
     0
370
    -2
100
AcDbLine
 10
0.0
 20
0.0
 30
0.0
 11
-0.9914448613738104
 21
0.1305261922200517
 31
0.0
  0
ENDBLK
  5
42
330
40
100
AcDbEntity
  8
0
100
AcDbBlockEnd
  0
BLOCK
  5
47
330
46
100
AcDbEntity
  8
0
100
AcDbBlockBegin
  2
FXTIP_ARROW_E
 70
     0
 10
0.0
 20
0.0
 30
0.0
  3
FXTIP_ARROW_E
  1

  0
LINE
  5
49
330
46
100
AcDbEntity
  8
0
  6
Continuous
 62
     0
370
    -2
100
AcDbLine
 10
0.0
 20
0.0
 30
0.0
 11
-1.0
 21
0.0
 31
0.0
  0
LINE
  5
4A
330
46
100
AcDbEntity
  8
0
  6
Continuous
 62
     0
370
    -2
100
AcDbLine
 10
0.0
 20
0.0
 30
0.0
 11
-0.9914448613738104
 21
0.1305261922200516
 31
0.0
  0
LINE
  5
4B
330
46
100
AcDbEntity
  8
0
  6
Continuous
 62
     0
370
    -2
100
AcDbLine
 10
0.0
 20
0.0
 30
0.0
 11
-0.9914448613738104
 21
-0.1305261922200516
 31
0.0
  0
ENDBLK
  5
48
330
46
100
AcDbEntity
  8
0
100
AcDbBlockEnd
  0
BLOCK
  5
4D
330
4C
100
AcDbEntity
  8
0
100
AcDbBlockBegin
  2
FXTIP_BLACKDOT_S
 70
     0
 10
0.0
 20
0.0
 30
0.0
  3
FXTIP_BLACKDOT_S
  1

  0
LINE
  5
4F
330
4C
100
AcDbEntity
  8
0
  6
Continuous
 62
     0
370
    -2
100
AcDbLine
 10
0.0
 20
0.0
 30
0.0
 11
-1.0
 21
0.0000000000000001
 31
0.0
  0
LWPOLYLINE
  5
50
330
4C
100
AcDbEntity
  8
0
  6
Continuous
 62
     0
370
    -2
100
AcDbPolyline
 90
        2
 70
     1
 10
-0.25
 20
0.0
 40
0.5
 41
0.5
 42
1.0
 10
0.25
 20
0.0
 40
0.5
 41
0.5
 42
1.0
  0
CIRCLE
  5
51
330
4C
100
AcDbEntity
  8
0
  6
Continuous
 62
     0
370
    -2
100
AcDbCircle
 10
0.0
 20
0.0
 30
0.0
 40
0.5
  0
ENDBLK
  5
4E
330
4C
100
AcDbEntity
  8
0
100
AcDbBlockEnd
  0
BLOCK
  5
53
330
52
100
AcDbEntity
  8
0
100
AcDbBlockBegin
  2
FXTIP_BLACKDOT_E
 70
     0
 10
0.0
 20
0.0
 30
0.0
  3
FXTIP_BLACKDOT_E
  1

  0
LINE
  5
55
330
52
100
AcDbEntity
  8
0
  6
Continuous
 62
     0
370
    -2
100
AcDbLine
 10
0.0
 20
0.0
 30
0.0
 11
-1.0
 21
0.0
 31
0.0
  0
LWPOLYLINE
  5
56
330
52
100
AcDbEntity
  8
0
  6
Continuous
 62
     0
370
    -2
100
AcDbPolyline
 90
        2
 70
     1
 10
-0.25
 20
0.0
 40
0.5
 41
0.5
 42
1.0
 10
0.25
 20
0.0
 40
0.5
 41
0.5
 42
1.0
  0
CIRCLE
  5
57
330
52
100
AcDbEntity
  8
0
  6
Continuous
 62
     0
370
    -2
100
AcDbCircle
 10
0.0
 20
0.0
 30
0.0
 40
0.5
  0
ENDBLK
  5
54
330
52
100
AcDbEntity
  8
0
100
AcDbBlockEnd
  0
BLOCK
  5
59
330
58
100
AcDbEntity
  8
0
100
AcDbBlockBegin
  2
FXTIP_TRIANGLE_S
 70
     0
 10
0.0
 20
0.0
 30
0.0
  3
FXTIP_TRIANGLE_S
  1

  0
LINE
  5
5B
330
58
100
AcDbEntity
  8
0
  6
Continuous
 62
     0
370
    -2
100
AcDbLine
 10
0.0
 20
0.0
 30
0.0
 11
-1.0
 21
0.0000000000000001
 31
0.0
  0
LINE
  5
5C
330
58
100
AcDbEntity
  8
0
  6
Continuous
 62
     0
370
    -2
100
AcDbLine
 10
0.0
 20
0.0
 30
0.0
 11
-0.9914448613738104
 21
-0.1305261922200515
 31
0.0
  0
LINE
  5
5D
330
58
100
AcDbEntity
  8
0
  6
Continuous
 62
     0
370
    -2
100
AcDbLine
 10
0.0
 20
0.0
 30
0.0
 11
-0.9914448613738104
 21
0.1305261922200517
 31
0.0
  0
LINE
  5
5E
330
58
100
AcDbEntity
  8
0
  6
Continuous
 62
     0
370
    -2
100
AcDbLine
 10
-0.9914448613738104
 20
-0.1305261922200515
 30
0.0
 11
-0.9914448613738104
 21
0.1305261922200517
 31
0.0
  0
ENDBLK
  5
5A
330
58
100
AcDbEntity
  8
0
100
AcDbBlockEnd
  0
BLOCK
  5
60
330
5F
100
AcDbEntity
  8
0
100
AcDbBlockBegin
  2
FXTIP_TRIANGLE_E
 70
     0
 10
0.0
 20
0.0
 30
0.0
  3
FXTIP_TRIANGLE_E
  1

  0
LINE
  5
62
330
5F
100
AcDbEntity
  8
0
  6
Continuous
 62
     0
370
    -2
100
AcDbLine
 10
0.0
 20
0.0
 30
0.0
 11
-1.0
 21
0.0
 31
0.0
  0
LINE
  5
63
330
5F
100
AcDbEntity
  8
0
  6
Continuous
 62
     0
370
    -2
100
AcDbLine
 10
0.0
 20
0.0
 30
0.0
 11
-0.9914448613738104
 21
0.1305261922200516
 31
0.0
  0
LINE
  5
64
330
5F
100
AcDbEntity
  8
0
  6
Continuous
 62
     0
370
    -2
100
AcDbLine
 10
0.0
 20
0.0
 30
0.0
 11
-0.9914448613738104
 21
-0.1305261922200516
 31
0.0
  0
LINE
  5
65
330
5F
100
AcDbEntity
  8
0
  6
Continuous
 62
     0
370
    -2
100
AcDbLine
 10
-0.9914448613738104
 20
0.1305261922200516
 30
0.0
 11
-0.9914448613738104
 21
-0.1305261922200516
 31
0.0
  0
ENDBLK
  5
61
330
5F
100
AcDbEntity
  8
0
100
AcDbBlockEnd
  0
BLOCK
  5
67
330
66
100
AcDbEntity
  8
0
100
AcDbBlockBegin
  2
FXTIP_ARCHITECT_S
 70
     0
 10
0.0
 20
0.0
 30
0.0
  3
FXTIP_ARCHITECT_S
  1

  0
LINE
  5
69
330
66
100
AcDbEntity
  8
0
  6
Continuous
 62
     0
370
    -2
100
AcDbLine
 10
0.0
 20
0.0
 30
0.0
 11
-1.0
 21
0.0000000000000001
 31
0.0
  0
LINE
  5
6A
330
66
100
AcDbEntity
  8
0
  6
Continuous
 62
     0
370
    -2
100
AcDbLine
 10
0.0
 20
0.0
 30
0.0
 11
-0.7071067811865476
 21
-0.7071067811865474
 31
0.0
  0
LINE
  5
6B
330
66
100
AcDbEntity
  8
0
  6
Continuous
 62
     0
370
    -2
100
AcDbLine
 10
0.0
 20
0.0
 30
0.0
 11
0.7071067811865476
 21
0.7071067811865474
 31
0.0
  0
ENDBLK
  5
68
330
66
100
AcDbEntity
  8
0
100
AcDbBlockEnd
  0
BLOCK
  5
6D
330
6C
100
AcDbEntity
  8
0
100
AcDbBlockBegin
  2
FXTIP_ARCHITECT_E
 70
     0
 10
0.0
 20
0.0
 30
0.0
  3
FXTIP_ARCHITECT_E
  1

  0
LINE
  5
6F
330
6C
100
AcDbEntity
  8
0
  6
Continuous
 62
     0
370
    -2
100
AcDbLine
 10
0.0
 20
0.0
 30
0.0
 11
-1.0
 21
0.0
 31
0.0
  0
LINE
  5
70
330
6C
100
AcDbEntity
  8
0
  6
Continuous
 62
     0
370
    -2
100
AcDbLine
 10
0.0
 20
0.0
 30
0.0
 11
0.7071067811865475
 21
0.7071067811865475
 31
0.0
  0
LINE
  5
71
330
6C
100
AcDbEntity
  8
0
  6
Continuous
 62
     0
370
    -2
100
AcDbLine
 10
0.0
 20
0.0
 30
0.0
 11
-0.7071067811865475
 21
-0.7071067811865475
 31
0.0
  0
ENDBLK
  5
6E
330
6C
100
AcDbEntity
  8
0
100
AcDbBlockEnd
  0
BLOCK
  5
73
330
72
100
AcDbEntity
  8
0
100
AcDbBlockBegin
  2
FXTIP_CIVIL_S
 70
     0
 10
0.0
 20
0.0
 30
0.0
  3
FXTIP_CIVIL_S
  1

  0
LINE
  5
75
330
72
100
AcDbEntity
  8
0
  6
Continuous
 62
     0
370
    -2
100
AcDbLine
 10
0.0
 20
0.0
 30
0.0
 11
-1.0
 21
0.0000000000000001
 31
0.0
  0
LINE
  5
76
330
72
100
AcDbEntity
  8
0
  6
Continuous
 62
     0
370
    -2
100
AcDbLine
 10
0.0
 20
-0.0833333333333333
 30
0.0
 11
-1.0
 21
-0.0833333333333332
 31
0.0
  0
LINE
  5
77
330
72
100
AcDbEntity
  8
0
  6
Continuous
 62
     0
370
    -2
100
AcDbLine
 10
0.0
 20
-0.1666666666666667
 30
0.0
 11
-1.0
 21
-0.1666666666666666
 31
0.0
  0
ENDBLK
  5
74
330
72
100
AcDbEntity
  8
0
100
AcDbBlockEnd
  0
BLOCK
  5
79
330
78
100
AcDbEntity
  8
0
100
AcDbBlockBegin
  2
FXTIP_CIVIL_E
 70
     0
 10
0.0
 20
0.0
 30
0.0
  3
FXTIP_CIVIL_E
  1

  0
LINE
  5
7B
330
78
100
AcDbEntity
  8
0
  6
Continuous
 62
     0
370
    -2
100
AcDbLine
 10
0.0
 20
0.0
 30
0.0
 11
-1.0
 21
0.0
 31
0.0
  0
LINE
  5
7C
330
78
100
AcDbEntity
  8
0
  6
Continuous
 62
     0
370
    -2
100
AcDbLine
 10
0.0
 20
0.0833333333333333
 30
0.0
 11
-1.0
 21
0.0833333333333333
 31
0.0
  0
LINE
  5
7D
330
78
100
AcDbEntity
  8
0
  6
Continuous
 62
     0
370
    -2
100
AcDbLine
 10
0.0
 20
0.1666666666666667
 30
0.0
 11
-1.0
 21
0.1666666666666667
 31
0.0
  0
ENDBLK
  5
7A
330
78
100
AcDbEntity
  8
0
100
AcDbBlockEnd
  0
BLOCK
  5
7F
330
7E
100
AcDbEntity
  8
0
100
AcDbBlockBegin
  2
FXTIP_WHITEDOT_S
 70
     0
 10
0.0
 20
0.0
 30
0.0
  3
FXTIP_WHITEDOT_S
  1

  0
LINE
  5
81
330
7E
100
AcDbEntity
  8
0
  6
Continuous
 62
     0
370
    -2
100
AcDbLine
 10
0.0
 20
0.0
 30
0.0
 11
-1.0
 21
0.0000000000000001
 31
0.0
  0
CIRCLE
  5
82
330
7E
100
AcDbEntity
  8
0
  6
Continuous
 62
     0
370
    -2
100
AcDbCircle
 10
0.0
 20
0.0
 30
0.0
 40
0.5
  0
ENDBLK
  5
80
330
7E
100
AcDbEntity
  8
0
100
AcDbBlockEnd
  0
BLOCK
  5
84
330
83
100
AcDbEntity
  8
0
100
AcDbBlockBegin
  2
FXTIP_WHITEDOT_E
 70
     0
 10
0.0
 20
0.0
 30
0.0
  3
FXTIP_WHITEDOT_E
  1

  0
LINE
  5
86
330
83
100
AcDbEntity
  8
0
  6
Continuous
 62
     0
370
    -2
100
AcDbLine
 10
0.0
 20
0.0
 30
0.0
 11
-1.0
 21
0.0
 31
0.0
  0
CIRCLE
  5
87
330
83
100
AcDbEntity
  8
0
  6
Continuous
 62
     0
370
    -2
100
AcDbCircle
 10
0.0
 20
0.0
 30
0.0
 40
0.5
  0
ENDBLK
  5
85
330
83
100
AcDbEntity
  8
0
100
AcDbBlockEnd
  0
BLOCK
  5
89
330
88
100
AcDbEntity
  8
0
100
AcDbBlockBegin
  2
FXTIP_UPARROW_S
 70
     0
 10
0.0
 20
0.0
 30
0.0
  3
FXTIP_UPARROW_S
  1

  0
LINE
  5
8B
330
88
100
AcDbEntity
  8
0
  6
Continuous
 62
     0
370
    -2
100
AcDbLine
 10
0.0
 20
0.0
 30
0.0
 11
-1.0
 21
0.0000000000000001
 31
0.0
  0
LINE
  5
8C
330
88
100
AcDbEntity
  8
0
  6
Continuous
 62
     0
370
    -2
100
AcDbLine
 10
0.0
 20
0.0
 30
0.0
 11
-0.9914448613738104
 21
-0.1305261922200515
 31
0.0
  0
ENDBLK
  5
8A
330
88
100
AcDbEntity
  8
0
100
AcDbBlockEnd
  0
BLOCK
  5
8E
330
8D
100
AcDbEntity
  8
0
100
AcDbBlockBegin
  2
FXTIP_UPARROW_E
 70
     0
 10
0.0
 20
0.0
 30
0.0
  3
FXTIP_UPARROW_E
  1

  0
LINE
  5
90
330
8D
100
AcDbEntity
  8
0
  6
Continuous
 62
     0
370
    -2
100
AcDbLine
 10
0.0
 20
0.0
 30
0.0
 11
-1.0
 21
0.0
 31
0.0
  0
LINE
  5
91
330
8D
100
AcDbEntity
  8
0
  6
Continuous
 62
     0
370
    -2
100
AcDbLine
 10
0.0
 20
0.0
 30
0.0
 11
-0.9914448613738104
 21
0.1305261922200516
 31
0.0
  0
ENDBLK
  5
8F
330
8D
100
AcDbEntity
  8
0
100
AcDbBlockEnd
  0
BLOCK
  5
93
330
92
100
AcDbEntity
  8
0
100
AcDbBlockBegin
  2
FXTIP_DOWNARROW_S
 70
     0
 10
0.0
 20
0.0
 30
0.0
  3
FXTIP_DOWNARROW_S
  1

  0
LINE
  5
95
330
92
100
AcDbEntity
  8
0
  6
Continuous
 62
     0
370
    -2
100
AcDbLine
 10
0.0
 20
0.0
 30
0.0
 11
-1.0
 21
0.0000000000000001
 31
0.0
  0
LINE
  5
96
330
92
100
AcDbEntity
  8
0
  6
Continuous
 62
     0
370
    -2
100
AcDbLine
 10
0.0
 20
0.0
 30
0.0
 11
-0.9914448613738104
 21
0.1305261922200517
 31
0.0
  0
ENDBLK
  5
94
330
92
100
AcDbEntity
  8
0
100
AcDbBlockEnd
  0
BLOCK
  5
98
330
97
100
AcDbEntity
  8
0
100
AcDbBlockBegin
  2
FXTIP_DOWNARROW_E
 70
     0
 10
0.0
 20
0.0
 30
0.0
  3
FXTIP_DOWNARROW_E
  1

  0
LINE
  5
9A
330
97
100
AcDbEntity
  8
0
  6
Continuous
 62
     0
370
    -2
100
AcDbLine
 10
0.0
 20
0.0
 30
0.0
 11
-1.0
 21
0.0
 31
0.0
  0
LINE
  5
9B
330
97
100
AcDbEntity
  8
0
  6
Continuous
 62
     0
370
    -2
100
AcDbLine
 10
0.0
 20
0.0
 30
0.0
 11
-0.9914448613738104
 21
-0.1305261922200516
 31
0.0
  0
ENDBLK
  5
99
330
97
100
AcDbEntity
  8
0
100
AcDbBlockEnd
  0
BLOCK
  5
9D
330
9C
100
AcDbEntity
  8
0
100
AcDbBlockBegin
  2
FXTIP_BLACKTRIANGLE_S
 70
     0
 10
0.0
 20
0.0
 30
0.0
  3
FXTIP_BLACKTRIANGLE_S
  1

  0
LINE
  5
9F
330
9C
100
AcDbEntity
  8
0
  6
Continuous
 62
     0
370
    -2
100
AcDbLine
 10
0.0
 20
0.0
 30
0.0
 11
-1.0
 21
0.0000000000000001
 31
0.0
  0
SOLID
  5
A0
330
9C
100
AcDbEntity
  8
0
  6
Continuous
 62
     0
370
    -2
100
AcDbTrace
 10
0.0
 20
0.0
 30
0.0
 11
-0.9914448613738104
 21
-0.1305261922200515
 31
0.0
 12
-0.9914448613738104
 22
0.1305261922200517
 32
0.0
 13
-0.9914448613738104
 23
0.1305261922200517
 33
0.0
  0
ENDBLK
  5
9E
330
9C
100
AcDbEntity
  8
0
100
AcDbBlockEnd
  0
BLOCK
  5
A2
330
A1
100
AcDbEntity
  8
0
100
AcDbBlockBegin
  2
FXTIP_BLACKTRIANGLE_E
 70
     0
 10
0.0
 20
0.0
 30
0.0
  3
FXTIP_BLACKTRIANGLE_E
  1

  0
LINE
  5
A4
330
A1
100
AcDbEntity
  8
0
  6
Continuous
 62
     0
370
    -2
100
AcDbLine
 10
0.0
 20
0.0
 30
0.0
 11
-1.0
 21
0.0
 31
0.0
  0
SOLID
  5
A5
330
A1
100
AcDbEntity
  8
0
  6
Continuous
 62
     0
370
    -2
100
AcDbTrace
 10
0.0
 20
0.0
 30
0.0
 11
-0.9914448613738104
 21
0.1305261922200516
 31
0.0
 12
-0.9914448613738104
 22
-0.1305261922200516
 32
0.0
 13
-0.9914448613738104
 23
-0.1305261922200516
 33
0.0
  0
ENDBLK
  5
A3
330
A1
100
AcDbEntity
  8
0
100
AcDbBlockEnd
  0
BLOCK
  5
D5
330
D4
100
AcDbEntity
  8
0
100
AcDbBlockBegin
  2
BLKF022
 70
     0
 10
0.0
 20
0.0
 30
0.0
  3
BLKF022
  1

  0
CIRCLE
  5
D8
330
D4
100
AcDbEntity
  8
0
  6
ByBlock
 62
     0
370
    -2
100
AcDbCircle
 10
366.9334173093127
 20
83.08868808518426
 30
0.0
 40
3.5
  0
LINE
  5
D9
330
D4
100
AcDbEntity
  8
0
  6
ByBlock
 62
     0
370
    -2
100
AcDbLine
 10
366.4334173093127
 20
85.18868808518425
 30
0.0
 11
367.4334173093127
 21
85.18868808518425
 31
0.0
  0
LINE
  5
DA
330
D4
100
AcDbEntity
  8
0
  6
ByBlock
 62
     0
370
    -2
100
AcDbLine
 10
369.0334173093128
 20
83.58868808518426
 30
0.0
 11
369.0334173093128
 21
82.58868808518426
 31
0.0
  0
LINE
  5
DB
330
D4
100
AcDbEntity
  8
0
  6
ByBlock
 62
     0
370
    -2
100
AcDbLine
 10
366.4334173093127
 20
80.98868808518426
 30
0.0
 11
367.4334173093127
 21
80.98868808518426
 31
0.0
  0
LINE
  5
DC
330
D4
100
AcDbEntity
  8
0
  6
ByBlock
 62
     0
370
    -2
100
AcDbLine
 10
364.8334173093127
 20
83.58868808518426
 30
0.0
 11
364.8334173093127
 21
82.58868808518426
 31
0.0
  0
ARC
  5
DD
330
D4
100
AcDbEntity
  8
0
  6
ByBlock
 62
     0
370
    -2
100
AcDbCircle
 10
369.0334173093128
 20
85.18868808518425
 30
0.0
 40
1.600000000000023
100
AcDbArc
 50
180.0
 51
270.0
  0
ARC
  5
DE
330
D4
100
AcDbEntity
  8
0
  6
ByBlock
 62
     0
370
    -2
100
AcDbCircle
 10
364.8334173093127
 20
85.18868808518425
 30
0.0
 40
1.600000000000023
100
AcDbArc
 50
270.0
 51
0.0
  0
ARC
  5
DF
330
D4
100
AcDbEntity
  8
0
  6
ByBlock
 62
     0
370
    -2
100
AcDbCircle
 10
364.8334173093127
 20
80.98868808518426
 30
0.0
 40
1.600000000000023
100
AcDbArc
 50
0.0
 51
90.0
  0
ARC
  5
E0
330
D4
100
AcDbEntity
  8
0
  6
ByBlock
 62
     0
370
    -2
100
AcDbCircle
 10
369.0334173093128
 20
80.98868808518426
 30
0.0
 40
1.600000000000023
100
AcDbArc
 50
90.0
 51
180.0
  0
ENDBLK
  5
D6
330
D4
100
AcDbEntity
  8
0
100
AcDbBlockEnd
  0
BLOCK
  5
E4
330
E3
100
AcDbEntity
  8
0
100
AcDbBlockBegin
  2
BLKF023
 70
     0
 10
0.0
 20
0.0
 30
0.0
  3
BLKF023
  1

  0
CIRCLE
  5
E7
330
E3
100
AcDbEntity
  8
0
  6
ByBlock
 62
     0
370
    -2
100
AcDbCircle
 10
393.7802048266304
 20
129.5886880851841
 30
0.0
 40
3.5
  0
LINE
  5
E8
330
E3
100
AcDbEntity
  8
0
  6
ByBlock
 62
     0
370
    -2
100
AcDbLine
 10
392.2115514786831
 20
128.105675383292
 30
0.0
 11
391.7115514786831
 21
128.9717007870764
 31
0.0
  0
LINE
  5
E9
330
E3
100
AcDbEntity
  8
0
  6
ByBlock
 62
     0
370
    -2
100
AcDbLine
 10
392.2971921247382
 20
131.1573414331315
 30
0.0
 11
393.1632175285226
 21
131.6573414331315
 31
0.0
  0
LINE
  5
EA
330
E3
100
AcDbEntity
  8
0
  6
ByBlock
 62
     0
370
    -2
100
AcDbLine
 10
395.8488581745777
 20
130.2056753832919
 30
0.0
 11
395.3488581745777
 21
131.0717007870764
 31
0.0
  0
LINE
  5
EB
330
E3
100
AcDbEntity
  8
0
  6
ByBlock
 62
     0
370
    -2
100
AcDbLine
 10
394.3971921247382
 20
127.5200347372368
 30
0.0
 11
395.2632175285226
 21
128.0200347372368
 31
0.0
  0
ARC
  5
EC
330
E3
100
AcDbEntity
  8
0
  6
ByBlock
 62
     0
370
    -2
100
AcDbCircle
 10
390.9115514786831
 20
130.3573414331315
 30
0.0
 40
1.600000000000023
100
AcDbArc
 50
300.0
 51
30.00000000000002
  0
ARC
  5
ED
330
E3
100
AcDbEntity
  8
0
  6
ByBlock
 62
     0
370
    -2
100
AcDbCircle
 10
393.0115514786831
 20
126.7200347372368
 30
0.0
 40
1.600000000000023
100
AcDbArc
 50
30.0
 51
120.0
  0
ARC
  5
EE
330
E3
100
AcDbEntity
  8
0
  6
ByBlock
 62
     0
370
    -2
100
AcDbCircle
 10
396.6488581745777
 20
128.8200347372368
 30
0.0
 40
1.600000000000023
100
AcDbArc
 50
120.0
 51
210.0
  0
ARC
  5
EF
330
E3
100
AcDbEntity
  8
0
  6
ByBlock
 62
     0
370
    -2
100
AcDbCircle
 10
394.5488581745777
 20
132.4573414331315
 30
0.0
 40
1.600000000000023
100
AcDbArc
 50
210.0
 51
300.0
  0
ENDBLK
  5
E5
330
E3
100
AcDbEntity
  8
0
100
AcDbBlockEnd
  0
BLOCK
  5
F4
330
F3
100
AcDbEntity
  8
0
100
AcDbBlockBegin
  2
BLKF024
 70
     0
 10
0.0
 20
0.0
 30
0.0
  3
BLKF024
  1

  0
CIRCLE
  5
F7
330
F3
100
AcDbEntity
  8
0
  6
ByBlock
 62
     0
370
    -2
100
AcDbCircle
 10
340.0866297919952
 20
129.5886880851841
 30
0.0
 40
3.5
  0
LINE
  5
F8
330
F3
100
AcDbEntity
  8
0
  6
ByBlock
 62
     0
370
    -2
100
AcDbLine
 10
341.6552831399425
 20
128.105675383292
 30
0.0
 11
342.1552831399425
 21
128.9717007870764
 31
0.0
  0
LINE
  5
F9
330
F3
100
AcDbEntity
  8
0
  6
ByBlock
 62
     0
370
    -2
100
AcDbLine
 10
341.5696424938874
 20
131.1573414331315
 30
0.0
 11
340.703617090103
 21
131.6573414331315
 31
0.0
  0
LINE
  5
FA
330
F3
100
AcDbEntity
  8
0
  6
ByBlock
 62
     0
370
    -2
100
AcDbLine
 10
338.0179764440479
 20
130.2056753832919
 30
0.0
 11
338.5179764440479
 21
131.0717007870764
 31
0.0
  0
LINE
  5
FB
330
F3
100
AcDbEntity
  8
0
  6
ByBlock
 62
     0
370
    -2
100
AcDbLine
 10
339.4696424938874
 20
127.5200347372368
 30
0.0
 11
338.603617090103
 21
128.0200347372368
 31
0.0
  0
ARC
  5
FC
330
F3
100
AcDbEntity
  8
0
  6
ByBlock
 62
     0
370
    -2
100
AcDbCircle
 10
342.9552831399425
 20
130.3573414331315
 30
0.0
 40
1.600000000000023
100
AcDbArc
 50
149.9999999999995
 51
240.0
  0
ARC
  5
FD
330
F3
100
AcDbEntity
  8
0
  6
ByBlock
 62
     0
370
    -2
100
AcDbCircle
 10
340.8552831399425
 20
126.7200347372368
 30
0.0
 40
1.600000000000023
100
AcDbArc
 50
60.00000000000001
 51
149.9999999999995
  0
ARC
  5
FE
330
F3
100
AcDbEntity
  8
0
  6
ByBlock
 62
     0
370
    -2
100
AcDbCircle
 10
337.2179764440479
 20
128.8200347372368
 30
0.0
 40
1.600000000000023
100
AcDbArc
 50
329.9999999999995
 51
59.99999999999999
  0
ARC
  5
FF
330
F3
100
AcDbEntity
  8
0
  6
ByBlock
 62
     0
370
    -2
100
AcDbCircle
 10
339.3179764440479
 20
132.4573414331315
 30
0.0
 40
1.600000000000023
100
AcDbArc
 50
240.0
 51
329.9999999999995
  0
ENDBLK
  5
F5
330
F3
100
AcDbEntity
  8
0
100
AcDbBlockEnd
  0
BLOCK
  5
110
330
10F
100
AcDbEntity
  8
0
100
AcDbBlockBegin
  2
BLKF025
 70
     0
 10
0.0
 20
0.0
 30
0.0
  3
BLKF025
  1

  0
LINE
  5
113
330
10F
100
AcDbEntity
  8
0
  6
ByBlock
 62
     0
370
    -2
100
AcDbLine
 10
333.6993985935451
 20
142.7039046474351
 30
0.0
 11
337.6993985935451
 21
145.0133057241935
 31
0.0
  0
LINE
  5
114
330
10F
100
AcDbEntity
  8
0
  6
ByBlock
 62
     0
370
    -2
100
AcDbLine
 10
337.6993985935451
 20
145.0133057241935
 30
0.0
 11
337.6993985935451
 21
149.6321078777105
 31
0.0
  0
LINE
  5
115
330
10F
100
AcDbEntity
  8
0
  6
ByBlock
 62
     0
370
    -2
100
AcDbLine
 10
337.6993985935451
 20
149.6321078777105
 30
0.0
 11
333.6993985935451
 21
151.941508954469
 31
0.0
  0
LINE
  5
116
330
10F
100
AcDbEntity
  8
0
  6
ByBlock
 62
     0
370
    -2
100
AcDbLine
 10
333.6993985935451
 20
151.941508954469
 30
0.0
 11
329.6993985935451
 21
149.6321078777105
 31
0.0
  0
LINE
  5
117
330
10F
100
AcDbEntity
  8
0
  6
ByBlock
 62
     0
370
    -2
100
AcDbLine
 10
329.6993985935451
 20
149.6321078777105
 30
0.0
 11
329.6993985935451
 21
145.0133057241935
 31
0.0
  0
LINE
  5
118
330
10F
100
AcDbEntity
  8
0
  6
ByBlock
 62
     0
370
    -2
100
AcDbLine
 10
329.6993985935451
 20
145.0133057241935
 30
0.0
 11
333.6993985935451
 21
142.7039046474351
 31
0.0
  0
CIRCLE
  5
119
330
10F
100
AcDbEntity
  8
0
  6
ByBlock
 62
     0
370
    -2
100
AcDbCircle
 10
333.6993985935451
 20
147.322706800952
 30
0.0
 40
3.9
  0
CIRCLE
  5
11A
330
10F
100
AcDbEntity
  8
0
  6
ByBlock
 62
     0
370
    -2
100
AcDbCircle
 10
333.6993985935451
 20
147.322706800952
 30
0.0
 40
5.0
  0
ENDBLK
  5
111
330
10F
100
AcDbEntity
  8
0
100
AcDbBlockEnd
  0
BLOCK
  5
11C
330
11B
100
AcDbEntity
  8
0
100
AcDbBlockBegin
  2
BLKF026
 70
     0
 10
0.0
 20
0.0
 30
0.0
  3
BLKF026
  1

  0
LINE
  5
11F
330
11B
100
AcDbEntity
  8
0
  6
ByBlock
 62
     0
370
    -2
100
AcDbLine
 10
400.1674360250806
 20
142.7039046474351
 30
0.0
 11
404.1674360250806
 21
145.0133057241936
 31
0.0
  0
LINE
  5
120
330
11B
100
AcDbEntity
  8
0
  6
ByBlock
 62
     0
370
    -2
100
AcDbLine
 10
404.1674360250806
 20
145.0133057241936
 30
0.0
 11
404.1674360250806
 21
149.6321078777106
 31
0.0
  0
LINE
  5
121
330
11B
100
AcDbEntity
  8
0
  6
ByBlock
 62
     0
370
    -2
100
AcDbLine
 10
404.1674360250806
 20
149.6321078777106
 30
0.0
 11
400.1674360250806
 21
151.941508954469
 31
0.0
  0
LINE
  5
122
330
11B
100
AcDbEntity
  8
0
  6
ByBlock
 62
     0
370
    -2
100
AcDbLine
 10
400.1674360250806
 20
151.941508954469
 30
0.0
 11
396.1674360250806
 21
149.6321078777106
 31
0.0
  0
LINE
  5
123
330
11B
100
AcDbEntity
  8
0
  6
ByBlock
 62
     0
370
    -2
100
AcDbLine
 10
396.1674360250806
 20
149.6321078777106
 30
0.0
 11
396.1674360250806
 21
145.0133057241936
 31
0.0
  0
LINE
  5
124
330
11B
100
AcDbEntity
  8
0
  6
ByBlock
 62
     0
370
    -2
100
AcDbLine
 10
396.1674360250806
 20
145.0133057241936
 30
0.0
 11
400.1674360250806
 21
142.7039046474351
 31
0.0
  0
CIRCLE
  5
125
330
11B
100
AcDbEntity
  8
0
  6
ByBlock
 62
     0
370
    -2
100
AcDbCircle
 10
400.1674360250806
 20
147.3227068009521
 30
0.0
 40
3.9
  0
CIRCLE
  5
126
330
11B
100
AcDbEntity
  8
0
  6
ByBlock
 62
     0
370
    -2
100
AcDbCircle
 10
400.1674360250806
 20
147.3227068009521
 30
0.0
 40
5.0
  0
ENDBLK
  5
11D
330
11B
100
AcDbEntity
  8
0
100
AcDbBlockEnd
  0
BLOCK
  5
128
330
127
100
AcDbEntity
  8
0
100
AcDbBlockBegin
  2
BLKF027
 70
     0
 10
0.0
 20
0.0
 30
0.0
  3
BLKF027
  1

  0
LINE
  5
12B
330
127
100
AcDbEntity
  8
0
  6
ByBlock
 62
     0
370
    -2
100
AcDbLine
 10
333.6993985935449
 20
76.23586721589933
 30
0.0
 11
337.6993985935449
 21
78.54526829265782
 31
0.0
  0
LINE
  5
12C
330
127
100
AcDbEntity
  8
0
  6
ByBlock
 62
     0
370
    -2
100
AcDbLine
 10
337.6993985935449
 20
78.54526829265782
 30
0.0
 11
337.6993985935449
 21
83.1640704461748
 31
0.0
  0
LINE
  5
12D
330
127
100
AcDbEntity
  8
0
  6
ByBlock
 62
     0
370
    -2
100
AcDbLine
 10
337.6993985935449
 20
83.1640704461748
 30
0.0
 11
333.6993985935449
 21
85.4734715229333
 31
0.0
  0
LINE
  5
12E
330
127
100
AcDbEntity
  8
0
  6
ByBlock
 62
     0
370
    -2
100
AcDbLine
 10
333.6993985935449
 20
85.4734715229333
 30
0.0
 11
329.6993985935449
 21
83.1640704461748
 31
0.0
  0
LINE
  5
12F
330
127
100
AcDbEntity
  8
0
  6
ByBlock
 62
     0
370
    -2
100
AcDbLine
 10
329.6993985935449
 20
83.1640704461748
 30
0.0
 11
329.6993985935449
 21
78.54526829265782
 31
0.0
  0
LINE
  5
130
330
127
100
AcDbEntity
  8
0
  6
ByBlock
 62
     0
370
    -2
100
AcDbLine
 10
329.6993985935449
 20
78.54526829265782
 30
0.0
 11
333.6993985935449
 21
76.23586721589933
 31
0.0
  0
CIRCLE
  5
131
330
127
100
AcDbEntity
  8
0
  6
ByBlock
 62
     0
370
    -2
100
AcDbCircle
 10
333.6993985935449
 20
80.85466936941631
 30
0.0
 40
3.9
  0
CIRCLE
  5
132
330
127
100
AcDbEntity
  8
0
  6
ByBlock
 62
     0
370
    -2
100
AcDbCircle
 10
333.6993985935449
 20
80.85466936941631
 30
0.0
 40
5.0
  0
ENDBLK
  5
129
330
127
100
AcDbEntity
  8
0
100
AcDbBlockEnd
  0
BLOCK
  5
134
330
133
100
AcDbEntity
  8
0
100
AcDbBlockBegin
  2
BLKF028
 70
     0
 10
0.0
 20
0.0
 30
0.0
  3
BLKF028
  1

  0
LINE
  5
137
330
133
100
AcDbEntity
  8
0
  6
ByBlock
 62
     0
370
    -2
100
AcDbLine
 10
400.1674360250806
 20
76.2358672158995
 30
0.0
 11
404.1674360250806
 21
78.545268292658
 31
0.0
  0
LINE
  5
138
330
133
100
AcDbEntity
  8
0
  6
ByBlock
 62
     0
370
    -2
100
AcDbLine
 10
404.1674360250806
 20
78.545268292658
 30
0.0
 11
404.1674360250806
 21
83.16407044617497
 31
0.0
  0
LINE
  5
139
330
133
100
AcDbEntity
  8
0
  6
ByBlock
 62
     0
370
    -2
100
AcDbLine
 10
404.1674360250806
 20
83.16407044617497
 30
0.0
 11
400.1674360250806
 21
85.47347152293347
 31
0.0
  0
LINE
  5
13A
330
133
100
AcDbEntity
  8
0
  6
ByBlock
 62
     0
370
    -2
100
AcDbLine
 10
400.1674360250806
 20
85.47347152293347
 30
0.0
 11
396.1674360250806
 21
83.16407044617497
 31
0.0
  0
LINE
  5
13B
330
133
100
AcDbEntity
  8
0
  6
ByBlock
 62
     0
370
    -2
100
AcDbLine
 10
396.1674360250806
 20
83.16407044617497
 30
0.0
 11
396.1674360250806
 21
78.545268292658
 31
0.0
  0
LINE
  5
13C
330
133
100
AcDbEntity
  8
0
  6
ByBlock
 62
     0
370
    -2
100
AcDbLine
 10
396.1674360250806
 20
78.545268292658
 30
0.0
 11
400.1674360250806
 21
76.2358672158995
 31
0.0
  0
CIRCLE
  5
13D
330
133
100
AcDbEntity
  8
0
  6
ByBlock
 62
     0
370
    -2
100
AcDbCircle
 10
400.1674360250806
 20
80.85466936941648
 30
0.0
 40
3.9
  0
CIRCLE
  5
13E
330
133
100
AcDbEntity
  8
0
  6
ByBlock
 62
     0
370
    -2
100
AcDbCircle
 10
400.1674360250806
 20
80.85466936941648
 30
0.0
 40
5.0
  0
ENDBLK
  5
135
330
133
100
AcDbEntity
  8
0
100
AcDbBlockEnd
  0
BLOCK
  5
19F
330
19E
100
AcDbEntity
  8
0
100
AcDbBlockBegin
  2
BLKF029
 70
     0
 10
0.0
 20
0.0
 30
0.0
  3
BLKF029
  1

  0
CIRCLE
  5
1A2
330
19E
100
AcDbEntity
  8
0
  6
ByBlock
 62
     0
370
    -2
100
AcDbCircle
 10
93.72017651263224
 20
147.3227068009519
 30
0.0
 40
4.5
  0
LINE
  5
1A3
330
19E
100
AcDbEntity
  8
0
  6
ByBlock
 62
     0
370
    -2
100
AcDbLine
 10
93.12017651263224
 20
149.7727068009519
 30
0.0
 11
94.32017651263223
 21
149.7727068009519
 31
0.0
  0
LINE
  5
1A4
330
19E
100
AcDbEntity
  8
0
  6
ByBlock
 62
     0
370
    -2
100
AcDbLine
 10
96.17017651263224
 20
147.9227068009519
 30
0.0
 11
96.17017651263224
 21
146.7227068009519
 31
0.0
  0
LINE
  5
1A5
330
19E
100
AcDbEntity
  8
0
  6
ByBlock
 62
     0
370
    -2
100
AcDbLine
 10
93.12017651263224
 20
144.8727068009519
 30
0.0
 11
94.32017651263223
 21
144.8727068009519
 31
0.0
  0
LINE
  5
1A6
330
19E
100
AcDbEntity
  8
0
  6
ByBlock
 62
     0
370
    -2
100
AcDbLine
 10
91.27017651263223
 20
147.9227068009519
 30
0.0
 11
91.27017651263223
 21
146.7227068009519
 31
0.0
  0
ARC
  5
1A7
330
19E
100
AcDbEntity
  8
0
  6
ByBlock
 62
     0
370
    -2
100
AcDbCircle
 10
96.17017651263224
 20
149.7727068009519
 30
0.0
 40
1.850000000000009
100
AcDbArc
 50
180.0
 51
270.0
  0
ARC
  5
1A8
330
19E
100
AcDbEntity
  8
0
  6
ByBlock
 62
     0
370
    -2
100
AcDbCircle
 10
91.27017651263223
 20
149.7727068009519
 30
0.0
 40
1.850000000000009
100
AcDbArc
 50
270.0
 51
0.0
  0
ARC
  5
1A9
330
19E
100
AcDbEntity
  8
0
  6
ByBlock
 62
     0
370
    -2
100
AcDbCircle
 10
91.27017651263223
 20
144.8727068009519
 30
0.0
 40
1.850000000000009
100
AcDbArc
 50
0.0
 51
90.0
  0
ARC
  5
1AA
330
19E
100
AcDbEntity
  8
0
  6
ByBlock
 62
     0
370
    -2
100
AcDbCircle
 10
96.17017651263224
 20
144.8727068009519
 30
0.0
 40
1.850000000000009
100
AcDbArc
 50
90.0
 51
180.0
  0
ENDBLK
  5
1A0
330
19E
100
AcDbEntity
  8
0
100
AcDbBlockEnd
  0
BLOCK
  5
1AC
330
1AB
100
AcDbEntity
  8
0
100
AcDbBlockBegin
  2
BLKF030
 70
     0
 10
0.0
 20
0.0
 30
0.0
  3
BLKF030
  1

  0
CIRCLE
  5
1AF
330
1AB
100
AcDbEntity
  8
0
  6
ByBlock
 62
     0
370
    -2
100
AcDbCircle
 10
27.25213908109698
 20
147.3227068009521
 30
0.0
 40
4.5
  0
LINE
  5
1B0
330
1AB
100
AcDbEntity
  8
0
  6
ByBlock
 62
     0
370
    -2
100
AcDbLine
 10
26.65213908109698
 20
149.7727068009521
 30
0.0
 11
27.85213908109699
 21
149.7727068009521
 31
0.0
  0
LINE
  5
1B1
330
1AB
100
AcDbEntity
  8
0
  6
ByBlock
 62
     0
370
    -2
100
AcDbLine
 10
29.70213908109698
 20
147.9227068009521
 30
0.0
 11
29.70213908109698
 21
146.7227068009521
 31
0.0
  0
LINE
  5
1B2
330
1AB
100
AcDbEntity
  8
0
  6
ByBlock
 62
     0
370
    -2
100
AcDbLine
 10
26.65213908109698
 20
144.8727068009521
 30
0.0
 11
27.85213908109699
 21
144.8727068009521
 31
0.0
  0
LINE
  5
1B3
330
1AB
100
AcDbEntity
  8
0
  6
ByBlock
 62
     0
370
    -2
100
AcDbLine
 10
24.80213908109699
 20
147.9227068009521
 30
0.0
 11
24.80213908109699
 21
146.7227068009521
 31
0.0
  0
ARC
  5
1B4
330
1AB
100
AcDbEntity
  8
0
  6
ByBlock
 62
     0
370
    -2
100
AcDbCircle
 10
29.70213908109698
 20
149.7727068009521
 30
0.0
 40
1.849999999999998
100
AcDbArc
 50
180.0
 51
270.0
  0
ARC
  5
1B5
330
1AB
100
AcDbEntity
  8
0
  6
ByBlock
 62
     0
370
    -2
100
AcDbCircle
 10
24.80213908109699
 20
149.7727068009521
 30
0.0
 40
1.849999999999998
100
AcDbArc
 50
270.0
 51
0.0
  0
ARC
  5
1B6
330
1AB
100
AcDbEntity
  8
0
  6
ByBlock
 62
     0
370
    -2
100
AcDbCircle
 10
24.80213908109699
 20
144.8727068009521
 30
0.0
 40
1.849999999999998
100
AcDbArc
 50
0.0
 51
90.0
  0
ARC
  5
1B7
330
1AB
100
AcDbEntity
  8
0
  6
ByBlock
 62
     0
370
    -2
100
AcDbCircle
 10
29.70213908109698
 20
144.8727068009521
 30
0.0
 40
1.849999999999998
100
AcDbArc
 50
90.0
 51
180.0
  0
ENDBLK
  5
1AD
330
1AB
100
AcDbEntity
  8
0
100
AcDbBlockEnd
  0
BLOCK
  5
1B9
330
1B8
100
AcDbEntity
  8
0
100
AcDbBlockBegin
  2
BLKF031
 70
     0
 10
0.0
 20
0.0
 30
0.0
  3
BLKF031
  1

  0
CIRCLE
  5
1BC
330
1B8
100
AcDbEntity
  8
0
  6
ByBlock
 62
     0
370
    -2
100
AcDbCircle
 10
27.25213908109679
 20
80.8546693694164
 30
0.0
 40
4.5
  0
LINE
  5
1BD
330
1B8
100
AcDbEntity
  8
0
  6
ByBlock
 62
     0
370
    -2
100
AcDbLine
 10
26.65213908109679
 20
83.3046693694164
 30
0.0
 11
27.85213908109679
 21
83.3046693694164
 31
0.0
  0
LINE
  5
1BE
330
1B8
100
AcDbEntity
  8
0
  6
ByBlock
 62
     0
370
    -2
100
AcDbLine
 10
29.70213908109679
 20
81.4546693694164
 30
0.0
 11
29.70213908109679
 21
80.2546693694164
 31
0.0
  0
LINE
  5
1BF
330
1B8
100
AcDbEntity
  8
0
  6
ByBlock
 62
     0
370
    -2
100
AcDbLine
 10
26.65213908109679
 20
78.4046693694164
 30
0.0
 11
27.85213908109679
 21
78.4046693694164
 31
0.0
  0
LINE
  5
1C0
330
1B8
100
AcDbEntity
  8
0
  6
ByBlock
 62
     0
370
    -2
100
AcDbLine
 10
24.80213908109679
 20
81.4546693694164
 30
0.0
 11
24.80213908109679
 21
80.2546693694164
 31
0.0
  0
ARC
  5
1C1
330
1B8
100
AcDbEntity
  8
0
  6
ByBlock
 62
     0
370
    -2
100
AcDbCircle
 10
29.70213908109679
 20
83.3046693694164
 30
0.0
 40
1.849999999999998
100
AcDbArc
 50
180.0
 51
270.0
  0
ARC
  5
1C2
330
1B8
100
AcDbEntity
  8
0
  6
ByBlock
 62
     0
370
    -2
100
AcDbCircle
 10
24.80213908109679
 20
83.3046693694164
 30
0.0
 40
1.849999999999998
100
AcDbArc
 50
270.0
 51
0.0
  0
ARC
  5
1C3
330
1B8
100
AcDbEntity
  8
0
  6
ByBlock
 62
     0
370
    -2
100
AcDbCircle
 10
24.80213908109679
 20
78.4046693694164
 30
0.0
 40
1.849999999999998
100
AcDbArc
 50
0.0
 51
90.0
  0
ARC
  5
1C4
330
1B8
100
AcDbEntity
  8
0
  6
ByBlock
 62
     0
370
    -2
100
AcDbCircle
 10
29.70213908109679
 20
78.4046693694164
 30
0.0
 40
1.849999999999998
100
AcDbArc
 50
90.0
 51
180.0
  0
ENDBLK
  5
1BA
330
1B8
100
AcDbEntity
  8
0
100
AcDbBlockEnd
  0
BLOCK
  5
1C6
330
1C5
100
AcDbEntity
  8
0
100
AcDbBlockBegin
  2
BLKF032
 70
     0
 10
0.0
 20
0.0
 30
0.0
  3
BLKF032
  1

  0
CIRCLE
  5
1C9
330
1C5
100
AcDbEntity
  8
0
  6
ByBlock
 62
     0
370
    -2
100
AcDbCircle
 10
93.72017651263246
 20
80.85466936941657
 30
0.0
 40
4.5
  0
LINE
  5
1CA
330
1C5
100
AcDbEntity
  8
0
  6
ByBlock
 62
     0
370
    -2
100
AcDbLine
 10
93.12017651263247
 20
83.30466936941657
 30
0.0
 11
94.32017651263246
 21
83.30466936941657
 31
0.0
  0
LINE
  5
1CB
330
1C5
100
AcDbEntity
  8
0
  6
ByBlock
 62
     0
370
    -2
100
AcDbLine
 10
96.17017651263247
 20
81.45466936941656
 30
0.0
 11
96.17017651263247
 21
80.25466936941658
 31
0.0
  0
LINE
  5
1CC
330
1C5
100
AcDbEntity
  8
0
  6
ByBlock
 62
     0
370
    -2
100
AcDbLine
 10
93.12017651263247
 20
78.40466936941657
 30
0.0
 11
94.32017651263246
 21
78.40466936941657
 31
0.0
  0
LINE
  5
1CD
330
1C5
100
AcDbEntity
  8
0
  6
ByBlock
 62
     0
370
    -2
100
AcDbLine
 10
91.27017651263246
 20
81.45466936941656
 30
0.0
 11
91.27017651263246
 21
80.25466936941658
 31
0.0
  0
ARC
  5
1CE
330
1C5
100
AcDbEntity
  8
0
  6
ByBlock
 62
     0
370
    -2
100
AcDbCircle
 10
96.17017651263247
 20
83.30466936941657
 30
0.0
 40
1.850000000000009
100
AcDbArc
 50
180.0
 51
270.0
  0
ARC
  5
1CF
330
1C5
100
AcDbEntity
  8
0
  6
ByBlock
 62
     0
370
    -2
100
AcDbCircle
 10
91.27017651263246
 20
83.30466936941657
 30
0.0
 40
1.850000000000009
100
AcDbArc
 50
270.0
 51
0.0
  0
ARC
  5
1D0
330
1C5
100
AcDbEntity
  8
0
  6
ByBlock
 62
     0
370
    -2
100
AcDbCircle
 10
91.27017651263246
 20
78.40466936941657
 30
0.0
 40
1.850000000000009
100
AcDbArc
 50
0.0
 51
90.0
  0
ARC
  5
1D1
330
1C5
100
AcDbEntity
  8
0
  6
ByBlock
 62
     0
370
    -2
100
AcDbCircle
 10
96.17017651263247
 20
78.40466936941657
 30
0.0
 40
1.850000000000009
100
AcDbArc
 50
90.0
 51
180.0
  0
ENDBLK
  5
1C7
330
1C5
100
AcDbEntity
  8
0
100
AcDbBlockEnd
  0
BLOCK
  5
222
330
221
100
AcDbEntity
  8
0
100
AcDbBlockBegin
  2
BLKF033
 70
     0
 10
0.0
 20
0.0
 30
0.0
  3
BLKF033
  1

  0
LINE
  5
225
330
221
100
AcDbEntity
  8
0
  6
ByBlock
 62
     0
370
    -2
100
AcDbLine
 10
220.2709565373747
 20
257.1465377306915
 30
0.0
 11
218.8794597434991
 21
257.219462987538
 31
0.0
  0
LINE
  5
226
330
221
100
AcDbEntity
  8
0
  6
ByBlock
 62
     0
370
    -2
100
AcDbLine
 10
220.2709565373747
 20
266.1465377306915
 30
0.0
 11
218.8794597434991
 21
266.0736124738451
 31
0.0
  0
LINE
  5
227
330
221
100
AcDbEntity
  8
0
  6
ByBlock
 62
     0
370
    -2
100
AcDbLine
 10
220.2709565373747
 20
257.1465377306915
 30
0.0
 11
220.2709565373747
 21
266.1465377306915
 31
0.0
  0
ARC
  5
228
330
221
100
AcDbEntity
  8
0
  6
ByBlock
 62
     0
370
    -2
100
AcDbCircle
 10
218.9631972734878
 20
258.8172702431453
 30
0.0
 40
1.6
100
AcDbArc
 50
195.7859896410124
 51
266.9999999999994
  0
ARC
  5
229
330
221
100
AcDbEntity
  8
0
  6
ByBlock
 62
     0
370
    -2
100
AcDbCircle
 10
218.9631972734878
 20
264.4758052182377
 30
0.0
 40
1.6
100
AcDbArc
 50
93.00000000000053
 51
164.2140103589876
  0
ARC
  5
22A
330
221
100
AcDbEntity
  8
0
  6
ByBlock
 62
     0
370
    -2
100
AcDbCircle
 10
228.9709565373747
 20
261.6465377306915
 30
0.0
 40
12.0
100
AcDbArc
 50
164.2140103589876
 51
195.7859896410124
  0
LINE
  5
22B
330
221
100
AcDbEntity
  8
0
  6
ByBlock
 62
     0
370
    -2
100
AcDbLine
 10
273.7709637560372
 20
259.1465377306915
 30
0.0
 11
284.4709565373748
 21
259.1465377306915
 31
0.0
  0
LINE
  5
22C
330
221
100
AcDbEntity
  8
0
  6
ByBlock
 62
     0
370
    -2
100
AcDbLine
 10
273.7709637560372
 20
264.1465377306915
 30
0.0
 11
284.4709565373747
 21
264.1465377306915
 31
0.0
  0
LINE
  5
22D
330
221
100
AcDbEntity
  8
0
  6
ByBlock
 62
     0
370
    -2
100
AcDbLine
 10
285.2709565373747
 20
259.9465377306915
 30
0.0
 11
285.2709565373747
 21
263.3465377306916
 31
0.0
  0
LINE
  5
22E
330
221
100
AcDbEntity
  8
0
  6
ByBlock
 62
     7
370
    20
100
AcDbLine
 10
273.7709637560372
 20
259.6465377306915
 30
0.0
 11
284.9709565373747
 21
259.6465377306915
 31
0.0
  0
LINE
  5
22F
330
221
100
AcDbEntity
  8
0
  6
ByBlock
 62
     7
370
    20
100
AcDbLine
 10
273.7709637560372
 20
263.6465377306915
 30
0.0
 11
284.9709565373747
 21
263.6465377306915
 31
0.0
  0
LINE
  5
230
330
221
100
AcDbEntity
  8
0
  6
ByBlock
 62
     0
370
    -2
100
AcDbLine
 10
285.2709565373747
 20
263.3465377306916
 30
0.0
 11
284.4709565373747
 21
264.1465377306915
 31
0.0
  0
LINE
  5
231
330
221
100
AcDbEntity
  8
0
  6
ByBlock
 62
     0
370
    -2
100
AcDbLine
 10
284.4709565373748
 20
259.1465377306915
 30
0.0
 11
285.2709565373747
 21
259.9465377306915
 31
0.0
  0
ENDBLK
  5
223
330
221
100
AcDbEntity
  8
0
100
AcDbBlockEnd
  0
BLOCK
  5
234
330
233
100
AcDbEntity
  8
0
100
AcDbBlockBegin
  2
BLKF034
 70
     0
 10
0.0
 20
0.0
 30
0.0
  3
BLKF034
  1

  0
LINE
  5
237
330
233
100
AcDbEntity
  8
0
  6
ByBlock
 62
     0
370
    -2
100
AcDbLine
 10
220.2709555948969
 20
190.6785081589621
 30
0.0
 11
218.8794588162947
 21
190.7514337072431
 31
0.0
  0
LINE
  5
238
330
233
100
AcDbEntity
  8
0
  6
ByBlock
 62
     0
370
    -2
100
AcDbLine
 10
220.2709574798525
 20
199.678508158962
 30
0.0
 11
218.8794606707035
 21
199.6055831935498
 31
0.0
  0
LINE
  5
239
330
233
100
AcDbEntity
  8
0
  6
ByBlock
 62
     0
370
    -2
100
AcDbLine
 10
220.2709555948969
 20
190.6785081589621
 30
0.0
 11
220.2709574798525
 21
199.678508158962
 31
0.0
  0
ARC
  5
23A
330
233
100
AcDbEntity
  8
0
  6
ByBlock
 62
     0
370
    -2
100
AcDbCircle
 10
218.9631966809274
 20
192.3492409453124
 30
0.0
 40
1.6
100
AcDbArc
 50
195.7859776410124
 51
266.9999879999995
  0
ARC
  5
23B
330
233
100
AcDbEntity
  8
0
  6
ByBlock
 62
     0
370
    -2
100
AcDbCircle
 10
218.9631978660482
 20
198.0077759204046
 30
0.0
 40
1.6
100
AcDbArc
 50
92.99998800000054
 51
164.2139983589876
  0
ARC
  5
23C
330
233
100
AcDbEntity
  8
0
  6
ByBlock
 62
     0
370
    -2
100
AcDbCircle
 10
228.9709565373745
 20
195.1785063368383
 30
0.0
 40
12.0
100
AcDbArc
 50
164.2139983589876
 51
195.7859776410124
  0
LINE
  5
23D
330
233
100
AcDbEntity
  8
0
  6
ByBlock
 62
     0
370
    -2
100
AcDbLine
 10
273.7709487951157
 20
192.6784969539498
 30
0.0
 11
284.4709560137745
 21
192.6784947129456
 31
0.0
  0
LINE
  5
23E
330
233
100
AcDbEntity
  8
0
  6
ByBlock
 62
     0
370
    -2
100
AcDbLine
 10
273.7709498423132
 20
197.6784969539497
 30
0.0
 11
284.4709570609721
 21
197.6784947129455
 31
0.0
  0
LINE
  5
23F
330
233
100
AcDbEntity
  8
0
  6
ByBlock
 62
     0
370
    -2
100
AcDbLine
 10
285.2709561813261
 20
193.4784945453939
 30
0.0
 11
285.2709568934204
 21
196.8784945453939
 31
0.0
  0
LINE
  5
240
330
233
100
AcDbEntity
  8
0
  6
ByBlock
 62
     7
370
    20
100
AcDbLine
 10
273.7709488998354
 20
193.1784969539498
 30
0.0
 11
284.9709561184942
 21
193.1784946082258
 31
0.0
  0
LINE
  5
241
330
233
100
AcDbEntity
  8
0
  6
ByBlock
 62
     7
370
    20
100
AcDbLine
 10
273.7709497375935
 20
197.1784969539497
 30
0.0
 11
284.9709569562523
 21
197.1784946082257
 31
0.0
  0
LINE
  5
242
330
233
100
AcDbEntity
  8
0
  6
ByBlock
 62
     0
370
    -2
100
AcDbLine
 10
284.4709560137745
 20
192.6784947129456
 30
0.0
 11
285.2709561813261
 21
193.4784945453939
 31
0.0
  0
LINE
  5
243
330
233
100
AcDbEntity
  8
0
  6
ByBlock
 62
     0
370
    -2
100
AcDbLine
 10
285.2709568934204
 20
196.8784945453939
 30
0.0
 11
284.4709570609721
 21
197.6784947129455
 31
0.0
  0
ENDBLK
  5
235
330
233
100
AcDbEntity
  8
0
100
AcDbBlockEnd
  0
BLOCK
  5
2A1
330
2A0
100
AcDbEntity
  8
0
100
AcDbBlockBegin
  2
BLKF035
 70
     0
 10
0.0
 20
0.0
 30
0.0
  3
BLKF035
  1

  0
LINE
  5
2A4
330
2A0
100
AcDbEntity
  8
0
  6
ByBlock
 62
     0
370
    -2
100
AcDbLine
 10
220.2709565373747
 20
142.8227088101167
 30
0.0
 11
218.8794597434991
 21
142.8956340669632
 31
0.0
  0
LINE
  5
2A5
330
2A0
100
AcDbEntity
  8
0
  6
ByBlock
 62
     0
370
    -2
100
AcDbLine
 10
220.2709565373747
 20
151.8227088101167
 30
0.0
 11
218.8794597434991
 21
151.7497835532702
 31
0.0
  0
LINE
  5
2A6
330
2A0
100
AcDbEntity
  8
0
  6
ByBlock
 62
     0
370
    -2
100
AcDbLine
 10
220.2709565373747
 20
142.8227088101167
 30
0.0
 11
220.2709565373747
 21
151.8227088101167
 31
0.0
  0
ARC
  5
2A7
330
2A0
100
AcDbEntity
  8
0
  6
ByBlock
 62
     0
370
    -2
100
AcDbCircle
 10
218.9631972734878
 20
144.4934413225705
 30
0.0
 40
1.6
100
AcDbArc
 50
195.7859896410124
 51
266.9999999999994
  0
ARC
  5
2A8
330
2A0
100
AcDbEntity
  8
0
  6
ByBlock
 62
     0
370
    -2
100
AcDbCircle
 10
218.9631972734878
 20
150.1519762976629
 30
0.0
 40
1.6
100
AcDbArc
 50
93.00000000000053
 51
164.2140103589876
  0
ARC
  5
2A9
330
2A0
100
AcDbEntity
  8
0
  6
ByBlock
 62
     0
370
    -2
100
AcDbCircle
 10
228.9709565373747
 20
147.3227088101167
 30
0.0
 40
12.0
100
AcDbArc
 50
164.2140103589876
 51
195.7859896410124
  0
LINE
  5
2AA
330
2A0
100
AcDbEntity
  8
0
  6
ByBlock
 62
     0
370
    -2
100
AcDbLine
 10
273.7709637560372
 20
144.8227088101167
 30
0.0
 11
284.4709565373748
 21
144.8227088101167
 31
0.0
  0
LINE
  5
2AB
330
2A0
100
AcDbEntity
  8
0
  6
ByBlock
 62
     0
370
    -2
100
AcDbLine
 10
273.7709637560372
 20
149.8227088101167
 30
0.0
 11
284.4709565373747
 21
149.8227088101168
 31
0.0
  0
LINE
  5
2AC
330
2A0
100
AcDbEntity
  8
0
  6
ByBlock
 62
     0
370
    -2
100
AcDbLine
 10
285.2709565373747
 20
145.6227088101167
 30
0.0
 11
285.2709565373747
 21
149.0227088101167
 31
0.0
  0
LINE
  5
2AD
330
2A0
100
AcDbEntity
  8
0
  6
ByBlock
 62
     7
370
    20
100
AcDbLine
 10
273.7709637560372
 20
145.3227088101167
 30
0.0
 11
284.9709565373747
 21
145.3227088101167
 31
0.0
  0
LINE
  5
2AE
330
2A0
100
AcDbEntity
  8
0
  6
ByBlock
 62
     7
370
    20
100
AcDbLine
 10
273.7709637560372
 20
149.3227088101167
 30
0.0
 11
284.9709565373747
 21
149.3227088101168
 31
0.0
  0
LINE
  5
2AF
330
2A0
100
AcDbEntity
  8
0
  6
ByBlock
 62
     0
370
    -2
100
AcDbLine
 10
285.2709565373747
 20
149.0227088101167
 30
0.0
 11
284.4709565373747
 21
149.8227088101168
 31
0.0
  0
LINE
  5
2B0
330
2A0
100
AcDbEntity
  8
0
  6
ByBlock
 62
     0
370
    -2
100
AcDbLine
 10
284.4709565373748
 20
144.8227088101167
 30
0.0
 11
285.2709565373747
 21
145.6227088101167
 31
0.0
  0
ENDBLK
  5
2A2
330
2A0
100
AcDbEntity
  8
0
100
AcDbBlockEnd
  0
BLOCK
  5
2B3
330
2B2
100
AcDbEntity
  8
0
100
AcDbBlockBegin
  2
BLKF036
 70
     0
 10
0.0
 20
0.0
 30
0.0
  3
BLKF036
  1

  0
LINE
  5
2B6
330
2B2
100
AcDbEntity
  8
0
  6
ByBlock
 62
     0
370
    -2
100
AcDbLine
 10
220.2709555948969
 20
76.35467923838732
 30
0.0
 11
218.8794588162947
 21
76.42760478666824
 31
0.0
  0
LINE
  5
2B7
330
2B2
100
AcDbEntity
  8
0
  6
ByBlock
 62
     0
370
    -2
100
AcDbLine
 10
220.2709574798525
 20
85.35467923838715
 30
0.0
 11
218.8794606707035
 21
85.28175427297504
 31
0.0
  0
LINE
  5
2B8
330
2B2
100
AcDbEntity
  8
0
  6
ByBlock
 62
     0
370
    -2
100
AcDbLine
 10
220.2709555948969
 20
76.35467923838732
 30
0.0
 11
220.2709574798525
 21
85.35467923838715
 31
0.0
  0
ARC
  5
2B9
330
2B2
100
AcDbEntity
  8
0
  6
ByBlock
 62
     0
370
    -2
100
AcDbCircle
 10
218.9631966809274
 20
78.02541202473756
 30
0.0
 40
1.6
100
AcDbArc
 50
195.7859776410124
 51
266.9999879999995
  0
ARC
  5
2BA
330
2B2
100
AcDbEntity
  8
0
  6
ByBlock
 62
     0
370
    -2
100
AcDbCircle
 10
218.9631978660482
 20
83.68394699982983
 30
0.0
 40
1.6
100
AcDbArc
 50
92.99998800000054
 51
164.2139983589876
  0
ARC
  5
2BB
330
2B2
100
AcDbEntity
  8
0
  6
ByBlock
 62
     0
370
    -2
100
AcDbCircle
 10
228.9709565373745
 20
80.85467741626348
 30
0.0
 40
12.0
100
AcDbArc
 50
164.2139983589876
 51
195.7859776410124
  0
LINE
  5
2BC
330
2B2
100
AcDbEntity
  8
0
  6
ByBlock
 62
     0
370
    -2
100
AcDbLine
 10
273.7709487951157
 20
78.35466803337502
 30
0.0
 11
284.4709560137745
 21
78.35466579237075
 31
0.0
  0
LINE
  5
2BD
330
2B2
100
AcDbEntity
  8
0
  6
ByBlock
 62
     0
370
    -2
100
AcDbLine
 10
273.7709498423132
 20
83.3546680333749
 30
0.0
 11
284.4709570609721
 21
83.35466579237064
 31
0.0
  0
LINE
  5
2BE
330
2B2
100
AcDbEntity
  8
0
  6
ByBlock
 62
     0
370
    -2
100
AcDbLine
 10
285.2709561813261
 20
79.15466562481913
 30
0.0
 11
285.2709568934204
 21
82.55466562481905
 31
0.0
  0
LINE
  5
2BF
330
2B2
100
AcDbEntity
  8
0
  6
ByBlock
 62
     7
370
    20
100
AcDbLine
 10
273.7709488998354
 20
78.85466803337499
 30
0.0
 11
284.9709561184942
 21
78.85466568765099
 31
0.0
  0
LINE
  5
2C0
330
2B2
100
AcDbEntity
  8
0
  6
ByBlock
 62
     7
370
    20
100
AcDbLine
 10
273.7709497375935
 20
82.8546680333749
 30
0.0
 11
284.9709569562523
 21
82.85466568765088
 31
0.0
  0
LINE
  5
2C1
330
2B2
100
AcDbEntity
  8
0
  6
ByBlock
 62
     0
370
    -2
100
AcDbLine
 10
284.4709560137745
 20
78.35466579237075
 30
0.0
 11
285.2709561813261
 21
79.15466562481913
 31
0.0
  0
LINE
  5
2C2
330
2B2
100
AcDbEntity
  8
0
  6
ByBlock
 62
     0
370
    -2
100
AcDbLine
 10
285.2709568934204
 20
82.55466562481905
 30
0.0
 11
284.4709570609721
 21
83.35466579237064
 31
0.0
  0
ENDBLK
  5
2B4
330
2B2
100
AcDbEntity
  8
0
100
AcDbBlockEnd
  0
ENDSEC
  0
SECTION
  2
ENTITIES
  0
LINE
  5
AA
330
1F
100
AcDbEntity
  8
作図レイヤ
  6
一点鎖線
 62
     7
370
    20
100
AcDbLine
 10
214.0433722246783
 20
147.3227088101167
 30
0.0
 11
288.2709565373747
 21
147.3227088101166
 31
0.0
  0
LINE
  5
AB
330
1F
100
AcDbEntity
  8
作図レイヤ
  6
一点鎖線
 62
     7
370
    20
100
AcDbLine
 10
213.743365006018
 20
80.85468061587048
 30
0.0
 11
288.2709565373732
 21
80.85466488870554
 31
0.0
  0
LINE
  5
AC
330
1F
100
AcDbEntity
  8
作図レイヤ
  6
一点鎖線
 62
     7
370
    20
100
AcDbLine
 10
271.9731482192067
 20
114.0886880851843
 30
0.0
 11
130.7709565373746
 21
114.0886880851843
 31
0.0
  0
ARC
  5
AE
330
1F
100
AcDbEntity
  8
基準ﾚｲﾔｸﾞﾙｰﾌﾟ_01
370
    40
100
AcDbCircle
 10
139.1121201726306
 20
72.8530609299315
 30
0.0
 40
15.758815765381
100
AcDbArc
 50
332.53620185589
 51
359.9426910704
  0
ARC
  5
AF
330
1F
100
AcDbEntity
  8
基準ﾚｲﾔｸﾞﾙｰﾌﾟ_01
370
    40
100
AcDbCircle
 10
139.1121201726306
 20
72.8530609299315
 30
0.0
 40
13.558834075928
100
AcDbArc
 50
332.53620185589
 51
359.9426910704
  0
LINE
  5
B0
330
1F
100
AcDbEntity
  8
基準ﾚｲﾔｸﾞﾙｰﾌﾟ_01
370
    40
100
AcDbLine
 10
151.1428971501696
 20
66.59990236060148
 30
0.0
 11
153.0949540349346
 21
65.58528444067153
 31
0.0
  0
ARC
  5
B1
330
1F
100
AcDbEntity
  8
基準ﾚｲﾔｸﾞﾙｰﾌﾟ_01
370
    40
100
AcDbCircle
 10
168.4298081609116
 20
72.8530609299315
 30
0.0
 40
15.758815765381
100
AcDbArc
 50
201.53403417888
 51
207.4638678125
  0
ARC
  5
B2
330
1F
100
AcDbEntity
  8
基準ﾚｲﾔｸﾞﾙｰﾌﾟ_01
370
    40
100
AcDbCircle
 10
168.4298081609116
 20
72.8530609299315
 30
0.0
 40
13.558834075928
100
AcDbArc
 50
180.0573084848442
 51
207.4638678125
  0
LINE
  5
B3
330
1F
100
AcDbEntity
  8
基準ﾚｲﾔｸﾞﾙｰﾌﾟ_01
370
    40
100
AcDbLine
 10
156.3990311833726
 20
66.5998871018115
 30
0.0
 11
154.4469742986066
 21
65.58526918189156
 31
0.0
  0
LINE
  5
B4
330
1F
100
AcDbEntity
  8
基準ﾚｲﾔｸﾞﾙｰﾌﾟ_01
370
    40
100
AcDbLine
 10
154.8709702702866
 20
84.2604095627415
 30
0.0
 11
154.8709702702866
 21
75.7652923752415
 31
0.0
  0
LINE
  5
B5
330
1F
100
AcDbEntity
  8
基準ﾚｲﾔｸﾞﾙｰﾌﾟ_01
370
    40
100
AcDbLine
 10
152.6709733220446
 20
84.3020355393115
 30
0.0
 11
152.6709733220446
 21
75.7652923752415
 31
0.0
  0
LINE
  5
B6
330
1F
100
AcDbEntity
  8
基準ﾚｲﾔｸﾞﾙｰﾌﾟ_01
370
    40
100
AcDbLine
 10
151.5819077702866
 20
66.34550782935148
 30
0.0
 11
149.1814587727754
 21
61.98432900209733
 31
0.0
  0
LINE
  5
B7
330
1F
100
AcDbEntity
  8
基準ﾚｲﾔｸﾞﾙｰﾌﾟ_01
370
    40
100
AcDbLine
 10
152.0708298894276
 20
66.09137269752145
 30
0.0
 11
149.7598856509564
 21
61.68368085984687
 31
0.0
  0
LINE
  5
B8
330
1F
100
AcDbEntity
  8
基準ﾚｲﾔｸﾞﾙｰﾌﾟ_01
370
    40
100
AcDbLine
 10
152.5579377521222
 20
65.83377721247419
 30
0.0
 11
150.3361576257535
 21
61.37892264436371
 31
0.0
  0
LINE
  5
B9
330
1F
100
AcDbEntity
  8
基準ﾚｲﾔｸﾞﾙｰﾌﾟ_01
370
    40
100
AcDbLine
 10
155.9600053044647
 20
66.34550782935148
 30
0.0
 11
158.3604543019759
 21
61.98432900209733
 31
0.0
  0
LINE
  5
BA
330
1F
100
AcDbEntity
  8
基準ﾚｲﾔｸﾞﾙｰﾌﾟ_01
370
    40
100
AcDbLine
 10
155.4710831853237
 20
66.09137269752145
 30
0.0
 11
157.7820274237949
 21
61.68368085984687
 31
0.0
  0
LINE
  5
BB
330
1F
100
AcDbEntity
  8
基準ﾚｲﾔｸﾞﾙｰﾌﾟ_01
370
    40
100
AcDbLine
 10
154.9839753226291
 20
65.83377721247419
 30
0.0
 11
157.2057554489979
 21
61.37892264436371
 31
0.0
  0
LINE
  5
BD
330
1F
100
AcDbEntity
  8
GR1_01
  6
一点鎖線
 62
     7
370
    20
100
AcDbLine
 10
409.9334173093128
 20
114.0886880851843
 30
0.0
 11
323.9334173093128
 21
114.0886880851843
 31
0.0
  0
LINE
  5
BE
330
1F
100
AcDbEntity
  8
GR1_01
  6
一点鎖線
 62
     7
370
    20
100
AcDbLine
 10
366.9334173093128
 20
157.0886880851843
 30
0.0
 11
366.9334173093128
 21
71.08868808518437
 31
0.0
  0
LINE
  5
BF
330
1F
100
AcDbEntity
  8
GR1_01
  6
一点鎖線
 62
     7
370
    20
100
AcDbLine
 10
339.3562528430375
 20
141.6658525514596
 30
0.0
 11
328.0425443440527
 21
152.9795610504444
 31
0.0
  0
LINE
  5
C0
330
1F
100
AcDbEntity
  8
GR1_01
  6
一点鎖線
 62
     7
370
    20
100
AcDbLine
 10
384.9334173093128
 20
129.0886880851844
 30
0.0
 11
348.9334173093128
 21
129.0886880851844
 31
0.0
  0
LINE
  5
C1
330
1F
100
AcDbEntity
  8
GR1_01
 62
     3
100
AcDbLine
 10
400.9334173093128
 20
74.08868808518437
 30
0.0
 11
332.9334173093128
 21
74.08868808518437
 31
0.0
  0
LINE
  5
C2
330
1F
100
AcDbEntity
  8
GR1_01
 62
     3
100
AcDbLine
 10
400.9334173093128
 20
154.0886880851843
 30
0.0
 11
332.9334173093128
 21
154.0886880851843
 31
0.0
  0
LINE
  5
C3
330
1F
100
AcDbEntity
  8
GR1_01
 62
     3
100
AcDbLine
 10
406.9334173093128
 20
148.0886880851843
 30
0.0
 11
406.9334173093128
 21
80.08868808518437
 31
0.0
  0
LINE
  5
C4
330
1F
100
AcDbEntity
  8
GR1_01
 62
     3
100
AcDbLine
 10
326.9334173093128
 20
148.0886880851843
 30
0.0
 11
326.9334173093128
 21
80.08868808518437
 31
0.0
  0
ARC
  5
C5
330
1F
100
AcDbEntity
  8
GR1_01
  6
一点鎖線
 62
     7
370
    20
100
AcDbCircle
 10
366.9334173093128
 20
114.0886880851843
 30
0.0
 40
47.00000000000001
100
AcDbArc
 50
125.2357153350537
 51
144.7642846649462
  0
LINE
  5
C6
330
1F
100
AcDbEntity
  8
GR1_01
  6
一点鎖線
 62
     7
370
    20
100
AcDbLine
 10
394.5105817755882
 20
141.6658525514597
 30
0.0
 11
405.8242902745729
 21
152.9795610504445
 31
0.0
  0
LINE
  5
C7
330
1F
100
AcDbEntity
  8
GR1_01
  6
一点鎖線
 62
     7
370
    20
100
AcDbLine
 10
339.3562528430373
 20
86.51152361890874
 30
0.0
 11
328.0425443440525
 21
75.19781511992392
 31
0.0
  0
LINE
  5
C8
330
1F
100
AcDbEntity
  8
GR1_01
  6
一点鎖線
 62
     7
370
    20
100
AcDbLine
 10
394.5105817755882
 20
86.51152361890888
 30
0.0
 11
405.8242902745729
 21
75.19781511992409
 31
0.0
  0
ARC
  5
C9
330
1F
100
AcDbEntity
  8
GR1_01
  6
一点鎖線
 62
     7
370
    20
100
AcDbCircle
 10
366.9334173093128
 20
114.0886880851842
 30
0.0
 40
47.00000000000001
100
AcDbArc
 50
305.2357153350538
 51
324.7642846649463
  0
ARC
  5
CA
330
1F
100
AcDbEntity
  8
GR1_01
  6
一点鎖線
 62
     7
370
    20
100
AcDbCircle
 10
366.9334173093129
 20
114.0886880851838
 30
0.0
 40
47.00000000000001
100
AcDbArc
 50
35.23571533505437
 51
54.7642846649467
  0
ARC
  5
CB
330
1F
100
AcDbEntity
  8
GR1_01
 62
     3
100
AcDbCircle
 10
400.9334173093128
 20
148.0886880851843
 30
0.0
 40
6.0
100
AcDbArc
 50
0.0
 51
90.0
  0
ARC
  5
CC
330
1F
100
AcDbEntity
  8
GR1_01
 62
     3
100
AcDbCircle
 10
332.9334173093128
 20
148.0886880851843
 30
0.0
 40
6.0
100
AcDbArc
 50
90.0
 51
180.0
  0
ARC
  5
CD
330
1F
100
AcDbEntity
  8
GR1_01
 62
     3
100
AcDbCircle
 10
332.9334173093128
 20
80.08868808518437
 30
0.0
 40
6.0
100
AcDbArc
 50
180.0
 51
270.0
  0
ARC
  5
CE
330
1F
100
AcDbEntity
  8
GR1_01
 62
     3
100
AcDbCircle
 10
400.9334173093128
 20
80.08868808518437
 30
0.0
 40
6.0
100
AcDbArc
 50
270.0
 51
0.0
  0
LINE
  5
CF
330
1F
100
AcDbEntity
  8
GR1_01
 62
     3
100
AcDbLine
 10
357.9334173093128
 20
77.94660734818183
 30
0.0
 11
357.9334173093128
 21
74.08868808518437
 31
0.0
  0
LINE
  5
D0
330
1F
100
AcDbEntity
  8
GR1_01
 62
     3
100
AcDbLine
 10
375.9334173093128
 20
77.94660734818183
 30
0.0
 11
375.9334173093128
 21
74.08868808518437
 31
0.0
  0
ARC
  5
D1
330
1F
100
AcDbEntity
  8
GR1_01
 62
     3
100
AcDbCircle
 10
366.9334173093128
 20
114.0886880851842
 30
0.0
 40
36.5
100
AcDbArc
 50
285.4660099534206
 51
15.04505060019204
  0
LINE
  5
D2
330
1F
100
AcDbEntity
  8
GR1_01
  6
一点鎖線
 62
     7
370
    20
100
AcDbLine
 10
373.5529200973997
 20
83.08868808518426
 30
0.0
 11
360.1326746986267
 21
83.08868808518426
 31
0.0
  0
CIRCLE
  5
D3
330
1F
100
AcDbEntity
  8
GR1_01
 62
     3
100
AcDbCircle
 10
366.9334173093127
 20
83.08868808518426
 30
0.0
 40
4.0
  0
INSERT
  5
D7
330
1F
100
AcDbEntity
  8
GR1_01
 62
     3
100
AcDbBlockReference
  2
BLKF022
 10
0.0
 20
0.0
 30
0.0
  0
LINE
  5
E1
330
1F
100
AcDbEntity
  8
GR1_01
  6
一点鎖線
 62
     7
370
    20
100
AcDbLine
 10
390.4704534325869
 20
135.3213456600894
 30
0.0
 11
397.1805761319735
 21
123.6990722197307
 31
0.0
  0
CIRCLE
  5
E2
330
1F
100
AcDbEntity
  8
GR1_01
 62
     3
100
AcDbCircle
 10
393.7802048266304
 20
129.5886880851841
 30
0.0
 40
4.0
  0
INSERT
  5
E6
330
1F
100
AcDbEntity
  8
GR1_01
 62
     3
100
AcDbBlockReference
  2
BLKF023
 10
0.0
 20
0.0
 30
0.0
  0
LINE
  5
F0
330
1F
100
AcDbEntity
  8
GR1_01
  6
一点鎖線
 62
     7
370
    20
100
AcDbLine
 10
388.0900922421131
 20
126.3035000527939
 30
0.0
 11
399.3639024576286
 21
132.8124374155145
 31
0.0
  0
LINE
  5
F1
330
1F
100
AcDbEntity
  8
GR1_01
  6
一点鎖線
 62
     7
370
    20
100
AcDbLine
 10
343.3963811860387
 20
135.3213456600894
 30
0.0
 11
336.6862584866522
 21
123.6990722197307
 31
0.0
  0
CIRCLE
  5
F2
330
1F
100
AcDbEntity
  8
GR1_01
 62
     3
100
AcDbCircle
 10
340.0866297919952
 20
129.5886880851841
 30
0.0
 40
4.0
  0
INSERT
  5
F6
330
1F
100
AcDbEntity
  8
GR1_01
 62
     3
100
AcDbBlockReference
  2
BLKF024
 10
0.0
 20
0.0
 30
0.0
  0
LINE
  5
100
330
1F
100
AcDbEntity
  8
GR1_01
  6
一点鎖線
 62
     7
370
    20
100
AcDbLine
 10
345.7767423765125
 20
126.3035000527939
 30
0.0
 11
334.502932160997
 21
132.8124374155145
 31
0.0
  0
ARC
  5
101
330
1F
100
AcDbEntity
  8
GR1_01
 62
     3
100
AcDbCircle
 10
340.0866297919953
 20
129.5886880851842
 30
0.0
 40
10.0
100
AcDbArc
 50
88.38799460902253
 51
211.6120053909777
  0
ARC
  5
102
330
1F
100
AcDbEntity
  8
GR1_01
 62
     3
100
AcDbCircle
 10
393.7802048266303
 20
129.5886880851842
 30
0.0
 40
10.0
100
AcDbArc
 50
328.3879946090228
 51
91.61200539097752
  0
ARC
  5
103
330
1F
100
AcDbEntity
  8
GR1_01
 62
     3
100
AcDbCircle
 10
366.9334173093128
 20
114.0886880851842
 30
0.0
 40
36.5
100
AcDbArc
 50
44.95494939980806
 51
135.045050600192
  0
ARC
  5
104
330
1F
100
AcDbEntity
  8
GR1_01
 62
     3
100
AcDbCircle
 10
366.9334173093128
 20
114.0886880851842
 30
0.0
 40
36.5
100
AcDbArc
 50
164.954949399808
 51
254.5339900465794
  0
ARC
  5
105
330
1F
100
AcDbEntity
  8
GR1_01
 62
     3
100
AcDbCircle
 10
356.9334173093128
 20
77.94660734818183
 30
0.0
 40
1.0
100
AcDbArc
 50
0.0
 51
74.53399004658014
  0
ARC
  5
106
330
1F
100
AcDbEntity
  8
GR1_01
 62
     3
100
AcDbCircle
 10
376.9334173093128
 20
77.94660734818183
 30
0.0
 40
1.0
100
AcDbArc
 50
105.4660099534194
 51
180.0
  0
ARC
  5
107
330
1F
100
AcDbEntity
  8
GR1_01
 62
     3
100
AcDbCircle
 10
403.1479931773543
 20
123.8228801265335
 30
0.0
 40
1.0
100
AcDbArc
 50
148.3879946090232
 51
195.0450506001924
  0
ARC
  5
108
330
1F
100
AcDbEntity
  8
GR1_01
 62
     3
100
AcDbCircle
 10
393.4707628364583
 20
140.5843347535125
 30
0.0
 40
1.0
100
AcDbArc
 50
224.9549493998071
 51
271.6120053909762
  0
ARC
  5
109
330
1F
100
AcDbEntity
  8
GR1_01
 62
     3
100
AcDbCircle
 10
340.3960717821674
 20
140.5843347535125
 30
0.0
 40
1.0
100
AcDbArc
 50
268.3879946090206
 51
315.0450506001894
  0
ARC
  5
10A
330
1F
100
AcDbEntity
  8
GR1_01
 62
     3
100
AcDbCircle
 10
330.7188414412713
 20
123.8228801265334
 30
0.0
 40
1.0
100
AcDbArc
 50
344.9549493998099
 51
31.61200539097651
  0
CIRCLE
  5
10B
330
1F
100
AcDbEntity
  8
GR1_01
 62
     3
100
AcDbCircle
 10
366.9334173093128
 20
129.0886880851844
 30
0.0
 40
15.0
  0
CIRCLE
  5
10C
330
1F
100
AcDbEntity
  8
GR1_01
 62
     3
100
AcDbCircle
 10
366.9334173093127
 20
129.0886880851844
 30
0.0
 40
4.0
  0
CIRCLE
  5
10D
330
1F
100
AcDbEntity
  8
GR1_01
 62
     3
100
AcDbCircle
 10
366.9334173093127
 20
129.0886880851844
 30
0.0
 40
5.0
  0
LINE
  5
10E
330
1F
100
AcDbEntity
  8
GR1_01
 62
     3
100
AcDbLine
 10
364.2876623039089
 20
132.0886848270794
 30
0.0
 11
369.5791723147166
 21
132.0886848270794
 31
0.0
  0
INSERT
  5
112
330
1F
100
AcDbEntity
  8
GR1_01
 62
     3
100
AcDbBlockReference
  2
BLKF025
 10
0.0
 20
0.0
 30
0.0
  0
INSERT
  5
11E
330
1F
100
AcDbEntity
  8
GR1_01
 62
     3
100
AcDbBlockReference
  2
BLKF026
 10
0.0
 20
0.0
 30
0.0
  0
INSERT
  5
12A
330
1F
100
AcDbEntity
  8
GR1_01
 62
     3
100
AcDbBlockReference
  2
BLKF027
 10
0.0
 20
0.0
 30
0.0
  0
INSERT
  5
136
330
1F
100
AcDbEntity
  8
GR1_01
 62
     3
100
AcDbBlockReference
  2
BLKF028
 10
0.0
 20
0.0
 30
0.0
  0
ARC
  5
13F
330
1F
100
AcDbEntity
  8
GR1_01
 62
     7
370
    20
100
AcDbCircle
 10
333.6993985935451
 20
147.322706800952
 30
0.0
 40
2.0
100
AcDbArc
 50
80.0
 51
349.9999999999999
  0
CIRCLE
  5
140
330
1F
100
AcDbEntity
  8
GR1_01
 62
     3
100
AcDbCircle
 10
333.6993985935451
 20
147.322706800952
 30
0.0
 40
2.499999999999992
  0
ARC
  5
141
330
1F
100
AcDbEntity
  8
GR1_01
 62
     7
370
    20
100
AcDbCircle
 10
400.1674360250806
 20
147.3227068009521
 30
0.0
 40
2.0
100
AcDbArc
 50
80.0
 51
349.9999999999999
  0
CIRCLE
  5
142
330
1F
100
AcDbEntity
  8
GR1_01
 62
     3
100
AcDbCircle
 10
400.1674360250806
 20
147.3227068009521
 30
0.0
 40
2.499999999999992
  0
ARC
  5
143
330
1F
100
AcDbEntity
  8
GR1_01
 62
     7
370
    20
100
AcDbCircle
 10
333.6993985935449
 20
80.85466936941631
 30
0.0
 40
2.0
100
AcDbArc
 50
80.0
 51
349.9999999999999
  0
CIRCLE
  5
144
330
1F
100
AcDbEntity
  8
GR1_01
 62
     3
100
AcDbCircle
 10
333.6993985935449
 20
80.85466936941631
 30
0.0
 40
2.499999999999992
  0
ARC
  5
145
330
1F
100
AcDbEntity
  8
GR1_01
 62
     7
370
    20
100
AcDbCircle
 10
400.1674360250806
 20
80.85466936941648
 30
0.0
 40
2.0
100
AcDbArc
 50
80.0
 51
349.9999999999999
  0
CIRCLE
  5
146
330
1F
100
AcDbEntity
  8
GR1_01
 62
     3
100
AcDbCircle
 10
400.1674360250806
 20
80.85466936941648
 30
0.0
 40
2.499999999999992
  0
LINE
  5
147
330
1F
100
AcDbEntity
  8
GR1_01
  6
一点鎖線
 62
     7
370
    20
100
AcDbLine
 10
60.48614868803516
 20
157.0886880851844
 30
0.0
 11
60.48616915281694
 21
60.48070881315448
 31
0.0
  0
LINE
  5
148
330
1F
100
AcDbEntity
  8
GR1_01
  6
一点鎖線
 62
     7
370
    20
100
AcDbLine
 10
103.4861577968647
 20
114.0886880851843
 30
0.0
 11
17.48615779686469
 21
114.0886880851843
 31
0.0
  0
LINE
  5
149
330
1F
100
AcDbEntity
  8
GR1_01
 62
     3
100
AcDbLine
 10
62.68618123963061
 20
73.6165592857935
 30
0.0
 11
62.68615453668244
 21
84.1694485741225
 31
0.0
  0
LINE
  5
14A
330
1F
100
AcDbEntity
  8
GR1_01
 62
     3
100
AcDbLine
 10
58.28618352844862
 20
73.6165592857935
 30
0.0
 11
58.28615682550257
 21
84.16944773262202
 31
0.0
  0
LINE
  5
14B
330
1F
100
AcDbEntity
  8
GR1_01
 62
     3
100
AcDbLine
 10
60.48617666199361
 20
73.6165592857935
 30
0.0
 11
60.48615758842961
 21
84.16945285569432
 31
0.0
  0
ARC
  5
14C
330
1F
100
AcDbEntity
  8
GR1_01
 62
     3
100
AcDbCircle
 10
76.24501913025561
 20
70.6165440270035
 30
0.0
 40
15.758815765381
100
AcDbArc
 50
179.99995036744
 51
207.4638678125
  0
ARC
  5
14D
330
1F
100
AcDbEntity
  8
GR1_01
 62
     3
100
AcDbCircle
 10
76.24501913025561
 20
70.6165440270035
 30
0.0
 40
13.558834075928
100
AcDbArc
 50
179.9999776882
 51
207.4638678125
  0
ARC
  5
14E
330
1F
100
AcDbEntity
  8
GR1_01
 62
     3
100
AcDbCircle
 10
61.03620260193462
 20
74.5691807457535
 30
0.0
 40
1.0999990701675
100
AcDbArc
 50
239.99987007483
 51
299.9998580841
  0
ARC
  5
14F
330
1F
100
AcDbEntity
  8
GR1_01
 62
     3
100
AcDbCircle
 10
62.13620107605561
 20
74.5691807457535
 30
0.0
 40
1.0999990701675
100
AcDbArc
 50
239.99987007483
 51
299.9998580841
  0
ARC
  5
150
330
1F
100
AcDbEntity
  8
GR1_01
 62
     3
100
AcDbCircle
 10
62.13619344666162
 20
72.6639378258335
 30
0.0
 40
1.0999990701675
100
AcDbArc
 50
59.99985823568
 51
119.99985307514
  0
ARC
  5
151
330
1F
100
AcDbEntity
  8
GR1_01
 62
     3
100
AcDbCircle
 10
62.13618581726662
 20
69.6639073082535
 30
0.0
 40
1.0999990701675
100
AcDbArc
 50
59.99971480170699
 51
119.99971647136
  0
ARC
  5
152
330
1F
100
AcDbEntity
  8
GR1_01
 62
     3
100
AcDbCircle
 10
61.03618734314561
 20
69.6639225670435
 30
0.0
 40
1.0999990701675
100
AcDbArc
 50
59.99971480170699
 51
119.99971647136
  0
ARC
  5
153
330
1F
100
AcDbEntity
  8
GR1_01
 62
     3
100
AcDbCircle
 10
61.03619497254061
 20
71.5691807457535
 30
0.0
 40
1.0999990701675
100
AcDbArc
 50
239.99973347104
 51
299.99972148032
  0
LINE
  5
154
330
1F
100
AcDbEntity
  8
GR1_01
 62
     3
100
AcDbLine
 10
63.55662649109462
 20
64.0215580650935
 30
0.0
 11
65.17379110291162
 21
61.08350111929349
 31
0.0
  0
LINE
  5
155
330
1F
100
AcDbEntity
  8
GR1_01
 62
     3
100
AcDbLine
 10
63.06769674255962
 20
63.7674381920435
 30
0.0
 11
64.64448659851662
 21
60.7600376793535
 31
0.0
  0
LINE
  5
156
330
1F
100
AcDbEntity
  8
GR1_01
 62
     3
100
AcDbLine
 10
62.66955678894662
 20
63.5604984947835
 30
0.0
 11
64.07106893494262
 21
60.4806797691935
 31
0.0
  0
LINE
  5
157
330
1F
100
AcDbEntity
  8
GR1_01
 62
     3
100
AcDbLine
 10
64.21424215271561
 20
64.3633701988835
 30
0.0
 11
62.26219289734462
 21
63.3487522789635
 31
0.0
  0
ARC
  5
158
330
1F
100
AcDbEntity
  8
GR1_01
 62
     3
100
AcDbCircle
 10
44.72734182312661
 20
70.6165287682135
 30
0.0
 40
15.758815765381
100
AcDbArc
 50
332.536191837972
 51
0.0001092830267202
  0
ARC
  5
159
330
1F
100
AcDbEntity
  8
GR1_01
 62
     3
100
AcDbCircle
 10
44.72734182312661
 20
70.6165287682135
 30
0.0
 40
13.558834075928
100
AcDbArc
 50
332.536191837972
 51
0.0000819622700402
  0
ARC
  5
15A
330
1F
100
AcDbEntity
  8
GR1_01
 62
     3
100
AcDbCircle
 10
58.83615987732561
 20
74.5691807457535
 30
0.0
 40
1.0999990701675
100
AcDbArc
 50
240.00019792391
 51
300.00018593318
  0
ARC
  5
15B
330
1F
100
AcDbEntity
  8
GR1_01
 62
     3
100
AcDbCircle
 10
59.93615835144662
 20
74.5691807457535
 30
0.0
 40
1.0999990701675
100
AcDbArc
 50
240.00019792391
 51
300.00018593318
  0
ARC
  5
15C
330
1F
100
AcDbEntity
  8
GR1_01
 62
     3
100
AcDbCircle
 10
59.93616598084061
 20
72.6639378258335
 30
0.0
 40
1.0999990701675
100
AcDbArc
 50
60.00018608476
 51
120.00018092422
  0
ARC
  5
15D
330
1F
100
AcDbEntity
  8
GR1_01
 62
     3
100
AcDbCircle
 10
59.93618123963061
 20
69.6639378258335
 30
0.0
 40
1.0999990701675
100
AcDbArc
 50
60.0003500093
 51
120.00034484876
  0
ARC
  5
15E
330
1F
100
AcDbEntity
  8
GR1_01
 62
     3
100
AcDbCircle
 10
58.83618276550862
 20
69.6639225670435
 30
0.0
 40
1.0999990701675
100
AcDbArc
 50
60.0003500093
 51
120.00034484876
  0
ARC
  5
15F
330
1F
100
AcDbEntity
  8
GR1_01
 62
     3
100
AcDbCircle
 10
58.83617132141762
 20
71.5691807457535
 30
0.0
 40
1.0999990701675
100
AcDbArc
 50
240.00036184845
 51
300.00034985772
  0
LINE
  5
160
330
1F
100
AcDbEntity
  8
GR1_01
 62
     3
100
AcDbLine
 10
57.41574209168061
 20
64.0215733238835
 30
0.0
 11
55.79858129456161
 21
61.08350111929349
 31
0.0
  0
LINE
  5
161
330
1F
100
AcDbEntity
  8
GR1_01
 62
     3
100
AcDbLine
 10
57.90466039612463
 20
63.7674381920435
 30
0.0
 11
56.32787435486462
 21
60.7600224205635
 31
0.0
  0
LINE
  5
162
330
1F
100
AcDbEntity
  8
GR1_01
 62
     3
100
AcDbLine
 10
58.30280416443462
 20
63.5604832359935
 30
0.0
 11
56.90129964783361
 21
60.4806797691935
 31
0.0
  0
LINE
  5
163
330
1F
100
AcDbEntity
  8
GR1_01
 62
     3
100
AcDbLine
 10
56.75811498596761
 20
64.3633701988835
 30
0.0
 11
58.71016805603662
 21
63.3487522789635
 31
0.0
  0
CIRCLE
  5
164
330
1F
100
AcDbEntity
  8
GR1_01
 62
     3
100
AcDbCircle
 10
60.48614995903461
 20
114.0886728264043
 30
0.0
 40
30.0
  0
CIRCLE
  5
165
330
1F
100
AcDbEntity
  8
GR1_01
 62
     3
100
AcDbCircle
 10
60.48614232964061
 20
114.0886728264043
 30
0.0
 40
6.8181800842285
  0
CIRCLE
  5
166
330
1F
100
AcDbEntity
  8
GR1_01
 62
     3
100
AcDbCircle
 10
60.48614232964061
 20
114.0886728264043
 30
0.0
 40
7.9090890884399
  0
LINE
  5
167
330
1F
100
AcDbEntity
  8
GR1_01
 62
     3
100
AcDbLine
 10
53.66796224541162
 20
114.0886728264043
 30
0.0
 11
63.89523046440563
 21
110.6795846916343
 31
0.0
  0
LINE
  5
168
330
1F
100
AcDbEntity
  8
GR1_01
 62
     3
100
AcDbLine
 10
63.89523046440561
 20
110.6795846916343
 30
0.0
 11
63.93692510551961
 21
114.0886728264043
 31
0.0
  0
LINE
  5
169
330
1F
100
AcDbEntity
  8
GR1_01
 62
     3
100
AcDbLine
 10
63.93692510551961
 20
114.0886728264043
 30
0.0
 11
67.30432622856661
 21
114.0886728264043
 31
0.0
  0
LINE
  5
16A
330
1F
100
AcDbEntity
  8
GR1_01
 62
     3
100
AcDbLine
 10
57.07705419487462
 20
117.4977609611643
 30
0.0
 11
57.10019033379061
 21
114.0886728264043
 31
0.0
  0
LINE
  5
16B
330
1F
100
AcDbEntity
  8
GR1_01
 62
     3
100
AcDbLine
 10
57.10019033379061
 20
114.0886728264043
 30
0.0
 11
53.66796224541162
 21
114.0886728264043
 31
0.0
  0
TEXT
  5
16C
330
1F
100
AcDbEntity
  8
GR1_01
 62
     3
100
AcDbText
 10
45.65332794189453
 20
112.1205978393555
 30
0.0
 40
3.409090042114258
  1
Ｓ
 50
281.9999999999999
 41
1.119999999999999
 51
3.0
  7
FX_VECTOR
 72
     5
 11
46.2203596817393
 21
109.4529232430518
 31
0.0
100
AcDbText
  0
TEXT
  5
16D
330
1F
100
AcDbEntity
  8
GR1_01
 62
     3
100
AcDbText
 10
46.38665008544922
 20
109.079704284668
 30
0.0
 40
3.409090042114258
  1
Ａ
 50
294.000030517578
 41
1.120000000000001
 51
3.0
  7
FX_VECTOR
 72
     5
 11
47.49593288423345
 21
106.5882178973729
 31
0.0
100
AcDbText
  0
TEXT
  5
16E
330
1F
100
AcDbEntity
  8
GR1_01
 62
     3
100
AcDbText
 10
47.73619079589844
 20
106.2577133178711
 30
0.0
 40
3.409090042114258
  1
Ｗ
 50
306.0000305175781
 41
1.48960003524781
 51
3.0
  7
FX_VECTOR
 72
     5
 11
49.86824928229386
 21
103.3231898507272
 31
0.0
100
AcDbText
  0
TEXT
  5
16F
330
1F
100
AcDbEntity
  8
GR1_01
 62
     3
100
AcDbText
 10
49.64295196533203
 20
103.7779769897461
 30
0.0
 40
3.409090042114258
  1
Ａ
 50
317.9999999999999
 41
1.120000000000001
 51
3.0
  7
FX_VECTOR
 72
     5
 11
51.66971006483901
 21
101.9530758001366
 31
0.0
100
AcDbText
  0
TEXT
  5
170
330
1F
100
AcDbEntity
  8
GR1_01
 62
     3
100
AcDbText
 10
52.02361297607422
 20
101.7488784790039
 30
0.0
 40
3.409090042114258
  1
Ｍ
 50
330.0
 41
1.119999999999999
 51
3.0
  7
FX_VECTOR
 72
     5
 11
54.38549984028182
 21
100.3852424621582
 31
0.0
100
AcDbText
  0
TEXT
  5
171
330
1F
100
AcDbEntity
  8
GR1_01
 62
     3
100
AcDbText
 10
54.77411651611328
 20
100.2590866088867
 30
0.0
 40
3.409090042114258
  1
Ｕ
 50
342.0000000000001
 41
1.12
 51
3.0
  7
FX_VECTOR
 72
     5
 11
57.36790635546503
 21
99.41631320219255
 31
0.0
100
AcDbText
  0
TEXT
  5
172
330
1F
100
AcDbEntity
  8
GR1_01
 62
     3
100
AcDbText
 10
57.77426910400391
 20
99.37371063232422
 30
0.0
 40
3.409090042114258
  1
Ｒ
 50
353.9999694824219
 41
1.119999999999999
 51
3.0
  7
FX_VECTOR
 72
     5
 11
60.48660070429369
 21
99.08863163305438
 31
0.0
100
AcDbText
  0
TEXT
  5
173
330
1F
100
AcDbEntity
  8
GR1_01
 62
     3
100
AcDbText
 10
60.89295959472656
 20
99.13143157958984
 30
0.0
 40
3.409090042114258
  1
Ａ
 50
5.999999999999965
 41
1.119999999999999
 51
3.0
  7
FX_VECTOR
 72
     5
 11
63.60529134685822
 21
99.41650913418445
 31
0.0
100
AcDbText
  0
TEXT
  5
174
330
1F
100
AcDbEntity
  8
GR1_01
 62
     3
100
AcDbText
 10
73.64287567138672
 20
106.9624099731445
 30
0.0
 40
3.409090042114258
  1
Ｋ
 50
66.00004577636732
 41
1.120000000000001
 51
3.0
  7
FX_VECTOR
 72
     5
 11
74.75215515255516
 21
109.4538978375368
 31
0.0
100
AcDbText
  0
TEXT
  5
175
330
1F
100
AcDbEntity
  8
GR1_01
 62
     3
100
AcDbText
 10
74.83699798583984
 20
109.8535537719727
 30
0.0
 40
3.409090042114258
  1
Ｉ
 50
77.99999999999996
 41
0.7392000215403276
 51
3.0
  7
FX_VECTOR
 72
     5
 11
75.2112389450428
 21
111.6142190568389
 31
0.0
100
AcDbText
  0
TEXT
  5
176
330
1F
100
AcDbEntity
  8
GR1_01
 62
     3
100
AcDbText
 10
66.94145965576172
 20
100.5900344848633
 30
0.0
 40
3.409090042114258
  1
Ｄ
 50
30.00003242492663
 41
1.120000000000001
 51
3.0
  7
FX_VECTOR
 72
     5
 11
69.3033457482577
 21
101.9536718383519
 31
0.0
100
AcDbText
  0
TEXT
  5
177
330
1F
100
AcDbEntity
  8
GR1_01
 62
     3
100
AcDbText
 10
69.6069107055664
 20
102.2271499633789
 30
0.0
 40
3.409090042114258
  1
Ｅ
 50
41.99996185302732
 41
1.119999999999997
 51
3.0
  7
FX_VECTOR
 72
     5
 11
71.63367002007439
 21
104.0520498035922
 31
0.0
100
AcDbText
  0
TEXT
  5
178
330
1F
100
AcDbEntity
  8
GR1_01
 62
     3
100
AcDbText
 10
71.87373352050781
 20
104.382698059082
 30
0.0
 40
3.409090042114258
  1
Ｎ
 50
54.00006103515628
 41
1.119999999999998
 51
3.0
  7
FX_VECTOR
 72
     5
 11
73.47678145049092
 21
106.5891091902931
 31
0.0
100
AcDbText
  0
TEXT
  5
179
330
1F
100
AcDbEntity
  8
GR1_01
 62
     3
100
AcDbText
 10
45.56827545166016
 20
115.2474136352539
 30
0.0
 40
3.410000085830688
  1
＊
 50
270.0
 41
1.120000039153783
 51
3.0
  7
FX_VECTOR
 72
     5
 11
45.56827545166016
 21
112.5194134712219
 31
0.0
100
AcDbText
  0
TEXT
  5
17A
330
1F
100
AcDbEntity
  8
GR1_01
 62
     3
100
AcDbText
 10
66.19817352294922
 20
127.9182662963867
 30
0.0
 40
3.409090042114258
  1
Ｕ
 50
162.0000000000001
 41
1.12
 51
3.0
  7
FX_VECTOR
 72
     5
 11
63.60438368359747
 21
128.7610397030809
 31
0.0
100
AcDbText
  0
TEXT
  5
17B
330
1F
100
AcDbEntity
  8
GR1_01
 62
     3
100
AcDbText
 10
63.19801330566406
 20
128.8036499023438
 30
0.0
 40
3.409090042114258
  1
Ｒ
 50
173.9999847412109
 41
1.120000000000001
 51
3.0
  7
FX_VECTOR
 72
     5
 11
60.48568162945324
 21
129.088728179276
 31
0.0
100
AcDbText
  0
TEXT
  5
17C
330
1F
100
AcDbEntity
  8
GR1_01
 62
     3
100
AcDbText
 10
60.07933044433594
 20
129.0459289550781
 30
0.0
 40
3.409090042114258
  1
Ａ
 50
186.0000152587891
 41
1.120000000000001
 51
3.0
  7
FX_VECTOR
 72
     5
 11
57.36699876812511
 21
128.7608506781459
 31
0.0
100
AcDbText
  0
TEXT
  5
17D
330
1F
100
AcDbEntity
  8
GR1_01
 62
     3
100
AcDbText
 10
47.32941436767578
 20
121.2149429321289
 30
0.0
 40
3.409090042114258
  1
Ｋ
 50
246.0000610351562
 41
1.12
 51
3.0
  7
FX_VECTOR
 72
     5
 11
46.22013555003073
 21
118.7234547723177
 31
0.0
100
AcDbText
  0
TEXT
  5
17E
330
1F
100
AcDbEntity
  8
GR1_01
 62
     3
100
AcDbText
 10
46.13529205322266
 20
118.3237991333008
 30
0.0
 40
3.409090042114258
  1
Ｉ
 50
257.9999999999999
 41
0.7392000215403276
 51
3.0
  7
FX_VECTOR
 72
     5
 11
45.76105109401971
 21
116.5631338484345
 31
0.0
100
AcDbText
  0
TEXT
  5
17F
330
1F
100
AcDbEntity
  8
GR1_01
 62
     3
100
AcDbText
 10
54.03083038330078
 20
127.5873184204102
 30
0.0
 40
3.409090042114258
  1
Ｄ
 50
210.0000457763672
 41
1.119999999999999
 51
3.0
  7
FX_VECTOR
 72
     5
 11
51.66894460856864
 21
126.2236805165393
 31
0.0
100
AcDbText
  0
TEXT
  5
180
330
1F
100
AcDbEntity
  8
GR1_01
 62
     3
100
AcDbText
 10
51.36538696289062
 20
125.9502029418945
 30
0.0
 40
3.409090042114258
  1
Ｅ
 50
221.9999694824219
 41
1.120000000000002
 51
3.0
  7
FX_VECTOR
 72
     5
 11
49.33862789138276
 21
124.125302831802
 31
0.0
100
AcDbText
  0
TEXT
  5
181
330
1F
100
AcDbEntity
  8
GR1_01
 62
     3
100
AcDbText
 10
49.09856414794922
 20
123.7946548461914
 30
0.0
 40
3.409090042114258
  1
Ｎ
 50
234.0000610351562
 41
1.12
 51
3.0
  7
FX_VECTOR
 72
     5
 11
47.49551621796611
 21
121.5882437149803
 31
0.0
100
AcDbText
  0
TEXT
  5
182
330
1F
100
AcDbEntity
  8
GR1_01
 62
     3
100
AcDbText
 10
75.31896209716797
 20
116.056755065918
 30
0.0
 40
3.409090042114258
  1
Ｓ
 50
101.9999999999999
 41
1.119999999999999
 51
3.0
  7
FX_VECTOR
 72
     5
 11
74.7519303573232
 21
118.7244296622216
 31
0.0
100
AcDbText
  0
TEXT
  5
183
330
1F
100
AcDbEntity
  8
GR1_01
 62
     3
100
AcDbText
 10
74.58564758300781
 20
119.0976486206055
 30
0.0
 40
3.409090042114258
  1
Ａ
 50
114.000045776367
 41
1.120000000000001
 51
3.0
  7
FX_VECTOR
 72
     5
 11
73.47636412070067
 21
121.5891347124806
 31
0.0
100
AcDbText
  0
TEXT
  5
184
330
1F
100
AcDbEntity
  8
GR1_01
 62
     3
100
AcDbText
 10
73.23609924316406
 20
121.9196395874023
 30
0.0
 40
3.409090042114258
  1
Ｗ
 50
126.0000381469726
 41
1.48960003524781
 51
3.0
  7
FX_VECTOR
 72
     5
 11
71.10404036601322
 21
124.8541627706454
 31
0.0
100
AcDbText
  0
TEXT
  5
185
330
1F
100
AcDbEntity
  8
GR1_01
 62
     3
100
AcDbText
 10
71.32933807373047
 20
124.3993759155273
 30
0.0
 40
3.409090042114258
  1
Ａ
 50
138.000030517578
 41
1.12
 51
3.0
  7
FX_VECTOR
 72
     5
 11
69.30257900222261
 21
126.2242760256199
 31
0.0
100
AcDbText
  0
TEXT
  5
186
330
1F
100
AcDbEntity
  8
GR1_01
 62
     3
100
AcDbText
 10
68.94867706298828
 20
126.4284744262695
 30
0.0
 40
3.409090042114258
  1
Ｍ
 50
150.000015258789
 41
1.119999999999998
 51
3.0
  7
FX_VECTOR
 72
     5
 11
66.58678983562253
 21
127.7921098141067
 31
0.0
100
AcDbText
  0
TEXT
  5
187
330
1F
100
AcDbEntity
  8
GR1_01
 62
     3
100
AcDbText
 10
75.40401458740234
 20
112.9299392700195
 30
0.0
 40
3.410000085830688
  1
＊
 50
90.0
 41
1.120000039153783
 51
3.0
  7
FX_VECTOR
 72
     5
 11
75.40401458740234
 21
115.6579394340515
 31
0.0
100
AcDbText
  0
CIRCLE
  5
188
330
1F
100
AcDbEntity
  8
GR1_01
 62
     3
100
AcDbCircle
 10
60.48614232964061
 20
114.0886728264043
 30
0.0
 40
16.0
  0
CIRCLE
  5
189
330
1F
100
AcDbEntity
  8
GR1_01
 62
     3
100
AcDbCircle
 10
60.48614232964061
 20
114.0886728264043
 30
0.0
 40
17.0
  0
LINE
  5
18A
330
1F
100
AcDbEntity
  8
GR1_01
 62
     3
100
AcDbLine
 10
67.30431821769173
 20
114.088675496694
 30
0.0
 11
57.07705419487462
 21
117.4977609611643
 31
0.0
  0
LINE
  5
18B
330
1F
100
AcDbEntity
  8
GR1_01
 62
     3
100
AcDbLine
 10
57.10019023023527
 20
114.0886880851843
 30
0.0
 11
57.10019033379061
 21
114.0886728264043
 31
0.0
  0
ARC
  5
18C
330
1F
100
AcDbEntity
  8
GR1_01
  6
一点鎖線
 62
     7
370
    20
100
AcDbCircle
 10
366.9334173093129
 20
114.0886880851838
 30
0.0
 40
47.00000000000001
100
AcDbArc
 50
215.2357153350532
 51
234.7642846649458
  0
LINE
  5
18D
330
1F
100
AcDbEntity
  8
GR1_01
  6
一点鎖線
 62
     7
370
    20
100
AcDbLine
 10
32.55543993998038
 20
142.0194059420687
 30
0.0
 11
21.94883822221957
 21
152.6260076598296
 31
0.0
  0
LINE
  5
18E
330
1F
100
AcDbEntity
  8
GR1_01
 62
     3
100
AcDbLine
 10
94.48615779686469
 20
74.08868808518446
 30
0.0
 11
62.68618004495961
 21
74.08868808518447
 31
0.0
  0
LINE
  5
18F
330
1F
100
AcDbEntity
  8
GR1_01
 62
     3
100
AcDbLine
 10
94.48615779686469
 20
154.0886880851844
 30
0.0
 11
26.48615779686469
 21
154.0886880851844
 31
0.0
  0
LINE
  5
190
330
1F
100
AcDbEntity
  8
GR1_01
 62
     3
100
AcDbLine
 10
100.4861577968647
 20
148.0886880851844
 30
0.0
 11
100.4861577968647
 21
80.08868808518446
 31
0.0
  0
LINE
  5
191
330
1F
100
AcDbEntity
  8
GR1_01
 62
     3
100
AcDbLine
 10
20.48615779686469
 20
148.0886880851844
 30
0.0
 11
20.48615779686469
 21
80.08868808518446
 31
0.0
  0
ARC
  5
192
330
1F
100
AcDbEntity
  8
GR1_01
  6
一点鎖線
 62
     7
370
    20
100
AcDbCircle
 10
60.48615779686469
 20
114.0886880851843
 30
0.0
 40
47.00000000000001
100
AcDbArc
 50
125.847352172472
 51
144.1526963761318
  0
LINE
  5
193
330
1F
100
AcDbEntity
  8
GR1_01
  6
一点鎖線
 62
     7
370
    20
100
AcDbLine
 10
88.41687565373333
 20
142.019405942053
 30
0.0
 11
99.02347737153151
 21
152.6260076598512
 31
0.0
  0
LINE
  5
194
330
1F
100
AcDbEntity
  8
GR1_01
  6
一点鎖線
 62
     7
370
    20
100
AcDbLine
 10
32.55543993998034
 20
86.15797022829999
 30
0.0
 11
21.94883822221955
 21
75.55136851053912
 31
0.0
  0
LINE
  5
195
330
1F
100
AcDbEntity
  8
GR1_01
  6
一点鎖線
 62
     7
370
    20
100
AcDbLine
 10
88.41687565373337
 20
86.15797022831569
 30
0.0
 11
99.02347737153156
 21
75.55136851051745
 31
0.0
  0
ARC
  5
196
330
1F
100
AcDbEntity
  8
GR1_01
  6
一点鎖線
 62
     7
370
    20
100
AcDbCircle
 10
60.48615779686469
 20
114.0886880851843
 30
0.0
 40
47.00000000000001
100
AcDbArc
 50
305.8473278981701
 51
324.15267210183
  0
ARC
  5
197
330
1F
100
AcDbEntity
  8
GR1_01
  6
一点鎖線
 62
     7
370
    20
100
AcDbCircle
 10
60.4861577968648
 20
114.0886880851839
 30
0.0
 40
47.00000000000001
100
AcDbArc
 50
35.8473278981706
 51
54.15267210183033
  0
ARC
  5
198
330
1F
100
AcDbEntity
  8
GR1_01
 62
     3
100
AcDbCircle
 10
94.48615779686469
 20
148.0886880851844
 30
0.0
 40
6.0
100
AcDbArc
 50
0.0
 51
90.0
  0
ARC
  5
199
330
1F
100
AcDbEntity
  8
GR1_01
 62
     3
100
AcDbCircle
 10
26.48615779686469
 20
148.0886880851844
 30
0.0
 40
6.0
100
AcDbArc
 50
90.0
 51
180.0
  0
ARC
  5
19A
330
1F
100
AcDbEntity
  8
GR1_01
 62
     3
100
AcDbCircle
 10
26.48615779686469
 20
80.08868808518446
 30
0.0
 40
6.0
100
AcDbArc
 50
180.0
 51
270.0
  0
ARC
  5
19B
330
1F
100
AcDbEntity
  8
GR1_01
 62
     3
100
AcDbCircle
 10
94.48615779686469
 20
80.08868808518446
 30
0.0
 40
6.0
100
AcDbArc
 50
270.0
 51
0.0
  0
ARC
  5
19C
330
1F
100
AcDbEntity
  8
GR1_01
  6
一点鎖線
 62
     7
370
    20
100
AcDbCircle
 10
60.4861577968648
 20
114.0886880851839
 30
0.0
 40
47.00000000000001
100
AcDbArc
 50
215.8473036238677
 51
234.1526478275275
  0
ARC
  5
19D
330
1F
100
AcDbEntity
  8
GR1_01
 62
     3
100
AcDbCircle
 10
60.4861577968647
 20
114.0886880851843
 30
0.0
 40
31.0
100
AcDbArc
 50
270.0000032251355
 51
270.0000121371509
  0
INSERT
  5
1A1
330
1F
100
AcDbEntity
  8
GR1_01
 62
     3
100
AcDbBlockReference
  2
BLKF029
 10
0.0
 20
0.0
 30
0.0
  0
INSERT
  5
1AE
330
1F
100
AcDbEntity
  8
GR1_01
 62
     3
100
AcDbBlockReference
  2
BLKF030
 10
0.0
 20
0.0
 30
0.0
  0
INSERT
  5
1BB
330
1F
100
AcDbEntity
  8
GR1_01
 62
     3
100
AcDbBlockReference
  2
BLKF031
 10
0.0
 20
0.0
 30
0.0
  0
INSERT
  5
1C8
330
1F
100
AcDbEntity
  8
GR1_01
 62
     3
100
AcDbBlockReference
  2
BLKF032
 10
0.0
 20
0.0
 30
0.0
  0
LINE
  5
1D2
330
1F
100
AcDbEntity
  8
作図レイヤ
  6
一点鎖線
 62
     7
370
    20
100
AcDbLine
 10
214.0433722246783
 20
261.6465377306915
 30
0.0
 11
288.2709565373747
 21
261.6465377306914
 31
0.0
  0
LINE
  5
1D3
330
1F
100
AcDbEntity
  8
作図レイヤ
  6
一点鎖線
 62
     7
370
    20
100
AcDbLine
 10
213.743365006018
 20
195.1785095364453
 30
0.0
 11
288.2709565373732
 21
195.1784938092804
 31
0.0
  0
LINE
  5
1D4
330
1F
100
AcDbEntity
  8
作図レイヤ
  6
一点鎖線
 62
     7
370
    20
100
AcDbLine
 10
303.7709597954806
 20
228.4125170057591
 30
0.0
 11
130.7709565373746
 21
228.4125170057591
 31
0.0
  0
LINE
  5
1D5
330
1F
100
AcDbEntity
  8
作図レイヤ
 62
     3
100
AcDbLine
 10
226.7709652256553
 20
268.4125222187269
 30
0.0
 11
267.7709638646407
 21
268.4125179831908
 31
0.0
  0
ARC
  5
1D6
330
1F
100
AcDbEntity
  8
作図レイヤ
 62
     3
100
AcDbCircle
 10
267.7709637560372
 20
267.4125179831908
 30
0.0
 40
1.0
100
AcDbArc
 50
0.0
 51
89.99999377747773
  0
ARC
  5
1D7
330
1F
100
AcDbEntity
  8
作図レイヤ
 62
     3
100
AcDbCircle
 10
267.7709552849647
 20
189.4125179831913
 30
0.0
 40
1.0
100
AcDbArc
 50
269.9999937774777
 51
359.9999875549555
  0
LINE
  5
1D8
330
1F
100
AcDbEntity
  8
作図レイヤ
 62
     3
100
AcDbLine
 10
226.7709478490964
 20
188.4125222187283
 30
0.0
 11
267.7709551763613
 21
188.4125179831913
 31
0.0
  0
LINE
  5
1D9
330
1F
100
AcDbEntity
  8
作図レイヤ
 62
     3
100
AcDbLine
 10
268.7709650015065
 20
267.3805575966074
 30
0.0
 11
268.7709480663034
 21
189.4125177659858
 31
0.0
  0
LINE
  5
1DA
330
1F
100
AcDbEntity
  8
作図レイヤ
 62
     3
100
AcDbLine
 10
274.27095979548
 20
213.4125170692533
 30
0.0
 11
268.7709565373751
 21
213.4125170692532
 31
0.0
  0
ARC
  5
1DB
330
1F
100
AcDbEntity
  8
作図レイヤ
 62
     3
100
AcDbCircle
 10
274.27095979548
 20
213.9125170692533
 30
0.0
 40
0.5
100
AcDbArc
 50
270.0
 51
0.0
  0
LINE
  5
1DC
330
1F
100
AcDbEntity
  8
作図レイヤ
 62
     3
100
AcDbLine
 10
274.7709629449813
 20
242.9125170692525
 30
0.0
 11
274.7709566455932
 21
213.910742279997
 31
0.0
  0
LINE
  5
1DD
330
1F
100
AcDbEntity
  8
作図レイヤ
 62
     3
100
AcDbLine
 10
274.27095979548
 20
243.4125170692531
 30
0.0
 11
268.7709597954805
 21
243.4125170692531
 31
0.0
  0
ARC
  5
1DE
330
1F
100
AcDbEntity
  8
作図レイヤ
 62
     3
100
AcDbCircle
 10
274.27095979548
 20
242.9125170692531
 30
0.0
 40
0.5
100
AcDbArc
 50
0.0
 51
90.0
  0
LINE
  5
1DF
330
1F
100
AcDbEntity
  8
作図レイヤ
 62
     3
100
AcDbLine
 10
300.7709597954806
 20
232.4125170692533
 30
0.0
 11
274.7709606643079
 21
232.4125170692532
 31
0.0
  0
LINE
  5
1E0
330
1F
100
AcDbEntity
  8
作図レイヤ
 62
     3
100
AcDbLine
 10
300.7709597954806
 20
224.4125170692532
 30
0.0
 11
274.770958926652
 21
224.4125170692532
 31
0.0
  0
LINE
  5
1E1
330
1F
100
AcDbEntity
  8
作図レイヤ
 62
     3
100
AcDbLine
 10
226.7709652256554
 20
268.4125222187269
 30
0.0
 11
226.7709478490964
 21
188.4125222187282
 31
0.0
  0
LINE
  5
1E2
330
1F
100
AcDbEntity
  8
作図レイヤ
 62
     3
100
AcDbLine
 10
300.7709597954806
 20
225.7667620057591
 30
0.0
 11
286.7709597954806
 21
225.7667620057591
 31
0.0
  0
LINE
  5
1E3
330
1F
100
AcDbEntity
  8
作図レイヤ
 62
     3
100
AcDbLine
 10
300.7709597954806
 20
231.0582720057591
 30
0.0
 11
286.7709597954806
 21
231.0582720057591
 31
0.0
  0
LINE
  5
1E4
330
1F
100
AcDbEntity
  8
作図レイヤ
 62
     3
100
AcDbLine
 10
286.7709597954806
 20
225.7667620057591
 30
0.0
 11
286.7709597954806
 21
231.0582720057591
 31
0.0
  0
LINE
  5
1E5
330
1F
100
AcDbEntity
  8
作図レイヤ
 62
     7
370
    20
100
AcDbLine
 10
286.7709597954806
 20
231.0582720057591
 30
0.0
 11
300.7709597954806
 21
225.7667620057591
 31
0.0
  0
LINE
  5
1E6
330
1F
100
AcDbEntity
  8
作図レイヤ
 62
     7
370
    20
100
AcDbLine
 10
300.7709597954806
 20
231.0582720057591
 30
0.0
 11
286.7709597954806
 21
225.7667620057591
 31
0.0
  0
LINE
  5
1E7
330
1F
100
AcDbEntity
  8
作図レイヤ
 62
     7
370
    20
100
AcDbLine
 10
175.0209565373742
 20
202.4125170057591
 30
0.0
 11
175.0209565373742
 21
254.4125170057592
 31
0.0
  0
LINE
  5
1E8
330
1F
100
AcDbEntity
  8
作図レイヤ
 62
     7
370
    20
100
AcDbLine
 10
176.0209565373742
 20
255.4125170057592
 30
0.0
 11
206.0209717961642
 21
255.4125170057591
 31
0.0
  0
ARC
  5
1E9
330
1F
100
AcDbEntity
  8
作図レイヤ
 62
     7
370
    20
100
AcDbCircle
 10
176.0209565373742
 20
254.4125170057592
 30
0.0
 40
1.0
100
AcDbArc
 50
89.99997199600033
 51
179.9999813306696
  0
LINE
  5
1EA
330
1F
100
AcDbEntity
  8
作図レイヤ
 62
     7
370
    20
100
AcDbLine
 10
176.0209565373742
 20
201.4125170057591
 30
0.0
 11
206.0209717961642
 21
201.4125170057591
 31
0.0
  0
ARC
  5
1EB
330
1F
100
AcDbEntity
  8
作図レイヤ
 62
     7
370
    20
100
AcDbCircle
 10
176.0209565373742
 20
202.4125170057591
 30
0.0
 40
1.0
100
AcDbArc
 50
180.00001866933
 51
270.0000280039999
  0
TEXT
  5
1EC
330
1F
100
AcDbEntity
  8
作図レイヤ
 62
     7
370
    20
100
AcDbText
 10
189.0049285888672
 20
233.7501068115234
 30
0.0
 40
3.5
  1
ＮＰ
 50
270.0
 41
1.818181818181818
 51
10.0
  7
FX_VECTOR
 72
     5
 11
189.0049285888672
 21
223.7501068115234
 31
0.0
100
AcDbText
  0
LINE
  5
1ED
330
1F
100
AcDbEntity
  8
作図レイヤ
 62
     7
370
    20
100
AcDbLine
 10
207.0209565373742
 20
202.4125170057591
 30
0.0
 11
207.0209565373742
 21
254.4125170057592
 31
0.0
  0
ARC
  5
1EE
330
1F
100
AcDbEntity
  8
作図レイヤ
 62
     7
370
    20
100
AcDbCircle
 10
206.0209565373742
 20
254.4125170057592
 30
0.0
 40
1.0
100
AcDbArc
 50
0.0000186693303999
 51
90.00002800399967
  0
ARC
  5
1EF
330
1F
100
AcDbEntity
  8
作図レイヤ
 62
     7
370
    20
100
AcDbCircle
 10
206.0209565373742
 20
202.4125170057591
 30
0.0
 40
1.0
100
AcDbArc
 50
269.9999719960003
 51
359.9999813306696
  0
LINE
  5
1F0
330
1F
100
AcDbEntity
  8
作図レイヤ
 62
     3
100
AcDbLine
 10
164.7709500211687
 20
198.4125424138112
 30
0.0
 11
134.770950134909
 21
198.9361997867182
 31
0.0
  0
LINE
  5
1F1
330
1F
100
AcDbEntity
  8
作図レイヤ
 62
     3
100
AcDbLine
 10
134.7709565373747
 20
257.8888678918838
 30
0.0
 11
164.7709717961657
 21
258.4125190149238
 31
0.0
  0
LINE
  5
1F2
330
1F
100
AcDbEntity
  8
作図レイヤ
 62
     3
100
AcDbLine
 10
134.7709565373747
 20
257.8888678918838
 30
0.0
 11
133.7709565373747
 21
256.8888678918838
 31
0.0
  0
LINE
  5
1F3
330
1F
100
AcDbEntity
  8
作図レイヤ
 62
     3
100
AcDbLine
 10
134.7709565373747
 20
198.9362006555538
 30
0.0
 11
133.7709565373747
 21
199.9362006555538
 31
0.0
  0
LINE
  5
1F4
330
1F
100
AcDbEntity
  8
作図レイヤ
 62
     3
100
AcDbLine
 10
133.7709565373747
 20
199.9362006555538
 30
0.0
 11
133.7709565373747
 21
256.8888678918838
 31
0.0
  0
LINE
  5
1F5
330
1F
100
AcDbEntity
  8
作図レイヤ
 62
     3
100
AcDbLine
 10
134.7709565373747
 20
198.9361996749616
 30
0.0
 11
134.7709565373747
 21
257.8888678918838
 31
0.0
  0
LINE
  5
1F6
330
1F
100
AcDbEntity
  8
作図レイヤ
 62
     3
100
AcDbLine
 10
216.7709565373747
 20
197.4125341667192
 30
0.0
 11
216.7709565373747
 21
259.412534171619
 31
0.0
  0
LINE
  5
1F7
330
1F
100
AcDbEntity
  8
作図レイヤ
 62
     3
100
AcDbLine
 10
220.2709565373747
 20
189.4125228160458
 30
0.0
 11
220.2709565373747
 21
267.4125228160462
 31
0.0
  0
LINE
  5
1F8
330
1F
100
AcDbEntity
  8
作図レイヤ
 62
     3
100
AcDbLine
 10
226.7709565373748
 20
188.4125222187266
 30
0.0
 11
226.7709565373747
 21
268.4125229246497
 31
0.0
  0
ARC
  5
1F9
330
1F
100
AcDbEntity
  8
作図レイヤ
 62
     3
100
AcDbCircle
 10
221.2709565373747
 20
267.4125228160462
 30
0.0
 40
1.0
100
AcDbArc
 50
89.99999377747773
 51
180.0
  0
ARC
  5
1FA
330
1F
100
AcDbEntity
  8
作図レイヤ
 62
     3
100
AcDbCircle
 10
221.2709565373747
 20
189.4125228160458
 30
0.0
 40
1.0
100
AcDbArc
 50
180.0
 51
269.9999937774777
  0
LINE
  5
1FB
330
1F
100
AcDbEntity
  8
作図レイヤ
 62
     3
100
AcDbLine
 10
226.7709565373747
 20
268.4125222187271
 30
0.0
 11
221.2709566459782
 21
268.4125222187271
 31
0.0
  0
LINE
  5
1FC
330
1F
100
AcDbEntity
  8
作図レイヤ
 62
     3
100
AcDbLine
 10
226.7709565373748
 20
188.4125222187266
 30
0.0
 11
221.2709564287712
 21
188.4125222187266
 31
0.0
  0
LINE
  5
1FD
330
1F
100
AcDbEntity
  8
作図レイヤ
 62
     3
100
AcDbLine
 10
216.7709565373747
 20
259.4125341725899
 30
0.0
 11
217.2664711225071
 21
259.412534171619
 31
0.0
  0
LINE
  5
1FE
330
1F
100
AcDbEntity
  8
作図レイヤ
 62
     3
100
AcDbLine
 10
216.7709565373747
 20
197.4125341677367
 30
0.0
 11
217.2664687944676
 21
197.4125341667192
 31
0.0
  0
LINE
  5
1FF
330
1F
100
AcDbEntity
  8
作図レイヤ
 62
     3
100
AcDbLine
 10
164.7709565373758
 20
259.4125342744757
 30
0.0
 11
164.7709565373758
 21
197.4125342745123
 31
0.0
  0
LINE
  5
200
330
1F
100
AcDbEntity
  8
作図レイヤ
 62
     3
100
AcDbLine
 10
164.7709565373758
 20
259.4125342744757
 30
0.0
 11
216.7709565373747
 21
259.4125341725899
 31
0.0
  0
LINE
  5
201
330
1F
100
AcDbEntity
  8
作図レイヤ
 62
     3
100
AcDbLine
 10
164.7709565373758
 20
197.4125342745123
 30
0.0
 11
216.7709565373747
 21
197.4125341677367
 31
0.0
  0
LINE
  5
202
330
1F
100
AcDbEntity
  8
作図レイヤ
 62
     3
100
AcDbLine
 10
216.7709565373747
 20
259.4125341725899
 30
0.0
 11
216.7709565373747
 21
197.4125341677366
 31
0.0
  0
LINE
  5
203
330
1F
100
AcDbEntity
  8
作図レイヤ
 62
     3
100
AcDbLine
 10
273.4136981661291
 20
266.2653398842085
 30
0.0
 11
273.7709637560372
 21
265.6465377306915
 31
0.0
  0
LINE
  5
204
330
1F
100
AcDbEntity
  8
作図レイヤ
 62
     3
100
AcDbLine
 10
273.7709637560372
 20
265.6465377306915
 30
0.0
 11
273.7709637560372
 21
257.6465377306915
 31
0.0
  0
LINE
  5
205
330
1F
100
AcDbEntity
  8
作図レイヤ
 62
     3
100
AcDbLine
 10
273.7709637560372
 20
257.6465377306915
 30
0.0
 11
273.4136981661291
 21
257.0277355771744
 31
0.0
  0
ARC
  5
206
330
1F
100
AcDbEntity
  8
作図レイヤ
 62
     3
100
AcDbCircle
 10
271.7263055572988
 20
265.1106393458292
 30
0.0
 40
2.044658198738496
100
AcDbArc
 50
325.6157525319587
 51
34.38424746804323
  0
ARC
  5
207
330
1F
100
AcDbEntity
  8
作図レイヤ
 62
     3
100
AcDbCircle
 10
266.1282293459456
 20
261.6465377306915
 30
0.0
 40
7.642734410091665
100
AcDbArc
 50
342.4120462260059
 51
17.58795377399403
  0
ARC
  5
208
330
1F
100
AcDbEntity
  8
作図レイヤ
 62
     3
100
AcDbCircle
 10
271.7263055572988
 20
258.1824361155537
 30
0.0
 40
2.044658198738496
100
AcDbArc
 50
325.6157525319587
 51
34.38424746804323
  0
LINE
  5
209
330
1F
100
AcDbEntity
  8
作図レイヤ
 62
     3
100
AcDbLine
 10
273.4136981661291
 20
257.0277355771744
 30
0.0
 11
269.7709637560372
 21
257.0277355771744
 31
0.0
  0
LINE
  5
20A
330
1F
100
AcDbEntity
  8
作図レイヤ
 62
     3
100
AcDbLine
 10
269.7709637560372
 20
257.0277355771744
 30
0.0
 11
269.7709637560372
 21
266.2653398842085
 31
0.0
  0
LINE
  5
20B
330
1F
100
AcDbEntity
  8
作図レイヤ
 62
     3
100
AcDbLine
 10
269.7709637560372
 20
266.2653398842085
 30
0.0
 11
273.4136981661291
 21
266.2653398842085
 31
0.0
  0
LINE
  5
20C
330
1F
100
AcDbEntity
  8
作図レイヤ
 62
     3
100
AcDbLine
 10
273.4136981661291
 20
263.95593880745
 30
0.0
 11
269.7709637560372
 21
263.95593880745
 31
0.0
  0
LINE
  5
20D
330
1F
100
AcDbEntity
  8
作図レイヤ
 62
     3
100
AcDbLine
 10
273.4136981661291
 20
259.337136653933
 30
0.0
 11
269.7709637560372
 21
259.337136653933
 31
0.0
  0
LINE
  5
20E
330
1F
100
AcDbEntity
  8
作図レイヤ
 62
     3
100
AcDbLine
 10
269.7709637560372
 20
266.6465377306915
 30
0.0
 11
269.7709637560372
 21
256.6465377306915
 31
0.0
  0
LINE
  5
20F
330
1F
100
AcDbEntity
  8
作図レイヤ
 62
     3
100
AcDbLine
 10
269.7709637560372
 20
256.6465377306915
 30
0.0
 11
268.7709637560372
 21
256.6465377306915
 31
0.0
  0
LINE
  5
210
330
1F
100
AcDbEntity
  8
作図レイヤ
 62
     3
100
AcDbLine
 10
268.7709637560372
 20
256.6465377306915
 30
0.0
 11
268.7709637560372
 21
266.6465377306915
 31
0.0
  0
LINE
  5
211
330
1F
100
AcDbEntity
  8
作図レイヤ
 62
     3
100
AcDbLine
 10
268.7709637560372
 20
266.6465377306915
 30
0.0
 11
269.7709637560372
 21
266.6465377306915
 31
0.0
  0
LINE
  5
212
330
1F
100
AcDbEntity
  8
作図レイヤ
 62
     3
100
AcDbLine
 10
273.4136846961659
 20
199.797299105409
 30
0.0
 11
273.7709501564725
 21
199.1784968770665
 31
0.0
  0
LINE
  5
213
330
1F
100
AcDbEntity
  8
作図レイヤ
 62
     3
100
AcDbLine
 10
273.7709501564725
 20
199.1784968770665
 30
0.0
 11
273.7709484809563
 21
191.1784968770667
 31
0.0
  0
LINE
  5
214
330
1F
100
AcDbEntity
  8
作図レイヤ
 62
     3
100
AcDbLine
 10
273.7709484809563
 20
191.1784968770667
 30
0.0
 11
273.4136827614466
 21
190.5596947983752
 31
0.0
  0
ARC
  5
215
330
1F
100
AcDbEntity
  8
作図レイヤ
 62
     3
100
AcDbCircle
 10
271.7262918454957
 20
198.6425989204365
 30
0.0
 40
2.044658198738512
100
AcDbArc
 50
325.6157405319581
 51
34.38423546804257
  0
ARC
  5
216
330
1F
100
AcDbEntity
  8
作図レイヤ
 62
     3
100
AcDbCircle
 10
266.1282149086229
 20
195.1784984777572
 30
0.0
 40
7.6427344100917
100
AcDbArc
 50
342.4120342260057
 51
17.58794177399378
  0
ARC
  5
217
330
1F
100
AcDbEntity
  8
作図レイヤ
 62
     3
100
AcDbCircle
 10
271.7262903944562
 20
191.7143956901611
 30
0.0
 40
2.044658198738512
100
AcDbArc
 50
325.6157405319581
 51
34.38423546804257
  0
LINE
  5
218
330
1F
100
AcDbEntity
  8
作図レイヤ
 62
     3
100
AcDbLine
 10
273.4136827614466
 20
190.5596947983752
 30
0.0
 11
269.7709483513548
 21
190.5596955613077
 31
0.0
  0
LINE
  5
219
330
1F
100
AcDbEntity
  8
作図レイヤ
 62
     3
100
AcDbLine
 10
269.7709483513548
 20
190.5596955613077
 30
0.0
 11
269.7709502860741
 21
199.7972998683416
 31
0.0
  0
LINE
  5
21A
330
1F
100
AcDbEntity
  8
作図レイヤ
 62
     3
100
AcDbLine
 10
269.7709502860741
 20
199.7972998683416
 30
0.0
 11
273.4136846961659
 21
199.797299105409
 31
0.0
  0
LINE
  5
21B
330
1F
100
AcDbEntity
  8
作図レイヤ
 62
     3
100
AcDbLine
 10
273.4136842124861
 20
197.4878980286506
 30
0.0
 11
269.7709498023943
 21
197.4878987915831
 31
0.0
  0
LINE
  5
21C
330
1F
100
AcDbEntity
  8
作図レイヤ
 62
     3
100
AcDbLine
 10
273.4136832451264
 20
192.8690958751337
 30
0.0
 11
269.7709488350346
 21
192.8690966380662
 31
0.0
  0
LINE
  5
21D
330
1F
100
AcDbEntity
  8
作図レイヤ
 62
     3
100
AcDbLine
 10
269.770950365912
 20
200.1784977148245
 30
0.0
 11
269.7709482715169
 21
190.1784977148247
 31
0.0
  0
LINE
  5
21E
330
1F
100
AcDbEntity
  8
作図レイヤ
 62
     3
100
AcDbLine
 10
269.7709482715169
 20
190.1784977148247
 30
0.0
 11
268.7709482715169
 21
190.1784979242643
 31
0.0
  0
LINE
  5
21F
330
1F
100
AcDbEntity
  8
作図レイヤ
 62
     3
100
AcDbLine
 10
268.7709482715169
 20
190.1784979242643
 30
0.0
 11
268.770950365912
 21
200.178497924264
 31
0.0
  0
LINE
  5
220
330
1F
100
AcDbEntity
  8
作図レイヤ
 62
     3
100
AcDbLine
 10
268.770950365912
 20
200.178497924264
 30
0.0
 11
269.770950365912
 21
200.1784977148245
 31
0.0
  0
INSERT
  5
224
330
1F
100
AcDbEntity
  8
作図レイヤ
 62
     3
100
AcDbBlockReference
  2
BLKF033
 10
0.0
 20
0.0
 30
0.0
  0
LINE
  5
232
330
1F
100
AcDbEntity
  8
作図レイヤ
 62
     3
100
AcDbLine
 10
284.4709565373747
 20
259.1465377306915
 30
0.0
 11
284.4709565373747
 21
264.1465377306915
 31
0.0
  0
INSERT
  5
236
330
1F
100
AcDbEntity
  8
作図レイヤ
 62
     3
100
AcDbBlockReference
  2
BLKF034
 10
0.0
 20
0.0
 30
0.0
  0
LINE
  5
244
330
1F
100
AcDbEntity
  8
作図レイヤ
 62
     3
100
AcDbLine
 10
284.4709560137745
 20
192.6784947129455
 30
0.0
 11
284.470957060972
 21
197.6784947129454
 31
0.0
  0
LINE
  5
245
330
1F
100
AcDbEntity
  8
作図レイヤ
 62
     3
100
AcDbLine
 10
300.7709597954806
 20
224.4125170692532
 30
0.0
 11
300.7709597954806
 21
232.4125170692532
 31
0.0
  0
LINE
  5
246
330
1F
100
AcDbEntity
  8
作図レイヤ
 62
     3
100
AcDbLine
 10
216.7709565373747
 20
83.08870524614437
 30
0.0
 11
216.7709565373747
 21
145.0887052510442
 31
0.0
  0
LINE
  5
247
330
1F
100
AcDbEntity
  8
作図レイヤ
 62
     3
100
AcDbLine
 10
220.2709565373747
 20
75.08869389547098
 30
0.0
 11
220.2709565373747
 21
153.0886938954714
 31
0.0
  0
LINE
  5
248
330
1F
100
AcDbEntity
  8
作図レイヤ
 62
     3
100
AcDbLine
 10
226.7709565373748
 20
74.08869329815181
 30
0.0
 11
226.7709565373747
 21
154.0886940040749
 31
0.0
  0
ARC
  5
249
330
1F
100
AcDbEntity
  8
作図レイヤ
 62
     3
100
AcDbCircle
 10
221.2709565373747
 20
153.0886938954714
 30
0.0
 40
1.0
100
AcDbArc
 50
89.99999377747773
 51
180.0
  0
ARC
  5
24A
330
1F
100
AcDbEntity
  8
作図レイヤ
 62
     3
100
AcDbCircle
 10
221.2709565373747
 20
75.08869389547098
 30
0.0
 40
1.0
100
AcDbArc
 50
180.0
 51
269.9999937774777
  0
LINE
  5
24B
330
1F
100
AcDbEntity
  8
作図レイヤ
 62
     3
100
AcDbLine
 10
226.7709565373747
 20
154.0886932981523
 30
0.0
 11
221.2709566459782
 21
154.0886932981523
 31
0.0
  0
LINE
  5
24C
330
1F
100
AcDbEntity
  8
作図レイヤ
 62
     3
100
AcDbLine
 10
226.7709565373748
 20
74.08869329815175
 30
0.0
 11
221.2709564287712
 21
74.08869329815175
 31
0.0
  0
LINE
  5
24D
330
1F
100
AcDbEntity
  8
作図レイヤ
 62
     3
100
AcDbLine
 10
216.7709565373747
 20
145.088705252015
 30
0.0
 11
217.2664711225071
 21
145.0887052510442
 31
0.0
  0
LINE
  5
24E
330
1F
100
AcDbEntity
  8
作図レイヤ
 62
     3
100
AcDbLine
 10
216.7709565373747
 20
83.08870524716184
 30
0.0
 11
217.2664687944676
 21
83.08870524614437
 31
0.0
  0
LINE
  5
24F
330
1F
100
AcDbEntity
  8
作図レイヤ
 62
     7
370
    20
100
AcDbLine
 10
175.0209565373742
 20
145.0886994756962
 30
0.0
 11
175.0209565373742
 21
135.0151075116191
 31
0.0
  0
LINE
  5
250
330
1F
100
AcDbEntity
  8
作図レイヤ
 62
     7
370
    20
100
AcDbLine
 10
176.0209565373742
 20
134.0151075116191
 30
0.0
 11
206.0209717961642
 21
134.0151075116191
 31
0.0
  0
LINE
  5
251
330
1F
100
AcDbEntity
  8
作図レイヤ
 62
     7
370
    20
100
AcDbLine
 10
207.0209717961642
 20
135.0151075116191
 30
0.0
 11
207.0209565373742
 21
145.0886994756962
 31
0.0
  0
ARC
  5
252
330
1F
100
AcDbEntity
  8
作図レイヤ
 62
     7
370
    20
100
AcDbCircle
 10
176.0209565373742
 20
135.0151075116191
 30
0.0
 40
1.0
100
AcDbArc
 50
180.00001866933
 51
270.0000280039999
  0
ARC
  5
253
330
1F
100
AcDbEntity
  8
作図レイヤ
 62
     7
370
    20
100
AcDbCircle
 10
206.0209717961642
 20
135.0151075116191
 30
0.0
 40
1.0
100
AcDbArc
 50
270.0000280039999
 51
359.9426910704
  0
TEXT
  5
254
330
1F
100
AcDbEntity
  8
作図レイヤ
 62
     7
370
    20
100
AcDbText
 10
189.0049285888672
 20
143.0518798828125
 30
0.0
 40
3.5
  1
ＮＰ
 50
270.0000076293945
 41
1.272727272727274
 51
10.0
  7
FX_VECTOR
 72
     5
 11
189.0049295209736
 21
136.0518798828126
 31
0.0
100
AcDbText
  0
LINE
  5
255
330
1F
100
AcDbEntity
  8
作図レイヤ
 62
     3
100
AcDbLine
 10
164.7709565373758
 20
145.0887053539008
 30
0.0
 11
164.7709565373758
 21
83.08870535393751
 31
0.0
  0
LINE
  5
256
330
1F
100
AcDbEntity
  8
作図レイヤ
 62
     3
100
AcDbLine
 10
164.7709565373758
 20
145.0887053539008
 30
0.0
 11
216.7709565373747
 21
145.088705252015
 31
0.0
  0
LINE
  5
257
330
1F
100
AcDbEntity
  8
作図レイヤ
 62
     3
100
AcDbLine
 10
164.7709565373758
 20
83.08870535393751
 30
0.0
 11
216.7709565373747
 21
83.08870524716184
 31
0.0
  0
LINE
  5
258
330
1F
100
AcDbEntity
  8
作図レイヤ
 62
     3
100
AcDbLine
 10
216.7709565373747
 20
145.0887052520151
 30
0.0
 11
216.7709565373747
 21
83.08870524716181
 31
0.0
  0
LINE
  5
259
330
1F
100
AcDbEntity
  8
作図レイヤ
 62
     3
100
AcDbLine
 10
164.7709500211687
 20
84.08871349323638
 30
0.0
 11
134.770950134909
 21
84.61237086614344
 31
0.0
  0
LINE
  5
25A
330
1F
100
AcDbEntity
  8
作図レイヤ
 62
     3
100
AcDbLine
 10
134.7709565373747
 20
143.565038971309
 30
0.0
 11
164.7709717961657
 21
144.0886900943489
 31
0.0
  0
LINE
  5
25B
330
1F
100
AcDbEntity
  8
作図レイヤ
 62
     3
100
AcDbLine
 10
134.7709565373747
 20
143.565038971309
 30
0.0
 11
133.7709565373747
 21
142.565038971309
 31
0.0
  0
LINE
  5
25C
330
1F
100
AcDbEntity
  8
作図レイヤ
 62
     3
100
AcDbLine
 10
134.7709565373747
 20
84.61237173497895
 30
0.0
 11
133.7709565373747
 21
85.61237173497895
 31
0.0
  0
LINE
  5
25D
330
1F
100
AcDbEntity
  8
作図レイヤ
 62
     3
100
AcDbLine
 10
133.7709565373747
 20
85.61237173497895
 30
0.0
 11
133.7709565373747
 21
142.565038971309
 31
0.0
  0
LINE
  5
25E
330
1F
100
AcDbEntity
  8
作図レイヤ
 62
     3
100
AcDbLine
 10
134.7709565373747
 20
84.61237075438677
 30
0.0
 11
134.7709565373747
 21
143.565038971309
 31
0.0
  0
LINE
  5
25F
330
1F
100
AcDbEntity
  8
作図レイヤ
  6
一点鎖線
 62
     7
370
    20
100
AcDbLine
 10
153.7709565373757
 20
127.0887057944757
 30
0.0
 11
153.7709565373757
 21
60.48075157005698
 31
0.0
  0
CIRCLE
  5
260
330
1F
100
AcDbEntity
  8
作図レイヤ
 62
     3
100
AcDbCircle
 10
153.7709565373757
 20
114.0887057944758
 30
0.0
 40
8.0
  0
CIRCLE
  5
261
330
1F
100
AcDbEntity
  8
作図レイヤ
 62
     3
100
AcDbCircle
 10
153.7709565373757
 20
114.0887057944758
 30
0.0
 40
6.0
  0
CIRCLE
  5
262
330
1F
100
AcDbEntity
  8
作図レイヤ
 62
     7
370
    20
100
AcDbCircle
 10
153.7709565373757
 20
114.0887057944758
 30
0.0
 40
5.5
  0
LINE
  5
263
330
1F
100
AcDbEntity
  8
作図レイヤ
 62
     3
100
AcDbLine
 10
156.5209565373757
 20
114.8887088462357
 30
0.0
 11
151.0209565373757
 21
114.8887088462357
 31
0.0
  0
LINE
  5
264
330
1F
100
AcDbEntity
  8
作図レイヤ
 62
     3
100
AcDbLine
 10
156.5209565373757
 20
113.2887027427157
 30
0.0
 11
151.0209565373757
 21
113.2887027427157
 31
0.0
  0
LINE
  5
265
330
1F
100
AcDbEntity
  8
作図レイヤ
 62
     3
100
AcDbLine
 10
151.0209565373757
 20
114.8887088462357
 30
0.0
 11
151.0209565373757
 21
113.2887027427157
 31
0.0
  0
LINE
  5
266
330
1F
100
AcDbEntity
  8
作図レイヤ
 62
     3
100
AcDbLine
 10
156.5209565373757
 20
114.8887088462357
 30
0.0
 11
156.5209565373757
 21
113.2887027427157
 31
0.0
  0
LINE
  5
267
330
1F
100
AcDbEntity
  8
基準ﾚｲﾔｸﾞﾙｰﾌﾟ_01
 62
     7
100
AcDbLine
 10
156.8427531498408
 20
75.76528338375098
 30
0.0
 11
154.8427531498409
 21
75.76528328807083
 31
0.0
  0
LINE
  5
268
330
1F
100
AcDbEntity
  8
基準ﾚｲﾔｸﾞﾙｰﾌﾟ_01
 62
     7
100
AcDbLine
 10
152.6991596103919
 20
75.7652831855211
 30
0.0
 11
153.2350578995739
 21
77.7652832111585
 31
0.0
  0
LINE
  5
269
330
1F
100
AcDbEntity
  8
基準ﾚｲﾔｸﾞﾙｰﾌﾟ_01
 62
     7
100
AcDbLine
 10
154.3068548606587
 20
73.76528326243337
 30
0.0
 11
153.2350578995739
 21
77.7652832111585
 31
0.0
  0
LINE
  5
26A
330
1F
100
AcDbEntity
  8
基準ﾚｲﾔｸﾞﾙｰﾌﾟ_01
 62
     7
100
AcDbLine
 10
154.8427531498409
 20
75.76528328807089
 30
0.0
 11
154.3068548606587
 21
73.76528326243331
 31
0.0
  0
LINE
  5
26B
330
1F
100
AcDbEntity
  8
基準ﾚｲﾔｸﾞﾙｰﾌﾟ_01
 62
     7
100
AcDbLine
 10
152.6991596103919
 20
75.7652831855211
 30
0.0
 11
151.27017161437
 21
75.76528311715825
 31
0.0
  0
LINE
  5
26C
330
1F
100
AcDbEntity
  8
基準ﾚｲﾔｸﾞﾙｰﾌﾟ_01
 62
     7
100
AcDbLine
 10
156.8430306434259
 20
72.83949918579034
 30
0.0
 11
154.8430306434259
 21
72.8394990901102
 31
0.0
  0
LINE
  5
26D
330
1F
100
AcDbEntity
  8
基準ﾚｲﾔｸﾞﾙｰﾌﾟ_01
 62
     7
100
AcDbLine
 10
152.6994371039769
 20
72.83949898756046
 30
0.0
 11
153.2353353931589
 21
74.83949901319781
 31
0.0
  0
LINE
  5
26E
330
1F
100
AcDbEntity
  8
基準ﾚｲﾔｸﾞﾙｰﾌﾟ_01
 62
     7
100
AcDbLine
 10
154.3071323542438
 20
70.83949906447279
 30
0.0
 11
153.2353353931591
 21
74.83949901319798
 31
0.0
  0
LINE
  5
26F
330
1F
100
AcDbEntity
  8
基準ﾚｲﾔｸﾞﾙｰﾌﾟ_01
 62
     7
100
AcDbLine
 10
154.8430306434259
 20
72.8394990901102
 30
0.0
 11
154.3071323542438
 21
70.83949906447279
 31
0.0
  0
LINE
  5
270
330
1F
100
AcDbEntity
  8
基準ﾚｲﾔｸﾞﾙｰﾌﾟ_01
 62
     7
100
AcDbLine
 10
152.6994371039769
 20
72.83949898756046
 30
0.0
 11
150.6994371039769
 21
72.83949889188037
 31
0.0
  0
LINE
  5
271
330
1F
100
AcDbEntity
  8
作図レイヤ
  6
一点鎖線
 62
     7
370
    20
100
AcDbLine
 10
303.7709597954807
 20
129.0886848270794
 30
0.0
 11
262.7709637560374
 21
129.0886848270794
 31
0.0
  0
LINE
  5
272
330
1F
100
AcDbEntity
  8
作図レイヤ
 62
     3
100
AcDbLine
 10
300.7709597954806
 20
125.0886848270794
 30
0.0
 11
300.7709597954806
 21
132.0886848270794
 31
0.0
  0
LINE
  5
273
330
1F
100
AcDbEntity
  8
作図レイヤ
 62
     3
100
AcDbLine
 10
226.7709652256553
 20
154.0886932981521
 30
0.0
 11
267.7709638646407
 21
154.0886890626159
 31
0.0
  0
ARC
  5
274
330
1F
100
AcDbEntity
  8
作図レイヤ
 62
     3
100
AcDbCircle
 10
267.7709637560372
 20
153.0886890626159
 30
0.0
 40
1.0
100
AcDbArc
 50
0.0
 51
89.99999377747773
  0
ARC
  5
275
330
1F
100
AcDbEntity
  8
作図レイヤ
 62
     3
100
AcDbCircle
 10
267.7709552849647
 20
75.08868906261645
 30
0.0
 40
1.0
100
AcDbArc
 50
269.9999937774777
 51
359.9999875549555
  0
LINE
  5
276
330
1F
100
AcDbEntity
  8
作図レイヤ
 62
     3
100
AcDbLine
 10
226.7709478490964
 20
74.08869329815346
 30
0.0
 11
267.7709551763613
 21
74.08868906261645
 31
0.0
  0
LINE
  5
277
330
1F
100
AcDbEntity
  8
作図レイヤ
 62
     3
100
AcDbLine
 10
268.7709650015065
 20
153.0567286760326
 30
0.0
 11
268.7709480663034
 21
75.08868884541101
 31
0.0
  0
LINE
  5
278
330
1F
100
AcDbEntity
  8
作図レイヤ
 62
     3
100
AcDbLine
 10
274.27095979548
 20
114.0886848270795
 30
0.0
 11
268.7709565373751
 21
114.0886848270795
 31
0.0
  0
ARC
  5
279
330
1F
100
AcDbEntity
  8
作図レイヤ
 62
     3
100
AcDbCircle
 10
274.27095979548
 20
114.5886848270795
 30
0.0
 40
0.5
100
AcDbArc
 50
270.0
 51
0.0
  0
LINE
  5
27A
330
1F
100
AcDbEntity
  8
作図レイヤ
 62
     3
100
AcDbLine
 10
274.7709629449813
 20
143.5886848270787
 30
0.0
 11
274.7709566455932
 21
114.5869100378232
 31
0.0
  0
LINE
  5
27B
330
1F
100
AcDbEntity
  8
作図レイヤ
 62
     3
100
AcDbLine
 10
274.27095979548
 20
144.0886848270794
 30
0.0
 11
273.5709637560371
 21
144.0886848270794
 31
0.0
  0
ARC
  5
27C
330
1F
100
AcDbEntity
  8
作図レイヤ
 62
     3
100
AcDbCircle
 10
274.27095979548
 20
143.5886848270794
 30
0.0
 40
0.5
100
AcDbArc
 50
0.0
 51
90.0
  0
LINE
  5
27D
330
1F
100
AcDbEntity
  8
作図レイヤ
 62
     3
100
AcDbLine
 10
286.7709597954807
 20
133.0886848270795
 30
0.0
 11
274.7709606643079
 21
133.0886848270794
 31
0.0
  0
LINE
  5
27E
330
1F
100
AcDbEntity
  8
作図レイヤ
 62
     3
100
AcDbLine
 10
300.7709597954806
 20
125.0886848270794
 30
0.0
 11
274.770958926652
 21
125.0886848270794
 31
0.0
  0
LINE
  5
27F
330
1F
100
AcDbEntity
  8
作図レイヤ
 62
     3
100
AcDbLine
 10
300.7709597954806
 20
132.0886848270794
 30
0.0
 11
286.7709597954807
 21
132.0886848270794
 31
0.0
  0
LINE
  5
280
330
1F
100
AcDbEntity
  8
作図レイヤ
 62
     3
100
AcDbLine
 10
286.7709597954807
 20
132.0886848270794
 30
0.0
 11
286.7709597954807
 21
133.0886848270795
 31
0.0
  0
LINE
  5
281
330
1F
100
AcDbEntity
  8
作図レイヤ
 62
     3
100
AcDbLine
 10
226.7709652256554
 20
154.0886932981521
 30
0.0
 11
226.7709478490964
 21
74.08869329815343
 31
0.0
  0
LINE
  5
282
330
1F
100
AcDbEntity
  8
作図レイヤ
 62
     3
100
AcDbLine
 10
273.4136981661291
 20
151.9415109636337
 30
0.0
 11
273.7709637560372
 21
151.3227088101167
 31
0.0
  0
LINE
  5
283
330
1F
100
AcDbEntity
  8
作図レイヤ
 62
     3
100
AcDbLine
 10
273.7709637560372
 20
151.3227088101167
 30
0.0
 11
273.7709637560372
 21
143.3227088101167
 31
0.0
  0
LINE
  5
284
330
1F
100
AcDbEntity
  8
作図レイヤ
 62
     3
100
AcDbLine
 10
273.7709637560372
 20
143.3227088101167
 30
0.0
 11
273.4136981661291
 21
142.7039066565997
 31
0.0
  0
ARC
  5
285
330
1F
100
AcDbEntity
  8
作図レイヤ
 62
     3
100
AcDbCircle
 10
271.7263055572988
 20
150.7868104252544
 30
0.0
 40
2.044658198738496
100
AcDbArc
 50
325.6157525319587
 51
34.38424746804323
  0
ARC
  5
286
330
1F
100
AcDbEntity
  8
作図レイヤ
 62
     3
100
AcDbCircle
 10
266.1282293459456
 20
147.3227088101167
 30
0.0
 40
7.642734410091665
100
AcDbArc
 50
342.4120462260059
 51
17.58795377399403
  0
ARC
  5
287
330
1F
100
AcDbEntity
  8
作図レイヤ
 62
     3
100
AcDbCircle
 10
271.7263055572988
 20
143.8586071949789
 30
0.0
 40
2.044658198738496
100
AcDbArc
 50
325.6157525319587
 51
34.38424746804323
  0
LINE
  5
288
330
1F
100
AcDbEntity
  8
作図レイヤ
 62
     3
100
AcDbLine
 10
273.4136981661291
 20
142.7039066565997
 30
0.0
 11
269.7709637560372
 21
142.7039066565997
 31
0.0
  0
LINE
  5
289
330
1F
100
AcDbEntity
  8
作図レイヤ
 62
     3
100
AcDbLine
 10
269.7709637560372
 20
142.7039066565997
 30
0.0
 11
269.7709637560372
 21
151.9415109636337
 31
0.0
  0
LINE
  5
28A
330
1F
100
AcDbEntity
  8
作図レイヤ
 62
     3
100
AcDbLine
 10
269.7709637560372
 20
151.9415109636337
 30
0.0
 11
273.4136981661291
 21
151.9415109636337
 31
0.0
  0
LINE
  5
28B
330
1F
100
AcDbEntity
  8
作図レイヤ
 62
     3
100
AcDbLine
 10
273.4136981661291
 20
149.6321098868752
 30
0.0
 11
269.7709637560372
 21
149.6321098868752
 31
0.0
  0
LINE
  5
28C
330
1F
100
AcDbEntity
  8
作図レイヤ
 62
     3
100
AcDbLine
 10
273.4136981661291
 20
145.0133077333582
 30
0.0
 11
269.7709637560372
 21
145.0133077333582
 31
0.0
  0
LINE
  5
28D
330
1F
100
AcDbEntity
  8
作図レイヤ
 62
     3
100
AcDbLine
 10
269.7709637560372
 20
152.3227088101167
 30
0.0
 11
269.7709637560372
 21
142.3227088101167
 31
0.0
  0
LINE
  5
28E
330
1F
100
AcDbEntity
  8
作図レイヤ
 62
     3
100
AcDbLine
 10
269.7709637560372
 20
142.3227088101167
 30
0.0
 11
268.7709637560372
 21
142.3227088101167
 31
0.0
  0
LINE
  5
28F
330
1F
100
AcDbEntity
  8
作図レイヤ
 62
     3
100
AcDbLine
 10
268.7709637560372
 20
142.3227088101167
 30
0.0
 11
268.7709637560372
 21
152.3227088101167
 31
0.0
  0
LINE
  5
290
330
1F
100
AcDbEntity
  8
作図レイヤ
 62
     3
100
AcDbLine
 10
268.7709637560372
 20
152.3227088101167
 30
0.0
 11
269.7709637560372
 21
152.3227088101167
 31
0.0
  0
LINE
  5
291
330
1F
100
AcDbEntity
  8
作図レイヤ
 62
     3
100
AcDbLine
 10
273.4136846961659
 20
85.47347018483421
 30
0.0
 11
273.7709501564725
 21
84.85466795649171
 31
0.0
  0
LINE
  5
292
330
1F
100
AcDbEntity
  8
作図レイヤ
 62
     3
100
AcDbLine
 10
273.7709501564725
 20
84.85466795649171
 30
0.0
 11
273.7709484809563
 21
76.85466795649188
 31
0.0
  0
LINE
  5
293
330
1F
100
AcDbEntity
  8
作図レイヤ
 62
     3
100
AcDbLine
 10
273.7709484809563
 20
76.85466795649188
 30
0.0
 11
273.4136827614466
 21
76.23586587780042
 31
0.0
  0
ARC
  5
294
330
1F
100
AcDbEntity
  8
作図レイヤ
 62
     3
100
AcDbCircle
 10
271.7262918454957
 20
84.3187699998617
 30
0.0
 40
2.044658198738512
100
AcDbArc
 50
325.6157405319581
 51
34.38423546804257
  0
ARC
  5
295
330
1F
100
AcDbEntity
  8
作図レイヤ
 62
     3
100
AcDbCircle
 10
266.1282149086229
 20
80.85466955718235
 30
0.0
 40
7.6427344100917
100
AcDbArc
 50
342.4120342260057
 51
17.58794177399378
  0
ARC
  5
296
330
1F
100
AcDbEntity
  8
作図レイヤ
 62
     3
100
AcDbCircle
 10
271.7262903944562
 20
77.39056676958631
 30
0.0
 40
2.044658198738512
100
AcDbArc
 50
325.6157405319581
 51
34.38423546804257
  0
LINE
  5
297
330
1F
100
AcDbEntity
  8
作図レイヤ
 62
     3
100
AcDbLine
 10
273.4136827614466
 20
76.23586587780042
 30
0.0
 11
269.7709483513548
 21
76.23586664073292
 31
0.0
  0
LINE
  5
298
330
1F
100
AcDbEntity
  8
作図レイヤ
 62
     3
100
AcDbLine
 10
269.7709483513548
 20
76.23586664073292
 30
0.0
 11
269.7709502860741
 21
85.47347094776674
 31
0.0
  0
LINE
  5
299
330
1F
100
AcDbEntity
  8
作図レイヤ
 62
     3
100
AcDbLine
 10
269.7709502860741
 20
85.47347094776674
 30
0.0
 11
273.4136846961659
 21
85.47347018483421
 31
0.0
  0
LINE
  5
29A
330
1F
100
AcDbEntity
  8
作図レイヤ
 62
     3
100
AcDbLine
 10
273.4136842124861
 20
83.16406910807575
 30
0.0
 11
269.7709498023943
 21
83.16406987100828
 31
0.0
  0
LINE
  5
29B
330
1F
100
AcDbEntity
  8
作図レイヤ
 62
     3
100
AcDbLine
 10
273.4136832451264
 20
78.54526695455888
 30
0.0
 11
269.7709488350346
 21
78.54526771749138
 31
0.0
  0
LINE
  5
29C
330
1F
100
AcDbEntity
  8
作図レイヤ
 62
     3
100
AcDbLine
 10
269.770950365912
 20
85.8546687942497
 30
0.0
 11
269.7709482715169
 21
75.85466879424993
 31
0.0
  0
LINE
  5
29D
330
1F
100
AcDbEntity
  8
作図レイヤ
 62
     3
100
AcDbLine
 10
269.7709482715169
 20
75.85466879424993
 30
0.0
 11
268.7709482715169
 21
75.85466900368945
 31
0.0
  0
LINE
  5
29E
330
1F
100
AcDbEntity
  8
作図レイヤ
 62
     3
100
AcDbLine
 10
268.7709482715169
 20
75.85466900368945
 30
0.0
 11
268.770950365912
 21
85.85466900368922
 31
0.0
  0
LINE
  5
29F
330
1F
100
AcDbEntity
  8
作図レイヤ
 62
     3
100
AcDbLine
 10
268.770950365912
 20
85.85466900368922
 30
0.0
 11
269.770950365912
 21
85.8546687942497
 31
0.0
  0
INSERT
  5
2A3
330
1F
100
AcDbEntity
  8
作図レイヤ
 62
     3
100
AcDbBlockReference
  2
BLKF035
 10
0.0
 20
0.0
 30
0.0
  0
LINE
  5
2B1
330
1F
100
AcDbEntity
  8
作図レイヤ
 62
     3
100
AcDbLine
 10
284.4709565373747
 20
144.8227088101167
 30
0.0
 11
284.4709565373747
 21
149.8227088101167
 31
0.0
  0
INSERT
  5
2B5
330
1F
100
AcDbEntity
  8
作図レイヤ
 62
     3
100
AcDbBlockReference
  2
BLKF036
 10
0.0
 20
0.0
 30
0.0
  0
LINE
  5
2C3
330
1F
100
AcDbEntity
  8
作図レイヤ
 62
     3
100
AcDbLine
 10
284.4709560137745
 20
78.35466579237072
 30
0.0
 11
284.470957060972
 21
83.35466579237061
 31
0.0
  0
LINE
  5
2C4
330
1F
100
AcDbEntity
  8
GR1_01
 62
     3
100
AcDbLine
 10
58.2861823337776
 20
74.08868808518446
 30
0.0
 11
26.48615779686469
 21
74.08868808518446
 31
0.0
  0
LINE
  5
2C5
330
1F
100
AcDbEntity
  8
GR1_01
 62
     3
100
AcDbLine
 10
60.4861758086562
 20
74.08868808518446
 30
0.0
 11
60.48616627019454
 21
74.08868808518446
 31
0.0
  0
ARC
  5
2C6
330
1F
100
AcDbEntity
  8
GR1_01
 62
     3
100
AcDbCircle
 10
60.4861577968647
 20
114.0886880851843
 30
0.0
 40
31.0
100
AcDbArc
 50
274.0695716550782
 51
265.9304299057929
  0
ENDSEC
  0
SECTION
  2
OBJECTS
  0
DICTIONARY
  5
C
330
0
100
AcDbDictionary
281
     1
  3
ACAD_GROUP
350
D
  3
ACAD_LAYOUT
350
1A
  3
ACAD_MATERIAL
350
3B
  3
ACAD_MLEADERSTYLE
350
2C9
  3
ACAD_MLINESTYLE
350
17
  3
ACAD_PLOTSETTINGS
350
19
  3
ACAD_PLOTSTYLENAME
350
E
  3
ACAD_VISUALSTYLE
350
2A
  3
AcDbVariableDictionary
350
2C7
  0
DICTIONARY
  5
D
102
{ACAD_REACTORS
330
C
102
}
330
C
100
AcDbDictionary
281
     1
  0
DICTIONARY
  5
1A
102
{ACAD_REACTORS
330
C
102
}
330
C
100
AcDbDictionary
281
     1
  3
Layout1
350
1E
  3
Layout2
350
26
  3
Model
350
22
  0
DICTIONARY
  5
3B
102
{ACAD_REACTORS
330
C
102
}
330
C
100
AcDbDictionary
281
     1
  3
ByBlock
350
3D
  3
ByLayer
350
3C
  3
Global
350
3E
  0
DICTIONARY
  5
2C9
102
{ACAD_REACTORS
330
C
102
}
330
C
100
AcDbDictionary
281
     1
  0
DICTIONARY
  5
17
102
{ACAD_REACTORS
330
C
102
}
330
C
100
AcDbDictionary
281
     1
  3
Standard
350
18
  0
DICTIONARY
  5
19
102
{ACAD_REACTORS
330
C
102
}
330
C
100
AcDbDictionary
281
     1
  0
ACDBDICTIONARYWDFLT
  5
E
102
{ACAD_REACTORS
330
C
102
}
330
C
100
AcDbDictionary
281
     1
  3
Normal
350
F
100
AcDbDictionaryWithDefault
340
F
  0
DICTIONARY
  5
2A
102
{ACAD_REACTORS
330
C
102
}
330
C
100
AcDbDictionary
281
     1
  3
2dWireframe
350
2F
  3
3D Hidden
350
31
  3
3dWireframe
350
30
  3
Basic
350
32
  3
Brighten
350
36
  3
ColorChange
350
3A
  3
Conceptual
350
34
  3
Dim
350
35
  3
Facepattern
350
39
  3
Flat
350
2B
  3
FlatWithEdges
350
2C
  3
Gouraud
350
2D
  3
GouraudWithEdges
350
2E
  3
Linepattern
350
38
  3
Realistic
350
33
  3
Thicken
350
37
  0
DICTIONARY
  5
2C7
102
{ACAD_REACTORS
330
C
102
}
330
C
100
AcDbDictionary
281
     1
  3
DIMASSOC
350
2CC
  3
HIDETEXT
350
2CD
  3
PSOLHEIGHT
350
2CB
  3
PSOLWIDTH
350
2CA
  0
LAYOUT
  5
1E
102
{ACAD_REACTORS
330
1A
102
}
330
1A
100
AcDbPlotSettings
  1

  2
none_device
  4

  6

 40
0.0
 41
0.0
 42
0.0
 43
0.0
 44
0.0
 45
0.0
 46
0.0
 47
0.0
 48
0.0
 49
0.0
140
0.0
141
0.0
142
1.0
143
1.0
 70
   688
 72
     0
 73
     0
 74
     5
  7

 75
    16
147
1.0
148
0.0
149
0.0
100
AcDbLayout
  1
Layout1
 70
     1
 71
     1
 10
0.0
 20
0.0
 11
420.0
 21
297.0
 12
0.0
 22
0.0
 32
0.0
 14
1.000000000000000E+20
 24
1.000000000000000E+20
 34
1.000000000000000E+20
 15
-1.000000000000000E+20
 25
-1.000000000000000E+20
 35
-1.000000000000000E+20
146
0.0
 13
0.0
 23
0.0
 33
0.0
 16
1.0
 26
0.0
 36
0.0
 17
0.0
 27
1.0
 37
0.0
 76
     0
330
1B
  0
LAYOUT
  5
26
102
{ACAD_REACTORS
330
1A
102
}
330
1A
100
AcDbPlotSettings
  1

  2
none_device
  4

  6

 40
0.0
 41
0.0
 42
0.0
 43
0.0
 44
0.0
 45
0.0
 46
0.0
 47
0.0
 48
0.0
 49
0.0
140
0.0
141
0.0
142
1.0
143
1.0
 70
   688
 72
     0
 73
     0
 74
     5
  7

 75
    16
147
1.0
148
0.0
149
0.0
100
AcDbLayout
  1
Layout2
 70
     1
 71
     2
 10
0.0
 20
0.0
 11
0.0
 21
0.0
 12
0.0
 22
0.0
 32
0.0
 14
0.0
 24
0.0
 34
0.0
 15
0.0
 25
0.0
 35
0.0
146
0.0
 13
0.0
 23
0.0
 33
0.0
 16
1.0
 26
0.0
 36
0.0
 17
0.0
 27
1.0
 37
0.0
 76
     0
330
23
  0
LAYOUT
  5
22
102
{ACAD_REACTORS
330
1A
102
}
330
1A
100
AcDbPlotSettings
  1

  2
none_device
  4

  6

 40
0.0
 41
0.0
 42
0.0
 43
0.0
 44
0.0
 45
0.0
 46
0.0
 47
0.0
 48
0.0
 49
0.0
140
0.0
141
0.0
142
1.0
143
1.0
 70
  1712
 72
     0
 73
     0
 74
     0
  7

 75
     0
147
1.0
148
0.0
149
0.0
100
AcDbLayout
  1
Model
 70
     1
 71
     0
 10
0.0
 20
0.0
 11
420.0
 21
297.0
 12
0.0
 22
0.0
 32
0.0
 14
0.0
 24
0.0
 34
0.0
 15
420.0
 25
297.0
 35
0.0
146
0.0
 13
0.0
 23
0.0
 33
0.0
 16
1.0
 26
0.0
 36
0.0
 17
0.0
 27
1.0
 37
0.0
 76
     0
330
1F
331
29
  0
MATERIAL
  5
3D
102
{ACAD_REACTORS
330
3B
102
}
102
{ACAD_XDICTIONARY
360
2F0
102
}
330
3B
100
AcDbMaterial
  1
ByBlock
  0
MATERIAL
  5
3C
102
{ACAD_REACTORS
330
3B
102
}
102
{ACAD_XDICTIONARY
360
2EE
102
}
330
3B
100
AcDbMaterial
  1
ByLayer
  0
MATERIAL
  5
3E
102
{ACAD_REACTORS
330
3B
102
}
102
{ACAD_XDICTIONARY
360
2F2
102
}
330
3B
100
AcDbMaterial
  1
Global
  0
MLINESTYLE
  5
18
102
{ACAD_REACTORS
330
17
102
}
330
17
100
AcDbMlineStyle
  2
Standard
 70
     0
  3

 62
   256
 51
90.0
 52
90.0
 71
     2
 49
0.5
 62
   256
  6
BYLAYER
 49
-0.5
 62
   256
  6
BYLAYER
  0
ACDBPLACEHOLDER
  5
F
102
{ACAD_REACTORS
330
E
102
}
330
E
  0
VISUALSTYLE
  5
2F
102
{ACAD_REACTORS
330
2A
102
}
102
{ACAD_XDICTIONARY
360
2D6
102
}
330
2A
100
AcDbVisualStyle
  2
2dWireframe
 70
     4
 71
     0
 72
     2
 73
     0
 90
        0
 40
-0.6
 41
-30.0
 62
     5
 63
     7
 74
     1
 91
        4
 64
     7
 65
   257
 75
     1
175
     1
 42
1.0
 92
        0
 66
   257
 43
1.0
 76
     1
 77
     6
 78
     2
 67
     7
 79
     5
170
     0
171
     0
290
     0
174
     0
 93
        1
 44
0.0
173
     0
291
     0
 45
0.0
1001
ACAD
1000
AcDbSavedByObjectVersion
1070
     0
  0
VISUALSTYLE
  5
31
102
{ACAD_REACTORS
330
2A
102
}
102
{ACAD_XDICTIONARY
360
2DA
102
}
330
2A
100
AcDbVisualStyle
  2
3D Hidden
 70
     6
 71
     1
 72
     2
 73
     2
 90
        0
 40
-0.6
 41
-30.0
 62
     5
 63
     7
 74
     2
 91
        2
 64
     7
 65
   257
 75
     2
175
     1
 42
40.0
 92
        0
 66
   257
 43
1.0
 76
     1
 77
     6
 78
     2
 67
     7
 79
     3
170
     0
171
     0
290
     0
174
     0
 93
        1
 44
0.0
173
     0
291
     0
 45
0.0
1001
ACAD
1000
AcDbSavedByObjectVersion
1070
     0
  0
VISUALSTYLE
  5
30
102
{ACAD_REACTORS
330
2A
102
}
102
{ACAD_XDICTIONARY
360
2D8
102
}
330
2A
100
AcDbVisualStyle
  2
3dWireframe
 70
     5
 71
     0
 72
     2
 73
     0
 90
        0
 40
-0.6
 41
-30.0
 62
     5
 63
     7
 74
     1
 91
        4
 64
     7
 65
   257
 75
     1
175
     1
 42
1.0
 92
        0
 66
   257
 43
1.0
 76
     1
 77
     6
 78
     2
 67
     7
 79
     5
170
     0
171
     0
290
     0
174
     0
 93
        1
 44
0.0
173
     0
291
     0
 45
0.0
1001
ACAD
1000
AcDbSavedByObjectVersion
1070
     0
  0
VISUALSTYLE
  5
32
102
{ACAD_REACTORS
330
2A
102
}
102
{ACAD_XDICTIONARY
360
2DC
102
}
330
2A
100
AcDbVisualStyle
  2
Basic
 70
     7
 71
     1
 72
     0
 73
     1
 90
        0
 40
-0.6
 41
-30.0
 62
     5
 63
     7
 74
     0
 91
        4
 64
     7
 65
   257
 75
     1
175
     1
 42
1.0
 92
        8
 66
     7
 43
1.0
 76
     1
 77
     6
 78
     2
 67
     7
 79
     5
170
     0
171
     0
290
     0
174
     0
 93
        1
 44
0.0
173
     0
291
     1
 45
0.0
1001
ACAD
1000
AcDbSavedByObjectVersion
1070
     0
  0
VISUALSTYLE
  5
36
102
{ACAD_REACTORS
330
2A
102
}
102
{ACAD_XDICTIONARY
360
2E4
102
}
330
2A
100
AcDbVisualStyle
  2
Brighten
 70
    12
 71
     2
 72
     2
 73
     0
 90
        0
 40
-0.6
 41
-30.0
 62
     5
 63
     7
 74
     1
 91
        4
 64
     7
 65
   257
 75
     1
175
     1
 42
1.0
 92
        8
 66
     7
 43
1.0
 76
     1
 77
     6
 78
     2
 67
     7
 79
     5
170
     0
171
     0
290
     0
174
     0
 93
        1
 44
50.0
173
     0
291
     1
 45
0.0
1001
ACAD
1000
AcDbSavedByObjectVersion
1070
     0
  0
VISUALSTYLE
  5
3A
102
{ACAD_REACTORS
330
2A
102
}
102
{ACAD_XDICTIONARY
360
2EC
102
}
330
2A
100
AcDbVisualStyle
  2
ColorChange
 70
    16
 71
     2
 72
     2
 73
     3
 90
        0
 40
-0.6
 41
-30.0
 62
     5
 63
     8
 74
     1
 91
        4
 64
     7
 65
   257
 75
     1
175
     1
 42
1.0
 92
        8
 66
     8
 43
1.0
 76
     1
 77
     6
 78
     2
 67
     7
 79
     5
170
     0
171
     0
290
     0
174
     0
 93
        1
 44
0.0
173
     0
291
     1
 45
0.0
1001
ACAD
1000
AcDbSavedByObjectVersion
1070
     0
  0
VISUALSTYLE
  5
34
102
{ACAD_REACTORS
330
2A
102
}
102
{ACAD_XDICTIONARY
360
2E0
102
}
330
2A
100
AcDbVisualStyle
  2
Conceptual
 70
     9
 71
     3
 72
     2
 73
     0
 90
        0
 40
-0.6
 41
-30.0
 62
     5
 63
     7
 74
     2
 91
        2
 64
     7
 65
   257
 75
     1
175
     1
 42
40.0
 92
        8
 66
     7
 43
1.0
 76
     1
 77
     6
 78
     2
 67
     7
 79
     3
170
     0
171
     0
290
     0
174
     0
 93
        1
 44
0.0
173
     0
291
     0
 45
0.0
1001
ACAD
1000
AcDbSavedByObjectVersion
1070
     0
  0
VISUALSTYLE
  5
35
102
{ACAD_REACTORS
330
2A
102
}
102
{ACAD_XDICTIONARY
360
2E2
102
}
330
2A
100
AcDbVisualStyle
  2
Dim
 70
    11
 71
     2
 72
     2
 73
     0
 90
        0
 40
-0.6
 41
-30.0
 62
     5
 63
     7
 74
     1
 91
        4
 64
     7
 65
   257
 75
     1
175
     1
 42
1.0
 92
        8
 66
     7
 43
1.0
 76
     1
 77
     6
 78
     2
 67
     7
 79
     5
170
     0
171
     0
290
     0
174
     0
 93
        1
 44
-50.0
173
     0
291
     1
 45
0.0
1001
ACAD
1000
AcDbSavedByObjectVersion
1070
     0
  0
VISUALSTYLE
  5
39
102
{ACAD_REACTORS
330
2A
102
}
102
{ACAD_XDICTIONARY
360
2EA
102
}
330
2A
100
AcDbVisualStyle
  2
Facepattern
 70
    15
 71
     2
 72
     2
 73
     0
 90
        0
 40
-0.6
 41
-30.0
 62
     5
 63
     7
 74
     1
 91
        4
 64
     7
 65
   257
 75
     1
175
     1
 42
1.0
 92
        8
 66
     7
 43
1.0
 76
     1
 77
     6
 78
     2
 67
     7
 79
     5
170
     0
171
     0
290
     0
174
     0
 93
        1
 44
0.0
173
     0
291
     1
 45
0.0
1001
ACAD
1000
AcDbSavedByObjectVersion
1070
     0
  0
VISUALSTYLE
  5
2B
102
{ACAD_REACTORS
330
2A
102
}
102
{ACAD_XDICTIONARY
360
2CE
102
}
330
2A
100
AcDbVisualStyle
  2
Flat
 70
     0
 71
     2
 72
     1
 73
     1
 90
        2
 40
-0.6
 41
30.0
 62
     5
 63
     7
 74
     0
 91
        4
 64
     7
 65
   257
 75
     1
175
     1
 42
1.0
 92
        8
 66
     7
 43
1.0
 76
     1
 77
     6
 78
     2
 67
     7
 79
     5
170
     0
171
     0
290
     0
174
     0
 93
       13
 44
0.0
173
     0
291
     1
 45
0.0
1001
ACAD
1000
AcDbSavedByObjectVersion
1070
     0
  0
VISUALSTYLE
  5
2C
102
{ACAD_REACTORS
330
2A
102
}
102
{ACAD_XDICTIONARY
360
2D0
102
}
330
2A
100
AcDbVisualStyle
  2
FlatWithEdges
 70
     1
 71
     2
 72
     1
 73
     1
 90
        2
 40
-0.6
 41
30.0
 62
     5
 63
     7
 74
     1
 91
        4
 64
     7
 65
   257
 75
     1
175
     1
 42
1.0
 92
        0
 66
   257
 43
1.0
 76
     1
 77
     6
 78
     2
 67
     7
 79
     5
170
     0
171
     0
290
     0
174
     0
 93
       13
 44
0.0
173
     0
291
     1
 45
0.0
1001
ACAD
1000
AcDbSavedByObjectVersion
1070
     0
  0
VISUALSTYLE
  5
2D
102
{ACAD_REACTORS
330
2A
102
}
102
{ACAD_XDICTIONARY
360
2D2
102
}
330
2A
100
AcDbVisualStyle
  2
Gouraud
 70
     2
 71
     2
 72
     2
 73
     1
 90
        2
 40
-0.6
 41
30.0
 62
     5
 63
     7
 74
     0
 91
        4
 64
     7
 65
   257
 75
     1
175
     1
 42
1.0
 92
        0
 66
     7
 43
1.0
 76
     1
 77
     6
 78
     2
 67
     7
 79
     5
170
     0
171
     0
290
     0
174
     0
 93
       13
 44
0.0
173
     0
291
     1
 45
0.0
1001
ACAD
1000
AcDbSavedByObjectVersion
1070
     0
  0
VISUALSTYLE
  5
2E
102
{ACAD_REACTORS
330
2A
102
}
102
{ACAD_XDICTIONARY
360
2D4
102
}
330
2A
100
AcDbVisualStyle
  2
GouraudWithEdges
 70
     3
 71
     2
 72
     2
 73
     1
 90
        2
 40
-0.6
 41
30.0
 62
     5
 63
     7
 74
     1
 91
        4
 64
     7
 65
   257
 75
     1
175
     1
 42
1.0
 92
        0
 66
   257
 43
1.0
 76
     1
 77
     6
 78
     2
 67
     7
 79
     5
170
     0
171
     0
290
     0
174
     0
 93
       13
 44
0.0
173
     0
291
     1
 45
0.0
1001
ACAD
1000
AcDbSavedByObjectVersion
1070
     0
  0
VISUALSTYLE
  5
38
102
{ACAD_REACTORS
330
2A
102
}
102
{ACAD_XDICTIONARY
360
2E8
102
}
330
2A
100
AcDbVisualStyle
  2
Linepattern
 70
    14
 71
     2
 72
     2
 73
     0
 90
        0
 40
-0.6
 41
-30.0
 62
     5
 63
     7
 74
     1
 91
        4
 64
     7
 65
   257
 75
     7
175
     7
 42
1.0
 92
        8
 66
     7
 43
1.0
 76
     1
 77
     6
 78
     2
 67
     7
 79
     5
170
     0
171
     0
290
     0
174
     0
 93
        1
 44
0.0
173
     0
291
     1
 45
0.0
1001
ACAD
1000
AcDbSavedByObjectVersion
1070
     0
  0
VISUALSTYLE
  5
33
102
{ACAD_REACTORS
330
2A
102
}
102
{ACAD_XDICTIONARY
360
2DE
102
}
330
2A
100
AcDbVisualStyle
  2
Realistic
 70
     8
 71
     2
 72
     2
 73
     0
 90
        0
 40
-0.6
 41
-30.0
 62
     5
 63
     7
 74
     1
 91
        0
 64
     7
 65
   257
 75
     1
175
     1
 42
1.0
 92
        8
 66
     8
 43
1.0
 76
     1
 77
     6
 78
     2
 67
     7
 79
     5
170
     0
171
     0
290
     0
174
     0
 93
       13
 44
0.0
173
     0
291
     0
 45
0.0
1001
ACAD
1000
AcDbSavedByObjectVersion
1070
     0
  0
VISUALSTYLE
  5
37
102
{ACAD_REACTORS
330
2A
102
}
102
{ACAD_XDICTIONARY
360
2E6
102
}
330
2A
100
AcDbVisualStyle
  2
Thicken
 70
    13
 71
     2
 72
     2
 73
     0
 90
        0
 40
-0.6
 41
-30.0
 62
     5
 63
     7
 74
     1
 91
        4
 64
     7
 65
   257
 75
     1
175
     1
 42
1.0
 92
       12
 66
     7
 43
1.0
 76
     1
 77
     6
 78
     2
 67
     7
 79
     5
170
     0
171
     0
290
     0
174
     0
 93
        1
 44
0.0
173
     0
291
     1
 45
0.0
1001
ACAD
1000
AcDbSavedByObjectVersion
1070
     0
  0
DICTIONARYVAR
  5
2CC
102
{ACAD_REACTORS
330
2C7
102
}
330
2C7
100
DictionaryVariables
280
     0
  1
2
  0
DICTIONARYVAR
  5
2CD
102
{ACAD_REACTORS
330
2C7
102
}
330
2C7
100
DictionaryVariables
280
     0
  1
1
  0
DICTIONARYVAR
  5
2CB
102
{ACAD_REACTORS
330
2C7
102
}
330
2C7
100
DictionaryVariables
280
     0
  1
80.000000
  0
DICTIONARYVAR
  5
2CA
102
{ACAD_REACTORS
330
2C7
102
}
330
2C7
100
DictionaryVariables
280
     0
  1
5.000000
  0
DICTIONARY
  5
2F0
330
3D
100
AcDbDictionary
280
     1
281
     1
  3
ACAD_XREC_ROUNDTRIP
360
2F1
  0
DICTIONARY
  5
2EE
330
3C
100
AcDbDictionary
280
     1
281
     1
  3
ACAD_XREC_ROUNDTRIP
360
2EF
  0
DICTIONARY
  5
2F2
330
3E
100
AcDbDictionary
280
     1
281
     1
  3
ACAD_XREC_ROUNDTRIP
360
2F3
  0
DICTIONARY
  5
2D6
330
2F
100
AcDbDictionary
280
     1
281
     1
  3
ACAD_XREC_ROUNDTRIP
360
2D7
  0
DICTIONARY
  5
2DA
330
31
100
AcDbDictionary
280
     1
281
     1
  3
ACAD_XREC_ROUNDTRIP
360
2DB
  0
DICTIONARY
  5
2D8
330
30
100
AcDbDictionary
280
     1
281
     1
  3
ACAD_XREC_ROUNDTRIP
360
2D9
  0
DICTIONARY
  5
2DC
330
32
100
AcDbDictionary
280
     1
281
     1
  3
ACAD_XREC_ROUNDTRIP
360
2DD
  0
DICTIONARY
  5
2E4
330
36
100
AcDbDictionary
280
     1
281
     1
  3
ACAD_XREC_ROUNDTRIP
360
2E5
  0
DICTIONARY
  5
2EC
330
3A
100
AcDbDictionary
280
     1
281
     1
  3
ACAD_XREC_ROUNDTRIP
360
2ED
  0
DICTIONARY
  5
2E0
330
34
100
AcDbDictionary
280
     1
281
     1
  3
ACAD_XREC_ROUNDTRIP
360
2E1
  0
DICTIONARY
  5
2E2
330
35
100
AcDbDictionary
280
     1
281
     1
  3
ACAD_XREC_ROUNDTRIP
360
2E3
  0
DICTIONARY
  5
2EA
330
39
100
AcDbDictionary
280
     1
281
     1
  3
ACAD_XREC_ROUNDTRIP
360
2EB
  0
DICTIONARY
  5
2CE
330
2B
100
AcDbDictionary
280
     1
281
     1
  3
ACAD_XREC_ROUNDTRIP
360
2CF
  0
DICTIONARY
  5
2D0
330
2C
100
AcDbDictionary
280
     1
281
     1
  3
ACAD_XREC_ROUNDTRIP
360
2D1
  0
DICTIONARY
  5
2D2
330
2D
100
AcDbDictionary
280
     1
281
     1
  3
ACAD_XREC_ROUNDTRIP
360
2D3
  0
DICTIONARY
  5
2D4
330
2E
100
AcDbDictionary
280
     1
281
     1
  3
ACAD_XREC_ROUNDTRIP
360
2D5
  0
DICTIONARY
  5
2E8
330
38
100
AcDbDictionary
280
     1
281
     1
  3
ACAD_XREC_ROUNDTRIP
360
2E9
  0
DICTIONARY
  5
2DE
330
33
100
AcDbDictionary
280
     1
281
     1
  3
ACAD_XREC_ROUNDTRIP
360
2DF
  0
DICTIONARY
  5
2E6
330
37
100
AcDbDictionary
280
     1
281
     1
  3
ACAD_XREC_ROUNDTRIP
360
2E7
  0
XRECORD
  5
2F1
102
{ACAD_REACTORS
330
2F0
102
}
330
2F0
100
AcDbXrecord
280
     1
102
MATERIAL
148
0.0
149
0.0
149
0.0
 93
        0
 94
      127
282
     0
 72
     1
 77
     1
171
     1
175
     1
179
     1
273
     0
  0
XRECORD
  5
2EF
102
{ACAD_REACTORS
330
2EE
102
}
330
2EE
100
AcDbXrecord
280
     1
102
MATERIAL
148
0.0
149
0.0
149
0.0
 93
        0
 94
      127
282
     0
 72
     1
 77
     1
171
     1
175
     1
179
     1
273
     0
  0
XRECORD
  5
2F3
102
{ACAD_REACTORS
330
2F2
102
}
330
2F2
100
AcDbXrecord
280
     1
102
MATERIAL
148
0.0
149
0.0
149
0.0
 93
        0
 94
      127
282
     0
 72
     1
 77
     1
171
     1
175
     1
179
     1
273
     0
  0
XRECORD
  5
2D7
102
{ACAD_REACTORS
330
2D6
102
}
330
2D6
100
AcDbXrecord
280
     1
102
RTVSPropertyOp0
 70
     1
102
RTVSPropertyOp1
 70
     1
102
RTVSPropertyOp2
 70
     1
102
RTVSPropertyOp3
 70
     1
102
RTVSPropertyOp4
 70
     1
102
RTVSPropertyOp5
 70
     1
102
RTVSPropertyOp6
 70
     1
102
RTVSPropertyOp7
 70
     1
102
RTVSPropertyOp8
 70
     1
102
RTVSPropertyOp9
 70
     1
102
RTVSPropertyOp10
 70
     1
102
RTVSPropertyOp11
 70
     1
102
RTVSPropertyOp12
 70
     1
102
RTVSPropertyOp13
 70
     1
102
RTVSPropertyOp14
 70
     1
102
RTVSPropertyOp15
 70
     1
102
RTVSPropertyOp16
 70
     1
102
RTVSPropertyOp17
 70
     1
102
RTVSPropertyOp18
 70
     1
102
RTVSPropertyOp19
 70
     1
102
RTVSPropertyOp20
 70
     1
102
RTVSPropertyOp21
 70
     1
102
RTVSPropertyOp22
 70
     1
102
RTVSPropertyOp23
 70
     1
102
RTVSPropertyOp24
 70
     1
102
RTVSPropertyOp25
 70
     1
102
RTVSPropertyOp26
 70
     1
102
RTVSPropertyOp27
 70
     1
  0
XRECORD
  5
2DB
102
{ACAD_REACTORS
330
2DA
102
}
330
2DA
100
AcDbXrecord
280
     1
102
RTVSPropertyOp0
 70
     1
102
RTVSPropertyOp1
 70
     1
102
RTVSPropertyOp2
 70
     1
102
RTVSPropertyOp3
 70
     1
102
RTVSPropertyOp4
 70
     1
102
RTVSPropertyOp5
 70
     1
102
RTVSPropertyOp6
 70
     1
102
RTVSPropertyOp7
 70
     1
102
RTVSPropertyOp8
 70
     1
102
RTVSPropertyOp9
 70
     1
102
RTVSPropertyOp10
 70
     1
102
RTVSPropertyOp11
 70
     1
102
RTVSPropertyOp12
 70
     1
102
RTVSPropertyOp13
 70
     1
102
RTVSPropertyOp14
 70
     1
102
RTVSPropertyOp15
 70
     1
102
RTVSPropertyOp16
 70
     1
102
RTVSPropertyOp17
 70
     1
102
RTVSPropertyOp18
 70
     1
102
RTVSPropertyOp19
 70
     1
102
RTVSPropertyOp20
 70
     1
102
RTVSPropertyOp21
 70
     1
102
RTVSPropertyOp22
 70
     1
102
RTVSPropertyOp23
 70
     1
102
RTVSPropertyOp24
 70
     1
102
RTVSPropertyOp25
 70
     1
102
RTVSPropertyOp26
 70
     1
102
RTVSPropertyOp27
 70
     1
  0
XRECORD
  5
2D9
102
{ACAD_REACTORS
330
2D8
102
}
330
2D8
100
AcDbXrecord
280
     1
102
RTVSPropertyOp0
 70
     1
102
RTVSPropertyOp1
 70
     1
102
RTVSPropertyOp2
 70
     1
102
RTVSPropertyOp3
 70
     1
102
RTVSPropertyOp4
 70
     1
102
RTVSPropertyOp5
 70
     1
102
RTVSPropertyOp6
 70
     1
102
RTVSPropertyOp7
 70
     1
102
RTVSPropertyOp8
 70
     1
102
RTVSPropertyOp9
 70
     1
102
RTVSPropertyOp10
 70
     1
102
RTVSPropertyOp11
 70
     1
102
RTVSPropertyOp12
 70
     1
102
RTVSPropertyOp13
 70
     1
102
RTVSPropertyOp14
 70
     1
102
RTVSPropertyOp15
 70
     1
102
RTVSPropertyOp16
 70
     1
102
RTVSPropertyOp17
 70
     1
102
RTVSPropertyOp18
 70
     1
102
RTVSPropertyOp19
 70
     1
102
RTVSPropertyOp20
 70
     1
102
RTVSPropertyOp21
 70
     1
102
RTVSPropertyOp22
 70
     1
102
RTVSPropertyOp23
 70
     1
102
RTVSPropertyOp24
 70
     1
102
RTVSPropertyOp25
 70
     1
102
RTVSPropertyOp26
 70
     1
102
RTVSPropertyOp27
 70
     1
  0
XRECORD
  5
2DD
102
{ACAD_REACTORS
330
2DC
102
}
330
2DC
100
AcDbXrecord
280
     1
102
RTVSPropertyOp0
 70
     1
102
RTVSPropertyOp1
 70
     1
102
RTVSPropertyOp2
 70
     1
102
RTVSPropertyOp3
 70
     1
102
RTVSPropertyOp4
 70
     1
102
RTVSPropertyOp5
 70
     1
102
RTVSPropertyOp6
 70
     1
102
RTVSPropertyOp7
 70
     1
102
RTVSPropertyOp8
 70
     1
102
RTVSPropertyOp9
 70
     1
102
RTVSPropertyOp10
 70
     1
102
RTVSPropertyOp11
 70
     1
102
RTVSPropertyOp12
 70
     1
102
RTVSPropertyOp13
 70
     1
102
RTVSPropertyOp14
 70
     1
102
RTVSPropertyOp15
 70
     1
102
RTVSPropertyOp16
 70
     1
102
RTVSPropertyOp17
 70
     1
102
RTVSPropertyOp18
 70
     1
102
RTVSPropertyOp19
 70
     1
102
RTVSPropertyOp20
 70
     1
102
RTVSPropertyOp21
 70
     1
102
RTVSPropertyOp22
 70
     1
102
RTVSPropertyOp23
 70
     1
102
RTVSPropertyOp24
 70
     1
102
RTVSPropertyOp25
 70
     1
102
RTVSPropertyOp26
 70
     1
102
RTVSPropertyOp27
 70
     1
  0
XRECORD
  5
2E5
102
{ACAD_REACTORS
330
2E4
102
}
330
2E4
100
AcDbXrecord
280
     1
102
RTVSPropertyOp0
 70
     1
102
RTVSPropertyOp1
 70
     1
102
RTVSPropertyOp2
 70
     1
102
RTVSPropertyOp3
 70
     1
102
RTVSPropertyOp4
 70
     1
102
RTVSPropertyOp5
 70
     1
102
RTVSPropertyOp6
 70
     1
102
RTVSPropertyOp7
 70
     1
102
RTVSPropertyOp8
 70
     1
102
RTVSPropertyOp9
 70
     1
102
RTVSPropertyOp10
 70
     1
102
RTVSPropertyOp11
 70
     1
102
RTVSPropertyOp12
 70
     1
102
RTVSPropertyOp13
 70
     1
102
RTVSPropertyOp14
 70
     1
102
RTVSPropertyOp15
 70
     1
102
RTVSPropertyOp16
 70
     1
102
RTVSPropertyOp17
 70
     1
102
RTVSPropertyOp18
 70
     1
102
RTVSPropertyOp19
 70
     1
102
RTVSPropertyOp20
 70
     1
102
RTVSPropertyOp21
 70
     1
102
RTVSPropertyOp22
 70
     1
102
RTVSPropertyOp23
 70
     1
102
RTVSPropertyOp24
 70
     1
102
RTVSPropertyOp25
 70
     1
102
RTVSPropertyOp26
 70
     1
102
RTVSPropertyOp27
 70
     1
  0
XRECORD
  5
2ED
102
{ACAD_REACTORS
330
2EC
102
}
330
2EC
100
AcDbXrecord
280
     1
102
RTVSPropertyOp0
 70
     1
102
RTVSPropertyOp1
 70
     1
102
RTVSPropertyOp2
 70
     1
102
RTVSPropertyOp3
 70
     1
102
RTVSPropertyOp4
 70
     1
102
RTVSPropertyOp5
 70
     1
102
RTVSPropertyOp6
 70
     1
102
RTVSPropertyOp7
 70
     1
102
RTVSPropertyOp8
 70
     1
102
RTVSPropertyOp9
 70
     1
102
RTVSPropertyOp10
 70
     1
102
RTVSPropertyOp11
 70
     1
102
RTVSPropertyOp12
 70
     1
102
RTVSPropertyOp13
 70
     1
102
RTVSPropertyOp14
 70
     1
102
RTVSPropertyOp15
 70
     1
102
RTVSPropertyOp16
 70
     1
102
RTVSPropertyOp17
 70
     1
102
RTVSPropertyOp18
 70
     1
102
RTVSPropertyOp19
 70
     1
102
RTVSPropertyOp20
 70
     1
102
RTVSPropertyOp21
 70
     1
102
RTVSPropertyOp22
 70
     1
102
RTVSPropertyOp23
 70
     1
102
RTVSPropertyOp24
 70
     1
102
RTVSPropertyOp25
 70
     1
102
RTVSPropertyOp26
 70
     1
102
RTVSPropertyOp27
 70
     1
  0
XRECORD
  5
2E1
102
{ACAD_REACTORS
330
2E0
102
}
330
2E0
100
AcDbXrecord
280
     1
102
RTVSPropertyOp0
 70
     1
102
RTVSPropertyOp1
 70
     1
102
RTVSPropertyOp2
 70
     1
102
RTVSPropertyOp3
 70
     1
102
RTVSPropertyOp4
 70
     1
102
RTVSPropertyOp5
 70
     1
102
RTVSPropertyOp6
 70
     1
102
RTVSPropertyOp7
 70
     1
102
RTVSPropertyOp8
 70
     1
102
RTVSPropertyOp9
 70
     1
102
RTVSPropertyOp10
 70
     1
102
RTVSPropertyOp11
 70
     1
102
RTVSPropertyOp12
 70
     1
102
RTVSPropertyOp13
 70
     1
102
RTVSPropertyOp14
 70
     1
102
RTVSPropertyOp15
 70
     1
102
RTVSPropertyOp16
 70
     1
102
RTVSPropertyOp17
 70
     1
102
RTVSPropertyOp18
 70
     1
102
RTVSPropertyOp19
 70
     1
102
RTVSPropertyOp20
 70
     1
102
RTVSPropertyOp21
 70
     1
102
RTVSPropertyOp22
 70
     1
102
RTVSPropertyOp23
 70
     1
102
RTVSPropertyOp24
 70
     1
102
RTVSPropertyOp25
 70
     1
102
RTVSPropertyOp26
 70
     1
102
RTVSPropertyOp27
 70
     1
  0
XRECORD
  5
2E3
102
{ACAD_REACTORS
330
2E2
102
}
330
2E2
100
AcDbXrecord
280
     1
102
RTVSPropertyOp0
 70
     1
102
RTVSPropertyOp1
 70
     1
102
RTVSPropertyOp2
 70
     1
102
RTVSPropertyOp3
 70
     1
102
RTVSPropertyOp4
 70
     1
102
RTVSPropertyOp5
 70
     1
102
RTVSPropertyOp6
 70
     1
102
RTVSPropertyOp7
 70
     1
102
RTVSPropertyOp8
 70
     1
102
RTVSPropertyOp9
 70
     1
102
RTVSPropertyOp10
 70
     1
102
RTVSPropertyOp11
 70
     1
102
RTVSPropertyOp12
 70
     1
102
RTVSPropertyOp13
 70
     1
102
RTVSPropertyOp14
 70
     1
102
RTVSPropertyOp15
 70
     1
102
RTVSPropertyOp16
 70
     1
102
RTVSPropertyOp17
 70
     1
102
RTVSPropertyOp18
 70
     1
102
RTVSPropertyOp19
 70
     1
102
RTVSPropertyOp20
 70
     1
102
RTVSPropertyOp21
 70
     1
102
RTVSPropertyOp22
 70
     1
102
RTVSPropertyOp23
 70
     1
102
RTVSPropertyOp24
 70
     1
102
RTVSPropertyOp25
 70
     1
102
RTVSPropertyOp26
 70
     1
102
RTVSPropertyOp27
 70
     1
  0
XRECORD
  5
2EB
102
{ACAD_REACTORS
330
2EA
102
}
330
2EA
100
AcDbXrecord
280
     1
102
RTVSPropertyOp0
 70
     1
102
RTVSPropertyOp1
 70
     1
102
RTVSPropertyOp2
 70
     1
102
RTVSPropertyOp3
 70
     1
102
RTVSPropertyOp4
 70
     1
102
RTVSPropertyOp5
 70
     1
102
RTVSPropertyOp6
 70
     1
102
RTVSPropertyOp7
 70
     1
102
RTVSPropertyOp8
 70
     1
102
RTVSPropertyOp9
 70
     1
102
RTVSPropertyOp10
 70
     1
102
RTVSPropertyOp11
 70
     1
102
RTVSPropertyOp12
 70
     1
102
RTVSPropertyOp13
 70
     1
102
RTVSPropertyOp14
 70
     1
102
RTVSPropertyOp15
 70
     1
102
RTVSPropertyOp16
 70
     1
102
RTVSPropertyOp17
 70
     1
102
RTVSPropertyOp18
 70
     1
102
RTVSPropertyOp19
 70
     1
102
RTVSPropertyOp20
 70
     1
102
RTVSPropertyOp21
 70
     1
102
RTVSPropertyOp22
 70
     1
102
RTVSPropertyOp23
 70
     1
102
RTVSPropertyOp24
 70
     1
102
RTVSPropertyOp25
 70
     1
102
RTVSPropertyOp26
 70
     1
102
RTVSPropertyOp27
 70
     1
  0
XRECORD
  5
2CF
102
{ACAD_REACTORS
330
2CE
102
}
330
2CE
100
AcDbXrecord
280
     1
102
RTVSPropertyOp0
 70
     1
102
RTVSPropertyOp1
 70
     1
102
RTVSPropertyOp2
 70
     1
102
RTVSPropertyOp3
 70
     1
102
RTVSPropertyOp4
 70
     1
102
RTVSPropertyOp5
 70
     1
102
RTVSPropertyOp6
 70
     1
102
RTVSPropertyOp7
 70
     1
102
RTVSPropertyOp8
 70
     1
102
RTVSPropertyOp9
 70
     1
102
RTVSPropertyOp10
 70
     1
102
RTVSPropertyOp11
 70
     1
102
RTVSPropertyOp12
 70
     1
102
RTVSPropertyOp13
 70
     1
102
RTVSPropertyOp14
 70
     1
102
RTVSPropertyOp15
 70
     1
102
RTVSPropertyOp16
 70
     1
102
RTVSPropertyOp17
 70
     1
102
RTVSPropertyOp18
 70
     1
102
RTVSPropertyOp19
 70
     1
102
RTVSPropertyOp20
 70
     1
102
RTVSPropertyOp21
 70
     1
102
RTVSPropertyOp22
 70
     1
102
RTVSPropertyOp23
 70
     1
102
RTVSPropertyOp24
 70
     1
102
RTVSPropertyOp25
 70
     1
102
RTVSPropertyOp26
 70
     1
102
RTVSPropertyOp27
 70
     1
  0
XRECORD
  5
2D1
102
{ACAD_REACTORS
330
2D0
102
}
330
2D0
100
AcDbXrecord
280
     1
102
RTVSPropertyOp0
 70
     1
102
RTVSPropertyOp1
 70
     1
102
RTVSPropertyOp2
 70
     1
102
RTVSPropertyOp3
 70
     1
102
RTVSPropertyOp4
 70
     1
102
RTVSPropertyOp5
 70
     1
102
RTVSPropertyOp6
 70
     1
102
RTVSPropertyOp7
 70
     1
102
RTVSPropertyOp8
 70
     1
102
RTVSPropertyOp9
 70
     1
102
RTVSPropertyOp10
 70
     1
102
RTVSPropertyOp11
 70
     1
102
RTVSPropertyOp12
 70
     1
102
RTVSPropertyOp13
 70
     1
102
RTVSPropertyOp14
 70
     1
102
RTVSPropertyOp15
 70
     1
102
RTVSPropertyOp16
 70
     1
102
RTVSPropertyOp17
 70
     1
102
RTVSPropertyOp18
 70
     1
102
RTVSPropertyOp19
 70
     1
102
RTVSPropertyOp20
 70
     1
102
RTVSPropertyOp21
 70
     1
102
RTVSPropertyOp22
 70
     1
102
RTVSPropertyOp23
 70
     1
102
RTVSPropertyOp24
 70
     1
102
RTVSPropertyOp25
 70
     1
102
RTVSPropertyOp26
 70
     1
102
RTVSPropertyOp27
 70
     1
  0
XRECORD
  5
2D3
102
{ACAD_REACTORS
330
2D2
102
}
330
2D2
100
AcDbXrecord
280
     1
102
RTVSPropertyOp0
 70
     1
102
RTVSPropertyOp1
 70
     1
102
RTVSPropertyOp2
 70
     1
102
RTVSPropertyOp3
 70
     1
102
RTVSPropertyOp4
 70
     1
102
RTVSPropertyOp5
 70
     1
102
RTVSPropertyOp6
 70
     1
102
RTVSPropertyOp7
 70
     1
102
RTVSPropertyOp8
 70
     1
102
RTVSPropertyOp9
 70
     1
102
RTVSPropertyOp10
 70
     1
102
RTVSPropertyOp11
 70
     1
102
RTVSPropertyOp12
 70
     1
102
RTVSPropertyOp13
 70
     1
102
RTVSPropertyOp14
 70
     1
102
RTVSPropertyOp15
 70
     1
102
RTVSPropertyOp16
 70
     1
102
RTVSPropertyOp17
 70
     1
102
RTVSPropertyOp18
 70
     1
102
RTVSPropertyOp19
 70
     1
102
RTVSPropertyOp20
 70
     1
102
RTVSPropertyOp21
 70
     1
102
RTVSPropertyOp22
 70
     1
102
RTVSPropertyOp23
 70
     1
102
RTVSPropertyOp24
 70
     1
102
RTVSPropertyOp25
 70
     1
102
RTVSPropertyOp26
 70
     1
102
RTVSPropertyOp27
 70
     1
  0
XRECORD
  5
2D5
102
{ACAD_REACTORS
330
2D4
102
}
330
2D4
100
AcDbXrecord
280
     1
102
RTVSPropertyOp0
 70
     1
102
RTVSPropertyOp1
 70
     1
102
RTVSPropertyOp2
 70
     1
102
RTVSPropertyOp3
 70
     1
102
RTVSPropertyOp4
 70
     1
102
RTVSPropertyOp5
 70
     1
102
RTVSPropertyOp6
 70
     1
102
RTVSPropertyOp7
 70
     1
102
RTVSPropertyOp8
 70
     1
102
RTVSPropertyOp9
 70
     1
102
RTVSPropertyOp10
 70
     1
102
RTVSPropertyOp11
 70
     1
102
RTVSPropertyOp12
 70
     1
102
RTVSPropertyOp13
 70
     1
102
RTVSPropertyOp14
 70
     1
102
RTVSPropertyOp15
 70
     1
102
RTVSPropertyOp16
 70
     1
102
RTVSPropertyOp17
 70
     1
102
RTVSPropertyOp18
 70
     1
102
RTVSPropertyOp19
 70
     1
102
RTVSPropertyOp20
 70
     1
102
RTVSPropertyOp21
 70
     1
102
RTVSPropertyOp22
 70
     1
102
RTVSPropertyOp23
 70
     1
102
RTVSPropertyOp24
 70
     1
102
RTVSPropertyOp25
 70
     1
102
RTVSPropertyOp26
 70
     1
102
RTVSPropertyOp27
 70
     1
  0
XRECORD
  5
2E9
102
{ACAD_REACTORS
330
2E8
102
}
330
2E8
100
AcDbXrecord
280
     1
102
RTVSPropertyOp0
 70
     1
102
RTVSPropertyOp1
 70
     1
102
RTVSPropertyOp2
 70
     1
102
RTVSPropertyOp3
 70
     1
102
RTVSPropertyOp4
 70
     1
102
RTVSPropertyOp5
 70
     1
102
RTVSPropertyOp6
 70
     1
102
RTVSPropertyOp7
 70
     1
102
RTVSPropertyOp8
 70
     1
102
RTVSPropertyOp9
 70
     1
102
RTVSPropertyOp10
 70
     1
102
RTVSPropertyOp11
 70
     1
102
RTVSPropertyOp12
 70
     1
102
RTVSPropertyOp13
 70
     1
102
RTVSPropertyOp14
 70
     1
102
RTVSPropertyOp15
 70
     1
102
RTVSPropertyOp16
 70
     1
102
RTVSPropertyOp17
 70
     1
102
RTVSPropertyOp18
 70
     1
102
RTVSPropertyOp19
 70
     1
102
RTVSPropertyOp20
 70
     1
102
RTVSPropertyOp21
 70
     1
102
RTVSPropertyOp22
 70
     1
102
RTVSPropertyOp23
 70
     1
102
RTVSPropertyOp24
 70
     1
102
RTVSPropertyOp25
 70
     1
102
RTVSPropertyOp26
 70
     1
102
RTVSPropertyOp27
 70
     1
  0
XRECORD
  5
2DF
102
{ACAD_REACTORS
330
2DE
102
}
330
2DE
100
AcDbXrecord
280
     1
102
RTVSPropertyOp0
 70
     1
102
RTVSPropertyOp1
 70
     1
102
RTVSPropertyOp2
 70
     1
102
RTVSPropertyOp3
 70
     1
102
RTVSPropertyOp4
 70
     1
102
RTVSPropertyOp5
 70
     1
102
RTVSPropertyOp6
 70
     1
102
RTVSPropertyOp7
 70
     1
102
RTVSPropertyOp8
 70
     1
102
RTVSPropertyOp9
 70
     1
102
RTVSPropertyOp10
 70
     1
102
RTVSPropertyOp11
 70
     1
102
RTVSPropertyOp12
 70
     1
102
RTVSPropertyOp13
 70
     1
102
RTVSPropertyOp14
 70
     1
102
RTVSPropertyOp15
 70
     1
102
RTVSPropertyOp16
 70
     1
102
RTVSPropertyOp17
 70
     1
102
RTVSPropertyOp18
 70
     1
102
RTVSPropertyOp19
 70
     1
102
RTVSPropertyOp20
 70
     1
102
RTVSPropertyOp21
 70
     1
102
RTVSPropertyOp22
 70
     1
102
RTVSPropertyOp23
 70
     1
102
RTVSPropertyOp24
 70
     1
102
RTVSPropertyOp25
 70
     1
102
RTVSPropertyOp26
 70
     1
102
RTVSPropertyOp27
 70
     1
  0
XRECORD
  5
2E7
102
{ACAD_REACTORS
330
2E6
102
}
330
2E6
100
AcDbXrecord
280
     1
102
RTVSPropertyOp0
 70
     1
102
RTVSPropertyOp1
 70
     1
102
RTVSPropertyOp2
 70
     1
102
RTVSPropertyOp3
 70
     1
102
RTVSPropertyOp4
 70
     1
102
RTVSPropertyOp5
 70
     1
102
RTVSPropertyOp6
 70
     1
102
RTVSPropertyOp7
 70
     1
102
RTVSPropertyOp8
 70
     1
102
RTVSPropertyOp9
 70
     1
102
RTVSPropertyOp10
 70
     1
102
RTVSPropertyOp11
 70
     1
102
RTVSPropertyOp12
 70
     1
102
RTVSPropertyOp13
 70
     1
102
RTVSPropertyOp14
 70
     1
102
RTVSPropertyOp15
 70
     1
102
RTVSPropertyOp16
 70
     1
102
RTVSPropertyOp17
 70
     1
102
RTVSPropertyOp18
 70
     1
102
RTVSPropertyOp19
 70
     1
102
RTVSPropertyOp20
 70
     1
102
RTVSPropertyOp21
 70
     1
102
RTVSPropertyOp22
 70
     1
102
RTVSPropertyOp23
 70
     1
102
RTVSPropertyOp24
 70
     1
102
RTVSPropertyOp25
 70
     1
102
RTVSPropertyOp26
 70
     1
102
RTVSPropertyOp27
 70
     1
  0
ENDSEC
  0
EOF
