  0
SECTION
  2
HEADER
  9
$ACADVER
  1
AC1006
  9
$INSBASE
 10
0.000000
 20
0.000000
 30
0.0
  9
$EXTMIN
 10
0.000000
 20
0.000000
  9
$EXTMAX
 10
420.000000
 20
297.000000
  9
$LIMMIN
 10
0.000000
 20
0.000000
  9
$LIMMAX
 10
420.000000
 20
297.000000
  9
$VIEWCTR
 10
210.000000
 20
148.500000
  9
$VIEWSIZE
 40
297.000000
  9
$SNAPMODE
 70
     0
  9
$SNAPUNIT
 10
1.0
 20
1.0
  9
$SNAPBASE
 10
0.0
 20
0.0
  9
$SNAPANG
 50
0.0
  9
$SNAPSTYLE
 70
     0
  9
$SNAPISOPAIR
 70
     0
  9
$GRIDMODE
 70
     0
  9
$GRIDUNIT
 10
0.0
 20
0.0
  9
$ORTHOMODE
 70
     0
  9
$REGENMODE
 70
     1
  9
$FILLMODE
 70
     1
  9
$QTEXTMODE
 70
     0
  9
$DRAGMODE
 70
     2
  9
$LTSCALE
 40
15.000000
  9
$OSMODE
 70
     0
  9
$ATTMODE
 70
     1
  9
$TEXTSIZE
 40
0.2
  9
$TRACEWID
 40
0.05
  9
$TEXTSTYLE
  7
STANDARD
  9
$CLAYER
  8
CSLAYER1
  9
$CELTYPE
  6
BYLAYER
  9
$CECOLOR
 62
   256
  9
$DIMSCALE
 40
1.0
  9
$DIMASZ
 40
0.18
  9
$DIMEXO
 40
0.0625
  9
$DIMDLI
 40
0.38
  9
$DIMRND
 40
0.0
  9
$DIMDLE
 40
0.0
  9
$DIMEXE
 40
0.18
  9
$DIMTP
 40
0.0
  9
$DIMTM
 40
0.0
  9
$DIMTXT
 40
0.18
  9
$DIMCEN
 40
0.09
  9
$DIMTSZ
 40
0.0
  9
$DIMTOL
 70
     0
  9
$DIMLIM
 70
     0
  9
$DIMTIH
 70
     1
  9
$DIMTOH
 70
     1
  9
$DIMSE1
 70
     0
  9
$DIMSE2
 70
     0
  9
$DIMTAD
 70
     0
  9
$DIMZIN
 70
     0
  9
$DIMBLK
  1

  9
$LUNITS
 70
     2
  9
$LUPREC
 70
     4
  9
$AXISMODE
 70
     0
  9
$AXISUNIT
 10
0.0
 20
0.0
  9
$SKETCHINC
 40
0.1
  9
$FILLETRAD
 40
0.0
  9
$AUNITS
 70
     0
  9
$AUPREC
 70
     0
  9
$MENU
  1
ACAD
  9
$ELEVATION
 40
0.0
  9
$THICKNESS
 40
0.0
  9
$VIEWDIR
 10
0.0
 20
0.0
 30
1.0
  9
$LIMCHECK
 70
     0
  9
$BLIPMODE
 70
     1
  9
$CHAMFERA
 40
0.0
  9
$CHAMFERB
 40
0.0
  9
$FASTZOOM
 70
     1
  9
$SKPOLY
 70
     0
  9
$TDCREATE
 40
0.000000
  9
$TDUPDATE
 40
0.000000
  9
$TDINDWG
 40
0.0
  9
$TDUSRTIMER
 40
0.0
  9
$USRTIMER
 70
     1
  9
$ANGBASE
 50
0.0
  9
$ANGDIR
 70
     0
  9
$PDMODE
 70
     0
  9
$PDSIZE
 40
0.0
  9
$PLINEWID
 40
0.0
  9
$COORDS
 70
     0
  9
$USERI1
 70
     0
  9
$USERI2
 70
     0
  9
$USERI3
 70
     0
  9
$USERI4
 70
     0
  9
$USERI5
 70
     0
  9
$USERR1
 40
0.0
  9
$USERR2
 40
0.0
  9
$USERR3
 40
0.0
  9
$USERR4
 40
0.0
  9
$USERR5
 40
0.0
  0
ENDSEC
  0
SECTION
  2
TABLES
  0
TABLE
  2
LTYPE
 70
     9
  0
LTYPE
  2
CONTINUOUS
 70
    64
  3
Solid line
 72
    65
 73
     0
 40
0.0
  0
LTYPE
  2
DASHED
 70
    64
  3
__ __ __ __ __ __ __ __ __ __ __ __ __ __ __
 72
    65
 73
     2
 40
0.75
 49
0.5
 49
-0.25
  0
LTYPE
  2
HIDDEN
 70
    64
  3
_ _ _ _ _ _ _ _ _ _ _ _ _ _ _ _ _ _ _ _ _ _ _
 72
    65
 73
     2
 40
0.375
 49
0.25
 49
-0.125
  0
LTYPE
  2
DOT
 70
    64
  3
...............................................
 72
    65
 73
     2
 40
0.25
 49
0.0
 49
-0.25
  0
LTYPE
  2
DASHDOT
 70
    64
  3
__ . __ . __ . __ . __ . __ . __ . __ . __ . __
 72
    65
 73
     4
 40
1.0
 49
0.5
 49
-0.25
 49
0.0
 49
-0.25
  0
LTYPE
  2
DIVIDE
 70
    64
  3
__ . . __ . . __ . . __ . . __ . . __ . . __
 72
    65
 73
     6
 40
1.25
 49
0.5
 49
-0.25
 49
0.0
 49
-0.25
 49
0.0
 49
-0.25
  0
LTYPE
  2
CENTER
 70
    64
  3
____ _ ____ _ ____ _ ____ _ ____ _ ____ _ ____ 
 72
    65
 73
     4
 40
2.0
 49
1.25
 49
-0.25
 49
0.25
 49
-0.25
  0
LTYPE
  2
PHANTOM
 70
    64
  3
______  __  __  ______  __  __  ______  __  __ 
 72
    65
 73
     6
 40
2.5
 49
1.25
 49
-0.25
 49
0.25
 49
-0.25
 49
0.25
 49
-0.25
  0
LTYPE
  2
BORDER
 70
    64
  3
__ __ . __ __ . __ __ . __ __ . __ __ . __ __ .
 72
    65
 73
     6
 40
1.75
 49
0.5
 49
-0.25
 49
0.5
 49
-0.25
 49
0.0
 49
-0.25
  0
ENDTAB
  0
TABLE
  2
LAYER
 70
    16
  0
LAYER
  2
CSLAYER1
 70
    64
 62
     7
  6
CONTINUOUS
  0
LAYER
  2
CSLAYER2
 70
    64
 62
     7
  6
CONTINUOUS
  0
LAYER
  2
CSLAYER3
 70
    64
 62
     7
  6
CONTINUOUS
  0
LAYER
  2
CSLAYER4
 70
    64
 62
     7
  6
CONTINUOUS
  0
LAYER
  2
CSLAYER5
 70
    64
 62
     7
  6
CONTINUOUS
  0
LAYER
  2
CSLAYER6
 70
    64
 62
     7
  6
CONTINUOUS
  0
LAYER
  2
CSLAYER7
 70
    64
 62
     7
  6
CONTINUOUS
  0
LAYER
  2
CSLAYER8
 70
    64
 62
     7
  6
CONTINUOUS
  0
LAYER
  2
CSLAYER9
 70
    64
 62
     7
  6
CONTINUOUS
  0
LAYER
  2
CSLAYER10
 70
    64
 62
     7
  6
CONTINUOUS
  0
LAYER
  2
CSLAYER11
 70
    64
 62
     7
  6
CONTINUOUS
  0
LAYER
  2
CSLAYER12
 70
    64
 62
     7
  6
CONTINUOUS
  0
LAYER
  2
CSLAYER13
 70
    64
 62
     7
  6
CONTINUOUS
  0
LAYER
  2
CSLAYER14
 70
    64
 62
     7
  6
CONTINUOUS
  0
LAYER
  2
CSLAYER15
 70
    64
 62
     7
  6
CONTINUOUS
  0
LAYER
  2
CSLAYER16
 70
    64
 62
     7
  6
CONTINUOUS
  0
ENDTAB
  0
TABLE
  2
STYLE
 70
     1
  0
STYLE
  2
JX_FONT
 70
     0
 40
1.0
 41
1.0
 50
0.0
 71
     0
 42
1.0
  3
monotxt
  4
bigfont
  0
ENDTAB
  0
TABLE
  2
VIEW
 70
     0
  0
ENDTAB
  0
ENDSEC
  0
SECTION
  2
BLOCKS
  0
ENDSEC
  0
SECTION
  2
ENTITIES
  0
LINE
  8
CSLAYER1
  6
CENTER
 62
     3
 10
136.048782
 20
143.881157
 11
309.963925
 21
143.881157
  0
LINE
  8
CSLAYER1
  6
CONTINUOUS
 62
     6
 10
142.937194
 20
166.781188
 11
143.096214
 21
167.056614
  0
LINE
  8
CSLAYER1
  6
CONTINUOUS
 62
     6
 10
143.096214
 20
167.056614
 11
145.163890
 21
167.056614
  0
LINE
  8
CSLAYER1
  6
CONTINUOUS
 62
     6
 10
145.163890
 20
126.782783
 11
145.163890
 21
142.242805
  0
LINE
  8
CSLAYER1
  6
CENTER
 62
     3
 10
151.563888
 20
138.881157
 11
151.563888
 21
148.881157
  0
ARC
  8
CSLAYER1
  6
CONTINUOUS
 62
     6
 10
151.563888
 20
144.651161
 40
0.770004
 50
-89.999999
 51
90.000019
  0
ARC
  8
CSLAYER1
  6
CONTINUOUS
 62
     6
 10
151.563888
 20
143.111152
 40
0.770004
 50
-90.000027
 51
89.999992
  0
LINE
  8
CSLAYER1
  6
CONTINUOUS
 62
     6
 10
152.333908
 20
144.651161
 11
152.333908
 21
143.111152
  0
ARC
  8
CSLAYER1
  6
CONTINUOUS
 62
     6
 10
142.721904
 20
154.912346
 40
11.031171
 50
242.536193
 51
269.942682
  0
ARC
  8
CSLAYER1
  6
CONTINUOUS
 62
     6
 10
142.721904
 20
154.912346
 40
9.491183
 50
242.536193
 51
269.942682
  0
LINE
  8
CSLAYER1
  6
CONTINUOUS
 62
     6
 10
138.105453
 20
146.030464
 11
136.048782
 21
147.162483
  0
LINE
  8
CSLAYER1
  6
CONTINUOUS
 62
     6
 10
138.344711
 20
146.490806
 11
137.634445
 21
145.124367
  0
ARC
  8
CSLAYER1
  6
CONTINUOUS
 62
     6
 10
145.427291
 20
145.036155
 40
0.770004
 50
149.999997
 51
209.999999
  0
ARC
  8
CSLAYER1
  6
CONTINUOUS
 62
     6
 10
145.427291
 20
144.266136
 40
0.770004
 50
149.999997
 51
209.999999
  0
ARC
  8
CSLAYER1
  6
CONTINUOUS
 62
     6
 10
144.093605
 20
144.266136
 40
0.770004
 50
-30.000011
 51
29.999977
  0
ARC
  8
CSLAYER1
  6
CONTINUOUS
 62
     6
 10
142.721904
 20
132.849968
 40
9.491183
 50
89.999975
 51
117.463872
  0
LINE
  8
CSLAYER1
  6
CONTINUOUS
 62
     6
 10
138.105422
 20
141.731849
 11
136.048782
 21
140.599815
  0
LINE
  8
CSLAYER1
  6
CONTINUOUS
 62
     6
 10
138.344680
 20
141.271507
 11
137.634445
 21
142.637947
  0
ARC
  8
CSLAYER1
  6
CONTINUOUS
 62
     6
 10
142.721904
 20
132.849968
 40
11.031171
 50
90.000003
 51
117.463872
  0
ARC
  8
CSLAYER1
  6
CONTINUOUS
 62
     6
 10
145.427291
 20
143.496147
 40
0.770004
 50
149.999997
 51
209.999999
  0
ARC
  8
CSLAYER1
  6
CONTINUOUS
 62
     6
 10
145.427291
 20
142.726127
 40
0.770004
 50
149.999997
 51
209.999999
  0
ARC
  8
CSLAYER1
  6
CONTINUOUS
 62
     6
 10
144.093605
 20
142.726127
 40
0.770004
 50
-30.000011
 51
29.999977
  0
ARC
  8
CSLAYER1
  6
CONTINUOUS
 62
     6
 10
142.946334
 20
144.266166
 40
0.769999
 50
-29.999656
 51
30.000332
  0
ARC
  8
CSLAYER1
  6
CONTINUOUS
 62
     6
 10
142.946331
 20
145.036171
 40
0.769999
 50
-29.999656
 51
30.000332
  0
ARC
  8
CSLAYER1
  6
CONTINUOUS
 62
     6
 10
144.280006
 20
145.036186
 40
0.769999
 50
150.000353
 51
210.000354
  0
ARC
  8
CSLAYER1
  6
CONTINUOUS
 62
     6
 10
142.946334
 20
142.726158
 40
0.769999
 50
-29.999656
 51
30.000332
  0
ARC
  8
CSLAYER1
  6
CONTINUOUS
 62
     6
 10
142.946331
 20
143.496162
 40
0.769999
 50
-29.999656
 51
30.000332
  0
ARC
  8
CSLAYER1
  6
CONTINUOUS
 62
     6
 10
144.280006
 20
143.496177
 40
0.769999
 50
150.000353
 51
210.000354
  0
LINE
  8
CSLAYER1
  6
CONTINUOUS
 62
     6
 10
142.721904
 20
145.421165
 11
143.613170
 21
145.421165
  0
LINE
  8
CSLAYER1
  6
CONTINUOUS
 62
     6
 10
142.721904
 20
143.881141
 11
143.613170
 21
143.881141
  0
LINE
  8
CSLAYER1
  6
CONTINUOUS
 62
     6
 10
142.721935
 20
142.341163
 11
143.613170
 21
142.341163
  0
LINE
  8
CSLAYER1
  6
CONTINUOUS
 62
     6
 10
137.927536
 20
145.688225
 11
136.522323
 21
146.791969
  0
LINE
  8
CSLAYER1
  6
CONTINUOUS
 62
     6
 10
137.782669
 20
145.409538
 11
136.326827
 21
146.390571
  0
LINE
  8
CSLAYER1
  6
CONTINUOUS
 62
     6
 10
137.927536
 20
142.074089
 11
136.522323
 21
140.970344
  0
LINE
  8
CSLAYER1
  6
CONTINUOUS
 62
     6
 10
137.782669
 20
142.352775
 11
136.326797
 21
141.371727
  0
LINE
  8
CSLAYER1
  6
CONTINUOUS
 62
     6
 10
151.563888
 20
143.881157
 11
144.760448
 21
143.881157
  0
LINE
  8
CSLAYER1
  6
CONTINUOUS
 62
     6
 10
151.563888
 20
145.421150
 11
144.760448
 21
145.421150
  0
LINE
  8
CSLAYER1
  6
CONTINUOUS
 62
     6
 10
151.563888
 20
142.341163
 11
144.760448
 21
142.341163
  0
LINE
  8
CSLAYER1
  6
CONTINUOUS
 62
     6
 10
161.263894
 20
126.782783
 11
161.263894
 21
167.381164
  0
LINE
  8
CSLAYER1
  6
CONTINUOUS
 62
     6
 10
163.263894
 20
126.782783
 11
163.263894
 21
167.381149
  0
LINE
  8
CSLAYER1
  6
CONTINUOUS
 62
     6
 10
169.263894
 20
167.381149
 11
169.263894
 21
120.381165
  0
LINE
  8
CSLAYER1
  6
CONTINUOUS
 62
     6
 10
145.163890
 20
167.381149
 11
147.163921
 21
167.381149
  0
LINE
  8
CSLAYER1
  6
CONTINUOUS
 62
     6
 10
161.263894
 20
167.381164
 11
163.263894
 21
167.381164
  0
LINE
  8
CSLAYER1
  6
CONTINUOUS
 62
     6
 10
169.263894
 20
167.381149
 11
172.463894
 21
167.381149
  0
LINE
  8
CSLAYER1
  6
CONTINUOUS
 62
     6
 10
147.163890
 20
160.381157
 11
161.263864
 21
160.381157
  0
LINE
  8
CSLAYER1
  6
CONTINUOUS
 62
     6
 10
147.163921
 20
127.782814
 11
161.263894
 21
127.782814
  0
LINE
  8
CSLAYER1
  6
CONTINUOUS
 62
     6
 10
169.263894
 20
120.381165
 11
172.463894
 21
120.381165
  0
LINE
  8
CSLAYER1
  6
CENTER
 62
     3
 10
138.805892
 20
133.881157
 11
174.404690
 21
133.881157
  0
LINE
  8
CSLAYER1
  6
CENTER
 62
     3
 10
164.446713
 20
123.881157
 11
174.279202
 21
123.881157
  0
LINE
  8
CSLAYER1
  6
CENTER
 62
     3
 10
164.570973
 20
153.881150
 11
174.279202
 21
153.881150
  0
LINE
  8
CSLAYER1
  6
CONTINUOUS
 62
     6
 10
145.163890
 20
126.782783
 11
147.163890
 21
126.782783
  0
LINE
  8
CSLAYER1
  6
CONTINUOUS
 62
     6
 10
161.263894
 20
126.782783
 11
163.263894
 21
126.782783
  0
LINE
  8
CSLAYER1
  6
CONTINUOUS
 62
     6
 10
163.263894
 20
165.881157
 11
169.263894
 21
165.881157
  0
LINE
  8
CSLAYER1
  6
CONTINUOUS
 62
     6
 10
161.263894
 20
165.881157
 11
147.163890
 21
165.881157
  0
LINE
  8
CSLAYER1
  6
CONTINUOUS
 62
     6
 10
140.463890
 20
162.381157
 11
140.463890
 21
165.381157
  0
LINE
  8
CSLAYER1
  6
CONTINUOUS
 62
     6
 10
140.963890
 20
165.881157
 11
141.863890
 21
165.881157
  0
LINE
  8
CSLAYER1
  6
CONTINUOUS
 62
     3
 10
140.563890
 20
165.481157
 11
141.863890
 21
165.481157
  0
LINE
  8
CSLAYER1
  6
CONTINUOUS
 62
     6
 10
140.463890
 20
165.381157
 11
140.963890
 21
165.881157
  0
LINE
  8
CSLAYER1
  6
CONTINUOUS
 62
     6
 10
163.263896
 20
161.881157
 11
169.263896
 21
161.881157
  0
LINE
  8
CSLAYER1
  6
CONTINUOUS
 62
     6
 10
161.263894
 20
161.881157
 11
147.163890
 21
161.881157
  0
LINE
  8
CSLAYER1
  6
CENTER
 62
     3
 10
148.484996
 20
166.381157
 11
149.506403
 21
161.381157
  0
LINE
  8
CSLAYER1
  6
CENTER
 62
     3
 10
149.484996
 20
166.381157
 11
150.506403
 21
161.381157
  0
LINE
  8
CSLAYER1
  6
CENTER
 62
     3
 10
150.484996
 20
166.381157
 11
151.506407
 21
161.381157
  0
LINE
  8
CSLAYER1
  6
CENTER
 62
     3
 10
147.957341
 20
161.381157
 11
147.917224
 21
166.381157
  0
LINE
  8
CSLAYER1
  6
CENTER
 62
     3
 10
164.454590
 20
166.381157
 11
165.475999
 21
161.381157
  0
LINE
  8
CSLAYER1
  6
CENTER
 62
     3
 10
165.454590
 20
166.381157
 11
166.475999
 21
161.381157
  0
LINE
  8
CSLAYER1
  6
CENTER
 62
     3
 10
166.454590
 20
166.381157
 11
167.475999
 21
161.381157
  0
LINE
  8
CSLAYER1
  6
CENTER
 62
     3
 10
163.926944
 20
161.381157
 11
163.886826
 21
166.381157
  0
LINE
  8
CSLAYER1
  6
CONTINUOUS
 62
     6
 10
145.163890
 20
167.381149
 11
145.163890
 21
145.322792
  0
LINE
  8
CSLAYER1
  6
CONTINUOUS
 62
     6
 10
147.163890
 20
145.322792
 11
147.163890
 21
167.381149
  0
LINE
  8
CSLAYER1
  6
CONTINUOUS
 62
     6
 10
147.163890
 20
142.242820
 11
147.163890
 21
126.782783
  0
LINE
  8
CSLAYER1
  6
CONTINUOUS
 62
     6
 10
168.063912
 20
121.081184
 11
168.063912
 21
126.681160
  0
ARC
  8
CSLAYER1
  6
CONTINUOUS
 62
     6
 10
173.063912
 20
123.881172
 40
7.000000
 50
163.742994
 51
196.257016
  0
LINE
  8
CSLAYER1
  6
CONTINUOUS
 62
     6
 10
167.846444
 20
126.612144
 11
167.216622
 21
126.557045
  0
ARC
  8
CSLAYER1
  6
CONTINUOUS
 62
     6
 10
167.303781
 20
125.560844
 40
1.000000
 50
95.000111
 51
163.742611
  0
ARC
  8
CSLAYER1
  6
CONTINUOUS
 62
     6
 10
167.863900
 20
126.412910
 40
0.200000
 50
0.000000
 51
95.000152
  0
LINE
  8
CSLAYER1
  6
CONTINUOUS
 62
     6
 10
168.163888
 20
126.781166
 11
168.663888
 21
126.781166
  0
ARC
  8
CSLAYER1
  6
CONTINUOUS
 62
     6
 10
168.163888
 20
126.681160
 40
0.100000
 50
90.000003
 51
180.000005
  0
ARC
  8
CSLAYER1
  6
CONTINUOUS
 62
     6
 10
168.663888
 20
126.681160
 40
0.100000
 50
0.000000
 51
90.000003
  0
LINE
  8
CSLAYER1
  6
CONTINUOUS
 62
     6
 10
167.846444
 20
121.150200
 11
167.216622
 21
121.205299
  0
ARC
  8
CSLAYER1
  6
CONTINUOUS
 62
     6
 10
167.303781
 20
122.201500
 40
1.000000
 50
196.257399
 51
264.999892
  0
ARC
  8
CSLAYER1
  6
CONTINUOUS
 62
     6
 10
167.863900
 20
121.349434
 40
0.200000
 50
264.999865
 51
359.942691
  0
ARC
  8
CSLAYER1
  6
CONTINUOUS
 62
     6
 10
168.163888
 20
121.081184
 40
0.100000
 50
180.000005
 51
270.000001
  0
LINE
  8
CSLAYER1
  6
CONTINUOUS
 62
     6
 10
168.163888
 20
120.981178
 11
168.663888
 21
120.981178
  0
ARC
  8
CSLAYER1
  6
CONTINUOUS
 62
     6
 10
168.663888
 20
121.081184
 40
0.100000
 50
270.000001
 51
359.942691
  0
LINE
  8
CSLAYER1
  6
CONTINUOUS
 62
     6
 10
168.063912
 20
123.285240
 11
168.763894
 21
123.729103
  0
LINE
  8
CSLAYER1
  6
CONTINUOUS
 62
     6
 10
168.063912
 20
123.785240
 11
168.763894
 21
124.229103
  0
LINE
  8
CSLAYER1
  6
CONTINUOUS
 62
     6
 10
168.763894
 20
150.631150
 11
169.263894
 21
150.631150
  0
LINE
  8
CSLAYER1
  6
CONTINUOUS
 62
     6
 10
168.763894
 20
157.131150
 11
169.263894
 21
157.131150
  0
LINE
  8
CSLAYER1
  6
CONTINUOUS
 62
     6
 10
168.763894
 20
157.131150
 11
168.763894
 21
150.631150
  0
LINE
  8
CSLAYER1
  6
CONTINUOUS
 62
     6
 10
168.763894
 20
120.631157
 11
169.263894
 21
120.631157
  0
LINE
  8
CSLAYER1
  6
CONTINUOUS
 62
     6
 10
168.763894
 20
127.131157
 11
169.263894
 21
127.131157
  0
LINE
  8
CSLAYER1
  6
CONTINUOUS
 62
     6
 10
168.763894
 20
127.131157
 11
168.763894
 21
120.631157
  0
LINE
  8
CSLAYER1
  6
CONTINUOUS
 62
     6
 10
203.463894
 20
174.881187
 11
203.463894
 21
112.881172
  0
LINE
  8
CSLAYER1
  6
CONTINUOUS
 62
     6
 10
270.463894
 20
174.881187
 11
203.463894
 21
174.881187
  0
LINE
  8
CSLAYER1
  6
CONTINUOUS
 62
     6
 10
270.463894
 20
112.881172
 11
203.463894
 21
112.881172
  0
LINE
  8
CSLAYER1
  6
CENTER
 62
     3
 10
192.463894
 20
132.881157
 11
192.463894
 21
154.881157
  0
LINE
  8
CSLAYER1
  6
CONTINUOUS
 62
     6
 10
192.463894
 20
143.881157
 11
187.030422
 21
143.881157
  0
LINE
  8
CSLAYER1
  6
CONTINUOUS
 62
     6
 10
192.463894
 20
146.081154
 11
187.030422
 21
146.081154
  0
ARC
  8
CSLAYER1
  6
CONTINUOUS
 62
     6
 10
184.118191
 20
159.640007
 40
15.758816
 50
242.536193
 51
269.942682
  0
ARC
  8
CSLAYER1
  6
CONTINUOUS
 62
     6
 10
184.118191
 20
159.640007
 40
13.558834
 50
242.536193
 51
269.942682
  0
LINE
  8
CSLAYER1
  6
CONTINUOUS
 62
     6
 10
177.523281
 20
146.951607
 11
174.585171
 21
148.568763
  0
LINE
  8
CSLAYER1
  6
CONTINUOUS
 62
     6
 10
177.865078
 20
147.609230
 11
176.850430
 21
145.657173
  0
ARC
  8
CSLAYER1
  6
CONTINUOUS
 62
     6
 10
187.983059
 20
145.531151
 40
1.100006
 50
149.999997
 51
209.999999
  0
ARC
  8
CSLAYER1
  6
CONTINUOUS
 62
     6
 10
187.983059
 20
144.431144
 40
1.100006
 50
149.999997
 51
209.999999
  0
ARC
  8
CSLAYER1
  6
CONTINUOUS
 62
     6
 10
186.077786
 20
144.431144
 40
1.100006
 50
-30.000011
 51
29.999977
  0
ARC
  8
CSLAYER1
  6
CONTINUOUS
 62
     6
 10
184.118191
 20
128.122307
 40
13.558834
 50
89.999975
 51
117.463872
  0
LINE
  8
CSLAYER1
  6
CONTINUOUS
 62
     6
 10
177.523220
 20
140.810707
 11
174.585171
 21
139.193535
  0
LINE
  8
CSLAYER1
  6
CONTINUOUS
 62
     6
 10
177.865017
 20
140.153084
 11
176.850430
 21
142.105140
  0
ARC
  8
CSLAYER1
  6
CONTINUOUS
 62
     6
 10
184.118222
 20
128.122322
 40
15.758816
 50
90.000003
 51
117.463872
  0
ARC
  8
CSLAYER1
  6
CONTINUOUS
 62
     6
 10
187.983059
 20
143.331138
 40
1.100006
 50
149.999997
 51
209.999999
  0
ARC
  8
CSLAYER1
  6
CONTINUOUS
 62
     6
 10
187.983059
 20
142.231132
 40
1.100006
 50
149.999997
 51
209.999999
  0
ARC
  8
CSLAYER1
  6
CONTINUOUS
 62
     6
 10
186.077786
 20
142.231132
 40
1.100006
 50
-30.000011
 51
29.999977
  0
ARC
  8
CSLAYER1
  6
CONTINUOUS
 62
     6
 10
192.463894
 20
144.981163
 40
1.100006
 50
-89.999999
 51
90.000019
  0
ARC
  8
CSLAYER1
  6
CONTINUOUS
 62
     6
 10
192.463894
 20
142.781151
 40
1.100006
 50
-90.000027
 51
89.999992
  0
LINE
  8
CSLAYER1
  6
CONTINUOUS
 62
     6
 10
192.463894
 20
141.681160
 11
187.030422
 21
141.681160
  0
LINE
  8
CSLAYER1
  6
CONTINUOUS
 62
     6
 10
193.563931
 20
144.981163
 11
193.563931
 21
142.781151
  0
ARC
  8
CSLAYER1
  6
CONTINUOUS
 62
     6
 10
184.438824
 20
144.431190
 40
1.099999
 50
-29.999656
 51
30.000332
  0
ARC
  8
CSLAYER1
  6
CONTINUOUS
 62
     6
 10
184.438816
 20
145.531181
 40
1.099999
 50
-29.999656
 51
30.000332
  0
ARC
  8
CSLAYER1
  6
CONTINUOUS
 62
     6
 10
186.344067
 20
145.531196
 40
1.099999
 50
150.000353
 51
210.000354
  0
ARC
  8
CSLAYER1
  6
CONTINUOUS
 62
     6
 10
184.438824
 20
142.231178
 40
1.099999
 50
-29.999656
 51
30.000332
  0
ARC
  8
CSLAYER1
  6
CONTINUOUS
 62
     6
 10
184.438816
 20
143.331169
 40
1.099999
 50
-29.999656
 51
30.000332
  0
ARC
  8
CSLAYER1
  6
CONTINUOUS
 62
     6
 10
186.344067
 20
143.331184
 40
1.099999
 50
150.000353
 51
210.000354
  0
LINE
  8
CSLAYER1
  6
CONTINUOUS
 62
     6
 10
184.118252
 20
146.081169
 11
185.391445
 21
146.081169
  0
LINE
  8
CSLAYER1
  6
CONTINUOUS
 62
     6
 10
184.118222
 20
143.881141
 11
185.391445
 21
143.881141
  0
LINE
  8
CSLAYER1
  6
CONTINUOUS
 62
     6
 10
184.118252
 20
141.681175
 11
185.391445
 21
141.681175
  0
ARC
  8
CSLAYER1
  6
CONTINUOUS
 62
     6
 10
192.463894
 20
143.881157
 40
8.000000
 50
-164.038116
 51
164.037904
  0
LINE
  8
CSLAYER1
  6
CONTINUOUS
 62
     6
 10
177.269131
 20
146.462684
 11
175.261685
 21
148.039467
  0
LINE
  8
CSLAYER1
  6
CONTINUOUS
 62
     6
 10
177.062161
 20
146.064552
 11
174.982388
 21
147.466041
  0
LINE
  8
CSLAYER1
  6
CONTINUOUS
 62
     6
 10
177.269131
 20
141.299629
 11
175.261685
 21
139.722847
  0
LINE
  8
CSLAYER1
  6
CONTINUOUS
 62
     6
 10
177.062161
 20
141.697761
 11
174.982327
 21
140.296257
  0
LINE
  8
CSLAYER1
  6
DASHED
 62
     3
 10
218.963894
 20
117.034376
 11
254.963894
 21
117.034376
  0
ARC
  8
CSLAYER1
  6
DASHED
 62
     3
 10
218.963894
 20
118.034376
 40
1.000000
 50
180.000005
 51
270.000001
  0
ARC
  8
CSLAYER1
  6
DASHED
 62
     3
 10
254.963894
 20
118.034376
 40
1.000000
 50
270.000001
 51
359.942691
  0
LINE
  8
CSLAYER1
  6
DASHED
 62
     3
 10
217.963894
 20
169.727944
 11
217.963894
 21
118.034376
  0
LINE
  8
CSLAYER1
  6
DASHED
 62
     3
 10
255.963894
 20
169.727944
 11
255.963894
 21
118.034376
  0
TEXT
  8
CSLAYER1
 62
     3
 10
235.742798
 20
149.379547
 40
3.500000
 41
1.125000
  1
N P
 50
-90.000000
 51
10.000000
  7
JX_FONT
 72
     5
 11
235.742798
 21
138.879547
  0
LINE
  8
CSLAYER1
  6
DASHED
 62
     3
 10
218.963894
 20
170.727944
 11
254.963894
 21
170.727944
  0
ARC
  8
CSLAYER1
  6
DASHED
 62
     3
 10
218.963894
 20
169.727944
 40
1.000000
 50
90.000009
 51
180.000005
  0
ARC
  8
CSLAYER1
  6
DASHED
 62
     3
 10
254.963894
 20
169.727944
 40
1.000000
 50
0.057319
 51
90.000009
  0
LINE
  8
CSLAYER1
  6
CENTER
 62
     3
 10
138.805868
 20
237.881172
 11
309.963925
 21
237.881172
  0
LINE
  8
CSLAYER1
  6
CENTER
 62
     3
 10
192.463900
 20
250.881172
 11
192.463900
 21
186.598276
  0
LINE
  8
CSLAYER1
  6
CONTINUOUS
 62
     3
 10
218.963917
 20
253.381141
 11
254.963894
 21
253.381141
  0
LINE
  8
CSLAYER1
  6
CONTINUOUS
 62
     3
 10
217.963917
 20
268.881172
 11
217.963917
 21
254.381141
  0
ARC
  8
CSLAYER1
  6
CONTINUOUS
 62
     3
 10
218.963917
 20
254.381141
 40
1.000000
 50
180.000019
 51
270.000028
  0
ARC
  8
CSLAYER1
  6
CONTINUOUS
 62
     3
 10
254.963894
 20
254.381141
 40
1.000000
 50
270.000028
 51
359.942691
  0
LINE
  8
CSLAYER1
  6
CONTINUOUS
 62
     3
 10
255.963894
 20
254.381141
 11
255.963894
 21
268.881172
  0
TEXT
  8
CSLAYER1
 62
     3
 10
234.939133
 20
266.381165
 40
3.500000
 41
1.125000
  1
N P
 50
270.000000
 51
10.000000
  7
JX_FONT
 72
     5
 11
234.939133
 21
255.881165
  0
LINE
  8
CSLAYER1
  6
CONTINUOUS
 62
     6
 10
270.463940
 20
268.881172
 11
203.463908
 21
268.881172
  0
LINE
  8
CSLAYER1
  6
CONTINUOUS
 62
     6
 10
270.463940
 20
206.881172
 11
203.463908
 21
206.881172
  0
LINE
  8
CSLAYER1
  6
CENTER
 62
     3
 10
138.805868
 20
49.881141
 11
309.963925
 21
49.881141
  0
LINE
  8
CSLAYER1
  6
CENTER
 62
     3
 10
192.463900
 20
36.881141
 11
192.463900
 21
101.164037
  0
LINE
  8
CSLAYER1
  6
CONTINUOUS
 62
     3
 10
218.963917
 20
34.381172
 11
254.963894
 21
34.381172
  0
LINE
  8
CSLAYER1
  6
CONTINUOUS
 62
     3
 10
217.963917
 20
18.881141
 11
217.963917
 21
33.381172
  0
ARC
  8
CSLAYER1
  6
CONTINUOUS
 62
     3
 10
218.963917
 20
33.381172
 40
1.000000
 50
89.999972
 51
179.999981
  0
ARC
  8
CSLAYER1
  6
CONTINUOUS
 62
     3
 10
254.963894
 20
33.381172
 40
1.000000
 50
0.057309
 51
89.999972
  0
LINE
  8
CSLAYER1
  6
CONTINUOUS
 62
     3
 10
255.963894
 20
33.381172
 11
255.963894
 21
18.881141
  0
TEXT
  8
CSLAYER1
 62
     3
 10
234.939133
 20
31.881149
 40
3.500000
 41
1.125000
  1
N P
 50
270.000000
 51
10.000000
  7
JX_FONT
 72
     5
 11
234.939133
 21
21.381149
  0
LINE
  8
CSLAYER1
  6
CONTINUOUS
 62
     6
 10
270.463940
 20
18.881141
 11
203.463908
 21
18.881141
  0
LINE
  8
CSLAYER1
  6
CONTINUOUS
 62
     6
 10
270.463940
 20
80.881141
 11
203.463908
 21
80.881141
  0
LINE
  8
CSLAYER1
  6
CENTER
 62
     3
 10
174.463908
 20
67.201683
 11
138.463901
 21
67.201683
  0
LINE
  8
CSLAYER1
  6
CENTER
 62
     3
 10
138.463901
 20
32.560653
 11
174.463908
 21
32.560653
  0
LINE
  8
CSLAYER1
  6
CONTINUOUS
 62
     6
 10
145.163890
 20
27.046241
 11
145.163890
 21
72.716072
  0
LINE
  8
CSLAYER1
  6
CONTINUOUS
 62
     6
 10
145.163898
 20
72.716072
 11
147.163898
 21
72.716072
  0
LINE
  8
CSLAYER1
  6
CONTINUOUS
 62
     6
 10
147.163890
 20
72.716072
 11
147.163890
 21
27.046241
  0
LINE
  8
CSLAYER1
  6
CONTINUOUS
 62
     6
 10
145.163898
 20
27.046241
 11
147.163898
 21
27.046241
  0
LINE
  8
CSLAYER1
  6
CONTINUOUS
 62
     6
 10
169.263896
 20
73.381134
 11
169.263896
 21
26.381164
  0
LINE
  8
CSLAYER1
  6
CONTINUOUS
 62
     6
 10
169.263896
 20
26.381164
 11
172.463908
 21
26.381164
  0
LINE
  8
CSLAYER1
  6
CONTINUOUS
 62
     6
 10
161.263904
 20
27.046241
 11
161.263904
 21
72.716072
  0
LINE
  8
CSLAYER1
  6
CONTINUOUS
 62
     6
 10
161.263904
 20
72.716072
 11
163.263896
 21
72.716072
  0
LINE
  8
CSLAYER1
  6
CONTINUOUS
 62
     6
 10
163.263896
 20
72.716072
 11
163.263896
 21
27.046241
  0
LINE
  8
CSLAYER1
  6
CONTINUOUS
 62
     6
 10
163.263896
 20
27.046241
 11
161.263904
 21
27.046241
  0
LINE
  8
CSLAYER1
  6
CONTINUOUS
 62
     6
 10
172.463908
 20
73.381134
 11
169.263896
 21
73.381134
  0
ARC
  8
CSLAYER1
  6
CONTINUOUS
 62
     6
 10
141.402721
 20
78.389209
 40
11.031171
 50
0.057296
 51
27.463815
  0
ARC
  8
CSLAYER1
  6
CONTINUOUS
 62
     6
 10
141.402721
 20
78.389209
 40
9.491183
 50
0.057296
 51
27.463815
  0
LINE
  8
CSLAYER1
  6
CONTINUOUS
 62
     6
 10
150.284602
 20
83.005664
 11
149.152583
 21
85.062336
  0
LINE
  8
CSLAYER1
  6
CONTINUOUS
 62
     6
 10
149.824260
 20
82.766407
 11
151.190700
 21
83.476642
  0
ARC
  8
CSLAYER1
  6
CONTINUOUS
 62
     6
 10
151.278919
 20
75.683823
 40
0.770004
 50
60.000019
 51
120.000019
  0
ARC
  8
CSLAYER1
  6
CONTINUOUS
 62
     6
 10
152.048923
 20
75.683823
 40
0.770004
 50
60.000019
 51
120.000019
  0
ARC
  8
CSLAYER1
  6
CONTINUOUS
 62
     6
 10
152.048922
 20
77.017509
 40
0.770004
 50
240.000019
 51
300.000019
  0
ARC
  8
CSLAYER1
  6
CONTINUOUS
 62
     6
 10
152.048893
 20
78.164780
 40
0.769999
 50
239.999638
 51
299.999638
  0
ARC
  8
CSLAYER1
  6
CONTINUOUS
 62
     6
 10
151.278894
 20
78.164785
 40
0.769999
 50
239.999638
 51
299.999638
  0
ARC
  8
CSLAYER1
  6
CONTINUOUS
 62
     6
 10
151.278886
 20
76.831108
 40
0.769999
 50
59.999638
 51
119.999638
  0
LINE
  8
CSLAYER1
  6
CONTINUOUS
 62
     6
 10
150.893901
 20
78.389209
 11
150.893901
 21
77.497944
  0
LINE
  8
CSLAYER1
  6
CONTINUOUS
 62
     6
 10
152.433925
 20
78.389209
 11
152.433925
 21
77.497944
  0
LINE
  8
CSLAYER1
  6
CONTINUOUS
 62
     6
 10
150.626842
 20
83.183582
 11
149.523097
 21
84.588764
  0
LINE
  8
CSLAYER1
  6
CONTINUOUS
 62
     6
 10
150.905528
 20
83.328449
 11
149.924495
 21
84.784290
  0
LINE
  8
CSLAYER1
  6
CONTINUOUS
 62
     6
 10
152.433910
 20
69.701683
 11
152.433910
 21
76.350666
  0
LINE
  8
CSLAYER1
  6
CONTINUOUS
 62
     6
 10
150.893916
 20
69.701683
 11
150.893916
 21
76.350666
  0
ARC
  8
CSLAYER1
  6
CONTINUOUS
 62
     6
 10
161.925075
 20
78.400287
 40
9.491183
 50
152.536108
 51
180.000037
  0
LINE
  8
CSLAYER1
  6
CONTINUOUS
 62
     6
 10
153.043193
 20
83.016773
 11
154.175227
 21
85.073414
  0
LINE
  8
CSLAYER1
  6
CONTINUOUS
 62
     6
 10
153.503535
 20
82.777515
 11
152.137096
 21
83.487751
  0
LINE
  8
CSLAYER1
  6
CONTINUOUS
 62
     6
 10
152.700954
 20
83.194660
 11
153.804698
 21
84.599842
  0
LINE
  8
CSLAYER1
  6
CONTINUOUS
 62
     6
 10
152.422267
 20
83.339496
 11
153.403316
 21
84.795398
  0
ARC
  8
CSLAYER1
  6
CONTINUOUS
 62
     6
 10
161.925075
 20
78.400287
 40
11.031171
 50
152.536108
 51
158.496702
  0
LINE
  8
CSLAYER1
  6
CENTER
 62
     3
 10
151.663899
 20
64.481537
 11
151.663887
 21
85.062337
  0
CIRCLE
  8
CSLAYER1
  6
CONTINUOUS
 62
     6
 10
192.463908
 20
49.881139
 40
8.000000
  0
CIRCLE
  8
CSLAYER1
  6
CONTINUOUS
 62
     6
 10
192.463908
 20
49.881139
 40
6.000000
  0
CIRCLE
  8
CSLAYER1
  6
CONTINUOUS
 62
     3
 10
192.463908
 20
49.881139
 40
5.500000
  0
LINE
  8
CSLAYER1
  6
CONTINUOUS
 62
     6
 10
195.213908
 20
49.081136
 11
189.713908
 21
49.081136
  0
LINE
  8
CSLAYER1
  6
CONTINUOUS
 62
     6
 10
195.213908
 20
50.681142
 11
189.713908
 21
50.681142
  0
LINE
  8
CSLAYER1
  6
CONTINUOUS
 62
     6
 10
189.713908
 20
49.081136
 11
189.713908
 21
50.681142
  0
LINE
  8
CSLAYER1
  6
CONTINUOUS
 62
     6
 10
195.213908
 20
49.081136
 11
195.213908
 21
50.681142
  0
ARC
  8
CSLAYER1
  6
CONTINUOUS
 62
     6
 10
177.805064
 20
91.116796
 40
15.758816
 50
0.057309
 51
27.463798
  0
ARC
  8
CSLAYER1
  6
CONTINUOUS
 62
     6
 10
177.805064
 20
91.116796
 40
13.558834
 50
0.057309
 51
27.463798
  0
ARC
  8
CSLAYER1
  6
CONTINUOUS
 62
     6
 10
193.013895
 20
92.069387
 40
1.099999
 50
239.999655
 51
299.999650
  0
ARC
  8
CSLAYER1
  6
CONTINUOUS
 62
     6
 10
191.913897
 20
92.069402
 40
1.099999
 50
239.999655
 51
299.999650
  0
ARC
  8
CSLAYER1
  6
CONTINUOUS
 62
     6
 10
191.913889
 20
90.164144
 40
1.099999
 50
59.999650
 51
119.999638
  0
LINE
  8
CSLAYER1
  6
CONTINUOUS
 62
     6
 10
189.835841
 20
97.369954
 11
191.787897
 21
98.384572
  0
ARC
  8
CSLAYER1
  6
CONTINUOUS
 62
     6
 10
207.122752
 20
91.116796
 40
15.758816
 50
152.536132
 51
158.465966
  0
ARC
  8
CSLAYER1
  6
CONTINUOUS
 62
     6
 10
207.122752
 20
91.116796
 40
13.558834
 50
152.536132
 51
180.000022
  0
LINE
  8
CSLAYER1
  6
CONTINUOUS
 62
     6
 10
195.091975
 20
97.369970
 11
193.139918
 21
98.384587
  0
ARC
  8
CSLAYER1
  6
CONTINUOUS
 62
     6
 10
191.913920
 20
87.251928
 40
1.100006
 50
60.000005
 51
119.999993
  0
ARC
  8
CSLAYER1
  6
CONTINUOUS
 62
     6
 10
193.013926
 20
87.251928
 40
1.100006
 50
60.000005
 51
119.999993
  0
ARC
  8
CSLAYER1
  6
CONTINUOUS
 62
     6
 10
193.013926
 20
89.157201
 40
1.100006
 50
239.999997
 51
299.999998
  0
LINE
  8
CSLAYER1
  6
CONTINUOUS
 62
     6
 10
193.563914
 20
79.709447
 11
193.563914
 21
88.204564
  0
LINE
  8
CSLAYER1
  6
CONTINUOUS
 62
     6
 10
191.363917
 20
79.667821
 11
191.363917
 21
88.204564
  0
LINE
  8
CSLAYER1
  6
CONTINUOUS
 62
     6
 10
194.604868
 20
97.623159
 11
196.222056
 21
100.561208
  0
LINE
  8
CSLAYER1
  6
CONTINUOUS
 62
     6
 10
194.115946
 20
97.877279
 11
195.692728
 21
100.884679
  0
LINE
  8
CSLAYER1
  6
CONTINUOUS
 62
     6
 10
193.717814
 20
98.084218
 11
195.119334
 21
101.164037
  0
LINE
  8
CSLAYER1
  6
CONTINUOUS
 62
     6
 10
190.274851
 20
97.624349
 11
188.657694
 21
100.562429
  0
LINE
  8
CSLAYER1
  6
CONTINUOUS
 62
     6
 10
190.763773
 20
97.878484
 11
189.186991
 21
100.885900
  0
LINE
  8
CSLAYER1
  6
CONTINUOUS
 62
     6
 10
191.161906
 20
98.085439
 11
189.760416
 21
101.165242
  0
LINE
  8
CSLAYER1
  6
CENTER
 62
     3
 10
74.492196
 20
108.881157
 11
74.492196
 21
178.881157
  0
LINE
  8
CSLAYER1
  6
CENTER
 62
     3
 10
115.745545
 20
143.881157
 11
39.492288
 21
143.881157
  0
LINE
  8
CSLAYER1
  6
CONTINUOUS
 62
     6
 10
58.267220
 20
126.881164
 11
90.717171
 21
126.881149
  0
LINE
  8
CSLAYER1
  6
CONTINUOUS
 62
     6
 10
97.327096
 20
138.329895
 11
81.102120
 21
166.432403
  0
LINE
  8
CSLAYER1
  6
CONTINUOUS
 62
     6
 10
67.882271
 20
166.432388
 11
51.657265
 21
138.329895
  0
ARC
  8
CSLAYER1
  6
CONTINUOUS
 62
     6
 10
74.492196
 20
143.881149
 40
23.500000
 50
3.757401
 51
24.385994
  0
ARC
  8
CSLAYER1
  6
CONTINUOUS
 62
     6
 10
74.492196
 20
143.881157
 40
31.000031
 50
3.453765
 51
356.546235
  0
ARC
  8
CSLAYER1
  6
CONTINUOUS
 62
     6
 10
74.492196
 20
143.881157
 40
29.377975
 50
-0.072731
 51
0.072736
  0
ARC
  8
CSLAYER1
  6
CONTINUOUS
 62
     6
 10
74.492196
 20
143.881157
 40
28.377975
 50
3.110809
 51
356.889159
  0
ARC
  8
CSLAYER1
  6
CONTINUOUS
 62
     6
 10
74.492196
 20
143.881157
 40
31.000031
 50
-0.542105
 51
0.542119
  0
LINE
  8
CSLAYER1
  6
CONTINUOUS
 62
     6
 10
161.263906
 20
214.381176
 11
161.263906
 21
261.381145
  0
LINE
  8
CSLAYER1
  6
CONTINUOUS
 62
     6
 10
163.263906
 20
214.381176
 11
163.263906
 21
261.381145
  0
LINE
  8
CSLAYER1
  6
CONTINUOUS
 62
     6
 10
169.263906
 20
261.381145
 11
169.263906
 21
214.381176
  0
LINE
  8
CSLAYER1
  6
CONTINUOUS
 62
     6
 10
145.163875
 20
261.381145
 11
147.163905
 21
261.381145
  0
LINE
  8
CSLAYER1
  6
CONTINUOUS
 62
     6
 10
161.263906
 20
261.381145
 11
163.263906
 21
261.381145
  0
LINE
  8
CSLAYER1
  6
CONTINUOUS
 62
     6
 10
169.263906
 20
261.381145
 11
172.463888
 21
261.381145
  0
LINE
  8
CSLAYER1
  6
CONTINUOUS
 62
     6
 10
147.163890
 20
254.381172
 11
161.263906
 21
254.381172
  0
LINE
  8
CSLAYER1
  6
CONTINUOUS
 62
     6
 10
166.522914
 20
222.560680
 11
163.263906
 21
222.560680
  0
LINE
  8
CSLAYER1
  6
CONTINUOUS
 62
     6
 10
145.163890
 20
214.381145
 11
145.163890
 21
261.381145
  0
LINE
  8
CSLAYER1
  6
CONTINUOUS
 62
     6
 10
147.163890
 20
214.381145
 11
147.163890
 21
261.381145
  0
ARC
  8
CSLAYER1
  6
CONTINUOUS
 62
     6
 10
141.402731
 20
213.039196
 40
11.031171
 50
332.536185
 51
359.942704
  0
ARC
  8
CSLAYER1
  6
CONTINUOUS
 62
     6
 10
141.402731
 20
213.039196
 40
9.491183
 50
332.536185
 51
359.942704
  0
LINE
  8
CSLAYER1
  6
CONTINUOUS
 62
     6
 10
150.284612
 20
208.422741
 11
149.152593
 21
206.366069
  0
LINE
  8
CSLAYER1
  6
CONTINUOUS
 62
     6
 10
149.824270
 20
208.661998
 11
151.190710
 21
207.951763
  0
ARC
  8
CSLAYER1
  6
CONTINUOUS
 62
     6
 10
151.278929
 20
215.744582
 40
0.770004
 50
239.999981
 51
299.999981
  0
ARC
  8
CSLAYER1
  6
CONTINUOUS
 62
     6
 10
152.048933
 20
215.744582
 40
0.770004
 50
239.999981
 51
299.999981
  0
ARC
  8
CSLAYER1
  6
CONTINUOUS
 62
     6
 10
152.048932
 20
214.410896
 40
0.770004
 50
59.999981
 51
119.999981
  0
ARC
  8
CSLAYER1
  6
CONTINUOUS
 62
     6
 10
152.048903
 20
213.263625
 40
0.769999
 50
60.000362
 51
120.000362
  0
ARC
  8
CSLAYER1
  6
CONTINUOUS
 62
     6
 10
151.278904
 20
213.263620
 40
0.769999
 50
60.000362
 51
120.000362
  0
ARC
  8
CSLAYER1
  6
CONTINUOUS
 62
     6
 10
151.278896
 20
214.597297
 40
0.769999
 50
240.000362
 51
300.000362
  0
LINE
  8
CSLAYER1
  6
CONTINUOUS
 62
     6
 10
150.893911
 20
213.039196
 11
150.893911
 21
213.930461
  0
LINE
  8
CSLAYER1
  6
CONTINUOUS
 62
     6
 10
152.433935
 20
213.039196
 11
152.433935
 21
213.930461
  0
LINE
  8
CSLAYER1
  6
CONTINUOUS
 62
     6
 10
150.626852
 20
208.244823
 11
149.523107
 21
206.839641
  0
LINE
  8
CSLAYER1
  6
CONTINUOUS
 62
     6
 10
150.905538
 20
208.099956
 11
149.924505
 21
206.644115
  0
LINE
  8
CSLAYER1
  6
CONTINUOUS
 62
     6
 10
152.433920
 20
220.381172
 11
152.433920
 21
215.077739
  0
LINE
  8
CSLAYER1
  6
CONTINUOUS
 62
     6
 10
150.893926
 20
220.381172
 11
150.893926
 21
215.077739
  0
ARC
  8
CSLAYER1
  6
CONTINUOUS
 62
     6
 10
161.925085
 20
213.028118
 40
9.491183
 50
179.999963
 51
207.463892
  0
LINE
  8
CSLAYER1
  6
CONTINUOUS
 62
     6
 10
153.043203
 20
208.411632
 11
154.175237
 21
206.354991
  0
LINE
  8
CSLAYER1
  6
CONTINUOUS
 62
     6
 10
153.503545
 20
208.650890
 11
152.137106
 21
207.940654
  0
LINE
  8
CSLAYER1
  6
CONTINUOUS
 62
     6
 10
152.700964
 20
208.233745
 11
153.804708
 21
206.828563
  0
LINE
  8
CSLAYER1
  6
CONTINUOUS
 62
     6
 10
152.422277
 20
208.088909
 11
153.403326
 21
206.633007
  0
ARC
  8
CSLAYER1
  6
CONTINUOUS
 62
     6
 10
161.925085
 20
213.028118
 40
11.031171
 50
201.503298
 51
207.463892
  0
LINE
  8
CSLAYER1
  6
CONTINUOUS
 62
     6
 10
161.263906
 20
257.201641
 11
147.163890
 21
257.201641
  0
LINE
  8
CSLAYER1
  6
CENTER
 62
     3
 10
149.248087
 20
254.381172
 11
148.576284
 21
257.748638
  0
LINE
  8
CSLAYER1
  6
CENTER
 62
     3
 10
150.248087
 20
254.381172
 11
149.576284
 21
257.748638
  0
LINE
  8
CSLAYER1
  6
CENTER
 62
     3
 10
151.248092
 20
254.381172
 11
150.576284
 21
257.748638
  0
LINE
  8
CSLAYER1
  6
CENTER
 62
     3
 10
148.043292
 20
254.381172
 11
148.016897
 21
257.748638
  0
LINE
  8
CSLAYER1
  6
CONTINUOUS
 62
     6
 10
166.512039
 20
257.201641
 11
163.263906
 21
257.201641
  0
LINE
  8
CSLAYER1
  6
CONTINUOUS
 62
     6
 10
166.522928
 20
253.201641
 11
163.263906
 21
253.201641
  0
LINE
  8
CSLAYER1
  6
CENTER
 62
     3
 10
165.396241
 20
253.201641
 11
164.445852
 21
257.748607
  0
LINE
  8
CSLAYER1
  6
CENTER
 62
     3
 10
166.396234
 20
253.201641
 11
165.445852
 21
257.748607
  0
LINE
  8
CSLAYER1
  6
CENTER
 62
     3
 10
163.923822
 20
253.201641
 11
163.886465
 21
257.748577
  0
LINE
  8
CSLAYER1
  6
CENTER
 62
     3
 10
138.805868
 20
255.201641
 11
174.279165
 21
255.201641
  0
LINE
  8
CSLAYER1
  6
CONTINUOUS
 62
     6
 10
145.163875
 20
214.381145
 11
147.163905
 21
214.381145
  0
LINE
  8
CSLAYER1
  6
CONTINUOUS
 62
     6
 10
161.263906
 20
214.381176
 11
163.263906
 21
214.381176
  0
LINE
  8
CSLAYER1
  6
CONTINUOUS
 62
     6
 10
169.263906
 20
214.381176
 11
172.463888
 21
214.381176
  0
LINE
  8
CSLAYER1
  6
CONTINUOUS
 62
     6
 10
147.163890
 20
221.381141
 11
161.263906
 21
221.381172
  0
LINE
  8
CSLAYER1
  6
CONTINUOUS
 62
     6
 10
166.512048
 20
218.560680
 11
163.263906
 21
218.560680
  0
LINE
  8
CSLAYER1
  6
CENTER
 62
     3
 10
138.805868
 20
220.560680
 11
174.279165
 21
220.560680
  0
LINE
  8
CSLAYER1
  6
CENTER
 62
     3
 10
148.016897
 20
257.748638
 11
160.801748
 21
257.748638
  0
LINE
  8
CSLAYER1
  6
CONTINUOUS
 62
     6
 10
152.433935
 20
218.560680
 11
161.263906
 21
218.560680
  0
LINE
  8
CSLAYER1
  6
CONTINUOUS
 62
     6
 10
150.893942
 20
218.560680
 11
147.163890
 21
218.560680
  0
LINE
  8
CSLAYER1
  6
CENTER
 62
     3
 10
151.663900
 20
223.530773
 11
151.663900
 21
206.354991
  0
LINE
  8
CSLAYER1
  6
CONTINUOUS
 62
     6
 10
145.163890
 20
231.271221
 11
147.163890
 21
231.271221
  0
LINE
  8
CSLAYER1
  6
CONTINUOUS
 62
     6
 10
145.163890
 20
244.491100
 11
147.163890
 21
244.491100
  0
CIRCLE
  8
CSLAYER1
  6
CONTINUOUS
 62
     6
 10
192.463908
 20
237.881174
 40
8.000000
  0
CIRCLE
  8
CSLAYER1
  6
CONTINUOUS
 62
     6
 10
192.463908
 20
237.881174
 40
6.000000
  0
CIRCLE
  8
CSLAYER1
  6
CONTINUOUS
 62
     3
 10
192.463908
 20
237.881174
 40
5.500000
  0
LINE
  8
CSLAYER1
  6
CONTINUOUS
 62
     6
 10
195.213908
 20
238.681177
 11
189.713908
 21
238.681177
  0
LINE
  8
CSLAYER1
  6
CONTINUOUS
 62
     6
 10
195.213908
 20
237.081171
 11
189.713908
 21
237.081171
  0
LINE
  8
CSLAYER1
  6
CONTINUOUS
 62
     6
 10
189.713908
 20
238.681177
 11
189.713908
 21
237.081171
  0
LINE
  8
CSLAYER1
  6
CONTINUOUS
 62
     6
 10
195.213908
 20
238.681177
 11
195.213908
 21
237.081171
  0
ARC
  8
CSLAYER1
  6
CONTINUOUS
 62
     6
 10
177.805064
 20
196.645518
 40
15.758816
 50
332.536202
 51
359.942691
  0
ARC
  8
CSLAYER1
  6
CONTINUOUS
 62
     6
 10
177.805064
 20
196.645518
 40
13.558834
 50
332.536202
 51
359.942691
  0
ARC
  8
CSLAYER1
  6
CONTINUOUS
 62
     6
 10
193.013895
 20
195.692927
 40
1.099999
 50
60.000350
 51
120.000345
  0
ARC
  8
CSLAYER1
  6
CONTINUOUS
 62
     6
 10
191.913897
 20
195.692911
 40
1.099999
 50
60.000350
 51
120.000345
  0
ARC
  8
CSLAYER1
  6
CONTINUOUS
 62
     6
 10
191.913889
 20
197.598170
 40
1.099999
 50
240.000362
 51
300.000350
  0
LINE
  8
CSLAYER1
  6
CONTINUOUS
 62
     6
 10
189.835841
 20
190.392359
 11
191.787897
 21
189.377741
  0
ARC
  8
CSLAYER1
  6
CONTINUOUS
 62
     6
 10
207.122752
 20
196.645518
 40
15.758816
 50
201.534034
 51
207.463868
  0
ARC
  8
CSLAYER1
  6
CONTINUOUS
 62
     6
 10
207.122752
 20
196.645518
 40
13.558834
 50
179.999978
 51
207.463868
  0
LINE
  8
CSLAYER1
  6
CONTINUOUS
 62
     6
 10
195.091975
 20
190.392344
 11
193.139918
 21
189.377726
  0
ARC
  8
CSLAYER1
  6
CONTINUOUS
 62
     6
 10
191.913920
 20
200.510386
 40
1.100006
 50
240.000007
 51
299.999995
  0
ARC
  8
CSLAYER1
  6
CONTINUOUS
 62
     6
 10
193.013926
 20
200.510386
 40
1.100006
 50
240.000007
 51
299.999995
  0
ARC
  8
CSLAYER1
  6
CONTINUOUS
 62
     6
 10
193.013926
 20
198.605112
 40
1.100006
 50
60.000002
 51
120.000003
  0
LINE
  8
CSLAYER1
  6
CONTINUOUS
 62
     6
 10
193.563914
 20
208.052866
 11
193.563914
 21
199.557749
  0
LINE
  8
CSLAYER1
  6
CONTINUOUS
 62
     6
 10
191.363917
 20
208.094492
 11
191.363917
 21
199.557749
  0
LINE
  8
CSLAYER1
  6
CONTINUOUS
 62
     6
 10
194.604868
 20
190.139155
 11
196.222056
 21
187.201105
  0
LINE
  8
CSLAYER1
  6
CONTINUOUS
 62
     6
 10
194.115946
 20
189.885035
 11
195.692728
 21
186.877634
  0
LINE
  8
CSLAYER1
  6
CONTINUOUS
 62
     6
 10
193.717814
 20
189.678095
 11
195.119334
 21
186.598276
  0
LINE
  8
CSLAYER1
  6
CONTINUOUS
 62
     6
 10
190.274851
 20
190.137965
 11
188.657694
 21
187.199885
  0
LINE
  8
CSLAYER1
  6
CONTINUOUS
 62
     6
 10
190.763773
 20
189.883829
 11
189.186991
 21
186.876414
  0
LINE
  8
CSLAYER1
  6
CONTINUOUS
 62
     6
 10
191.161906
 20
189.676874
 11
189.760416
 21
186.597071
  0
LINE
  8
CSLAYER1
  6
CONTINUOUS
 62
     6
 10
106.492196
 20
143.301718
 11
106.492196
 21
144.460606
  0
CIRCLE
  8
CSLAYER1
  6
CONTINUOUS
 62
     6
 10
74.492196
 20
163.881157
 40
2.000000
  0
CIRCLE
  8
CSLAYER1
  6
CONTINUOUS
 62
     3
 10
74.492196
 20
163.881157
 40
1.600000
  0
LINE
  8
CSLAYER1
  6
CENTER
 62
     3
 10
96.779508
 20
156.748730
 11
86.845909
 21
151.013569
  0
CIRCLE
  8
CSLAYER1
  6
CONTINUOUS
 62
     6
 10
91.812691
 20
153.881149
 40
2.750000
  0
ARC
  8
CSLAYER1
  6
CONTINUOUS
 62
     6
 10
91.812691
 20
153.881149
 40
1.750000
 50
73.398433
 51
106.601567
  0
ARC
  8
CSLAYER1
  6
CONTINUOUS
 62
     6
 10
91.812691
 20
153.881149
 40
1.750000
 50
163.398415
 51
196.601605
  0
ARC
  8
CSLAYER1
  6
CONTINUOUS
 62
     6
 10
91.812691
 20
153.881149
 40
1.750000
 50
253.398453
 51
286.601587
  0
LINE
  8
CSLAYER1
  6
CONTINUOUS
 62
     6
 10
91.312691
 20
152.881149
 11
91.312691
 21
152.204101
  0
LINE
  8
CSLAYER1
  6
CONTINUOUS
 62
     6
 10
91.312691
 20
154.881149
 11
91.312691
 21
155.558197
  0
LINE
  8
CSLAYER1
  6
CONTINUOUS
 62
     6
 10
92.312691
 20
152.881149
 11
92.312691
 21
152.204101
  0
LINE
  8
CSLAYER1
  6
CONTINUOUS
 62
     6
 10
92.312691
 20
154.881149
 11
92.312691
 21
155.558197
  0
LINE
  8
CSLAYER1
  6
CONTINUOUS
 62
     6
 10
90.812691
 20
154.381149
 11
90.135659
 21
154.381149
  0
LINE
  8
CSLAYER1
  6
CONTINUOUS
 62
     6
 10
92.812691
 20
154.381149
 11
93.489754
 21
154.381149
  0
LINE
  8
CSLAYER1
  6
CONTINUOUS
 62
     6
 10
90.812691
 20
153.381149
 11
90.135659
 21
153.381149
  0
LINE
  8
CSLAYER1
  6
CONTINUOUS
 62
     6
 10
92.812691
 20
153.381149
 11
93.489754
 21
153.381149
  0
ARC
  8
CSLAYER1
  6
CONTINUOUS
 62
     6
 10
90.812691
 20
152.881149
 40
0.500000
 50
0.000019
 51
90.000000
  0
ARC
  8
CSLAYER1
  6
CONTINUOUS
 62
     6
 10
92.812691
 20
152.881149
 40
0.500000
 50
90.000000
 51
179.999981
  0
ARC
  8
CSLAYER1
  6
CONTINUOUS
 62
     6
 10
92.812691
 20
154.881149
 40
0.500000
 50
179.999981
 51
270.000020
  0
ARC
  8
CSLAYER1
  6
CONTINUOUS
 62
     6
 10
90.812691
 20
154.881149
 40
0.500000
 50
270.000020
 51
359.942705
  0
ARC
  8
CSLAYER1
  6
CONTINUOUS
 62
     6
 10
91.812691
 20
153.881149
 40
1.750000
 50
-16.601566
 51
16.601568
  0
ARC
  8
CSLAYER1
  6
CONTINUOUS
 62
     6
 10
102.964074
 20
132.849968
 40
11.031171
 50
62.536225
 51
89.942687
  0
ARC
  8
CSLAYER1
  6
CONTINUOUS
 62
     6
 10
102.964074
 20
132.849968
 40
9.491183
 50
62.536225
 51
89.942687
  0
LINE
  8
CSLAYER1
  6
CONTINUOUS
 62
     6
 10
107.580529
 20
141.731849
 11
109.637200
 21
140.599830
  0
LINE
  8
CSLAYER1
  6
CONTINUOUS
 62
     6
 10
107.341271
 20
141.271507
 11
108.051507
 21
142.637947
  0
ARC
  8
CSLAYER1
  6
CONTINUOUS
 62
     6
 10
100.258687
 20
142.726166
 40
0.770004
 50
-30.000019
 51
29.999981
  0
ARC
  8
CSLAYER1
  6
CONTINUOUS
 62
     6
 10
100.258687
 20
143.496170
 40
0.770004
 50
-30.000019
 51
29.999981
  0
ARC
  8
CSLAYER1
  6
CONTINUOUS
 62
     6
 10
101.592373
 20
143.496169
 40
0.770004
 50
149.999981
 51
209.999981
  0
ARC
  8
CSLAYER1
  6
CONTINUOUS
 62
     6
 10
102.964074
 20
154.912346
 40
9.491183
 50
269.999963
 51
297.463892
  0
LINE
  8
CSLAYER1
  6
CONTINUOUS
 62
     6
 10
107.580559
 20
146.030464
 11
109.637200
 21
147.162498
  0
LINE
  8
CSLAYER1
  6
CONTINUOUS
 62
     6
 10
107.341302
 20
146.490806
 11
108.051507
 21
145.124366
  0
ARC
  8
CSLAYER1
  6
CONTINUOUS
 62
     6
 10
102.964043
 20
154.912346
 40
11.031171
 50
270.000020
 51
297.463892
  0
ARC
  8
CSLAYER1
  6
CONTINUOUS
 62
     6
 10
100.258687
 20
144.266174
 40
0.770004
 50
-30.000019
 51
29.999981
  0
ARC
  8
CSLAYER1
  6
CONTINUOUS
 62
     6
 10
100.258687
 20
145.036178
 40
0.770004
 50
-30.000019
 51
29.999981
  0
ARC
  8
CSLAYER1
  6
CONTINUOUS
 62
     6
 10
101.592373
 20
145.036177
 40
0.770004
 50
149.999981
 51
209.999981
  0
ARC
  8
CSLAYER1
  6
CONTINUOUS
 62
     6
 10
102.739645
 20
143.496140
 40
0.769999
 50
150.000345
 51
210.000345
  0
ARC
  8
CSLAYER1
  6
CONTINUOUS
 62
     6
 10
102.739649
 20
142.726141
 40
0.769999
 50
150.000345
 51
210.000345
  0
ARC
  8
CSLAYER1
  6
CONTINUOUS
 62
     6
 10
101.405972
 20
142.726133
 40
0.769999
 50
-29.999655
 51
30.000345
  0
ARC
  8
CSLAYER1
  6
CONTINUOUS
 62
     6
 10
102.739645
 20
145.036149
 40
0.769999
 50
150.000345
 51
210.000345
  0
ARC
  8
CSLAYER1
  6
CONTINUOUS
 62
     6
 10
102.739649
 20
144.266150
 40
0.769999
 50
150.000345
 51
210.000345
  0
ARC
  8
CSLAYER1
  6
CONTINUOUS
 62
     6
 10
101.405972
 20
144.266142
 40
0.769999
 50
-29.999655
 51
30.000345
  0
LINE
  8
CSLAYER1
  6
CONTINUOUS
 62
     6
 10
102.964043
 20
142.341148
 11
102.072808
 21
142.341148
  0
LINE
  8
CSLAYER1
  6
CONTINUOUS
 62
     6
 10
102.964043
 20
143.881172
 11
102.072808
 21
143.881172
  0
LINE
  8
CSLAYER1
  6
CONTINUOUS
 62
     6
 10
102.964043
 20
145.421150
 11
102.072808
 21
145.421150
  0
LINE
  8
CSLAYER1
  6
CONTINUOUS
 62
     6
 10
107.758416
 20
142.074089
 11
109.163628
 21
140.970344
  0
LINE
  8
CSLAYER1
  6
CONTINUOUS
 62
     6
 10
107.903283
 20
142.352775
 11
109.359154
 21
141.371742
  0
LINE
  8
CSLAYER1
  6
CONTINUOUS
 62
     6
 10
107.758416
 20
145.688224
 11
109.163628
 21
146.791969
  0
LINE
  8
CSLAYER1
  6
CONTINUOUS
 62
     6
 10
107.903283
 20
145.409538
 11
109.359185
 21
146.390586
  0
LINE
  8
CSLAYER1
  6
CONTINUOUS
 62
     6
 10
94.122063
 20
143.881157
 11
100.925530
 21
143.881157
  0
LINE
  8
CSLAYER1
  6
CONTINUOUS
 62
     6
 10
95.011193
 20
142.341163
 11
100.925530
 21
142.341163
  0
LINE
  8
CSLAYER1
  6
CONTINUOUS
 62
     6
 10
93.232964
 20
145.421150
 11
100.925530
 21
145.421150
  0
ARC
  8
CSLAYER1
  6
CONTINUOUS
 62
     6
 10
74.492191
 20
143.881151
 40
6.000000
 50
78.557172
 51
101.442967
  0
LINE
  8
CSLAYER1
  6
CONTINUOUS
 62
     6
 10
75.682526
 20
149.761895
 11
80.372935
 21
145.071486
  0
LINE
  8
CSLAYER1
  6
CONTINUOUS
 62
     6
 10
68.611452
 20
145.071480
 11
73.301850
 21
149.761901
  0
LINE
  8
CSLAYER1
  6
CONTINUOUS
 62
     6
 10
73.301855
 20
138.000407
 11
68.611446
 21
142.690816
  0
LINE
  8
CSLAYER1
  6
CONTINUOUS
 62
     6
 10
80.372929
 20
142.690822
 11
75.682531
 21
138.000402
  0
CIRCLE
  8
CSLAYER1
  6
CONTINUOUS
 62
     6
 10
74.492191
 20
143.881151
 40
6.500000
  0
CIRCLE
  8
CSLAYER1
  6
CONTINUOUS
 62
     6
 10
74.492191
 20
143.881151
 40
3.000000
  0
ARC
  8
CSLAYER1
  6
CONTINUOUS
 62
     6
 10
107.146340
 20
128.122291
 40
15.758816
 50
62.536193
 51
89.942682
  0
ARC
  8
CSLAYER1
  6
CONTINUOUS
 62
     6
 10
107.146340
 20
128.122291
 40
13.558834
 50
62.536193
 51
88.289604
  0
LINE
  8
CSLAYER1
  6
CONTINUOUS
 62
     6
 10
113.741250
 20
140.810692
 11
116.679360
 21
139.193535
  0
LINE
  8
CSLAYER1
  6
CONTINUOUS
 62
     6
 10
113.399453
 20
140.153068
 11
114.414102
 21
142.105125
  0
ARC
  8
CSLAYER1
  6
CONTINUOUS
 62
     6
 10
107.146340
 20
159.639992
 40
13.558834
 50
271.710551
 51
297.463872
  0
LINE
  8
CSLAYER1
  6
CONTINUOUS
 62
     6
 10
113.741311
 20
146.951591
 11
116.679360
 21
148.568763
  0
LINE
  8
CSLAYER1
  6
CONTINUOUS
 62
     6
 10
113.399514
 20
147.609215
 11
114.414102
 21
145.657158
  0
ARC
  8
CSLAYER1
  6
CONTINUOUS
 62
     6
 10
107.146310
 20
159.639976
 40
15.758816
 50
270.000003
 51
297.463872
  0
LINE
  8
CSLAYER1
  6
CONTINUOUS
 62
     6
 10
107.146310
 20
143.881157
 11
106.492196
 21
143.881157
  0
LINE
  8
CSLAYER1
  6
CONTINUOUS
 62
     6
 10
113.995401
 20
141.299614
 11
116.002847
 21
139.722831
  0
LINE
  8
CSLAYER1
  6
CONTINUOUS
 62
     6
 10
114.202371
 20
141.697746
 11
116.282144
 21
140.296257
  0
LINE
  8
CSLAYER1
  6
CONTINUOUS
 62
     6
 10
113.995401
 20
146.462669
 11
116.002847
 21
148.039451
  0
LINE
  8
CSLAYER1
  6
CONTINUOUS
 62
     6
 10
114.202371
 20
146.064537
 11
116.282205
 21
147.466041
  0
LINE
  8
CSLAYER1
  6
CONTINUOUS
 62
     6
 10
142.363890
 20
166.631157
 11
142.677369
 21
166.631157
  0
LINE
  8
CSLAYER1
  6
CONTINUOUS
 62
     6
 10
141.863890
 20
166.131157
 11
141.863890
 21
161.631157
  0
ARC
  8
CSLAYER1
  6
CENTER
 62
     3
 10
74.492196
 20
143.881157
 40
20.000000
 50
73.494348
 51
106.505652
  0
LINE
  8
CSLAYER1
  6
CENTER
 62
     3
 10
62.519764
 20
136.968870
 11
51.823612
 21
130.793443
  0
LINE
  8
CSLAYER1
  6
CENTER
 62
     3
 10
86.464628
 20
136.968870
 11
97.160780
 21
130.793443
  0
LINE
  8
CSLAYER1
  6
CONTINUOUS
 62
     6
 10
77.242196
 20
162.293443
 11
77.242196
 21
165.468870
  0
LINE
  8
CSLAYER1
  6
CONTINUOUS
 62
     6
 10
77.242196
 20
165.468870
 11
74.492196
 21
167.056583
  0
LINE
  8
CSLAYER1
  6
CONTINUOUS
 62
     6
 10
74.492196
 20
167.056583
 11
71.742196
 21
165.468870
  0
LINE
  8
CSLAYER1
  6
CONTINUOUS
 62
     6
 10
71.742196
 20
165.468870
 11
71.742196
 21
162.293443
  0
LINE
  8
CSLAYER1
  6
CONTINUOUS
 62
     6
 10
71.742196
 20
162.293443
 11
74.492196
 21
160.705730
  0
LINE
  8
CSLAYER1
  6
CONTINUOUS
 62
     6
 10
74.492196
 20
160.705730
 11
77.242196
 21
162.293443
  0
CIRCLE
  8
CSLAYER1
  6
CONTINUOUS
 62
     6
 10
74.492196
 20
163.881157
 40
2.750000
  0
LINE
  8
CSLAYER1
  6
CONTINUOUS
 62
     6
 10
142.863890
 20
166.422380
 11
142.863890
 21
161.339933
  0
LINE
  8
CSLAYER1
  6
CENTER
 62
     3
 10
138.805892
 20
163.881157
 11
174.279202
 21
163.881157
  0
CIRCLE
  8
CSLAYER1
  6
CONTINUOUS
 62
     6
 10
57.171688
 20
133.881157
 40
2.000000
  0
CIRCLE
  8
CSLAYER1
  6
CONTINUOUS
 62
     3
 10
57.171688
 20
133.881157
 40
1.600000
  0
LINE
  8
CSLAYER1
  6
CONTINUOUS
 62
     6
 10
57.171688
 20
137.056583
 11
54.421688
 21
135.468870
  0
LINE
  8
CSLAYER1
  6
CONTINUOUS
 62
     6
 10
54.421688
 20
135.468870
 11
54.421688
 21
132.293443
  0
LINE
  8
CSLAYER1
  6
CONTINUOUS
 62
     6
 10
54.421688
 20
132.293443
 11
57.171688
 21
130.705730
  0
LINE
  8
CSLAYER1
  6
CONTINUOUS
 62
     6
 10
57.171688
 20
130.705730
 11
59.921688
 21
132.293443
  0
LINE
  8
CSLAYER1
  6
CONTINUOUS
 62
     6
 10
59.921688
 20
132.293443
 11
59.921688
 21
135.468870
  0
LINE
  8
CSLAYER1
  6
CONTINUOUS
 62
     6
 10
59.921688
 20
135.468870
 11
57.171688
 21
137.056583
  0
CIRCLE
  8
CSLAYER1
  6
CONTINUOUS
 62
     6
 10
57.171688
 20
133.881157
 40
2.750000
  0
CIRCLE
  8
CSLAYER1
  6
CONTINUOUS
 62
     6
 10
91.812704
 20
133.881157
 40
2.000000
  0
CIRCLE
  8
CSLAYER1
  6
CONTINUOUS
 62
     3
 10
91.812704
 20
133.881157
 40
1.600000
  0
LINE
  8
CSLAYER1
  6
CONTINUOUS
 62
     6
 10
89.062704
 20
132.293443
 11
91.812704
 21
130.705730
  0
LINE
  8
CSLAYER1
  6
CONTINUOUS
 62
     6
 10
91.812704
 20
130.705730
 11
94.562704
 21
132.293443
  0
LINE
  8
CSLAYER1
  6
CONTINUOUS
 62
     6
 10
94.562704
 20
132.293443
 11
94.562704
 21
135.468870
  0
LINE
  8
CSLAYER1
  6
CONTINUOUS
 62
     6
 10
94.562704
 20
135.468870
 11
91.812704
 21
137.056583
  0
LINE
  8
CSLAYER1
  6
CONTINUOUS
 62
     6
 10
91.812704
 20
137.056583
 11
89.062704
 21
135.468870
  0
LINE
  8
CSLAYER1
  6
CONTINUOUS
 62
     6
 10
89.062704
 20
135.468870
 11
89.062704
 21
132.293443
  0
CIRCLE
  8
CSLAYER1
  6
CONTINUOUS
 62
     6
 10
91.812704
 20
133.881157
 40
2.750000
  0
ARC
  8
CSLAYER1
  6
CENTER
 62
     3
 10
74.492196
 20
143.881157
 40
20.000000
 50
193.494348
 51
226.505652
  0
ARC
  8
CSLAYER1
  6
CENTER
 62
     3
 10
74.492196
 20
143.881157
 40
20.000000
 50
313.494348
 51
346.505652
  0
ARC
  8
CSLAYER1
  6
CENTER
 62
     3
 10
74.492196
 20
143.881157
 40
20.000000
 50
13.513162
 51
46.486836
  0
LINE
  8
CSLAYER1
  6
CENTER
 62
     3
 10
52.204895
 20
156.748748
 11
62.138489
 21
151.013579
  0
CIRCLE
  8
CSLAYER1
  6
CONTINUOUS
 62
     6
 10
57.171702
 20
153.881149
 40
2.750000
  0
ARC
  8
CSLAYER1
  6
CENTER
 62
     3
 10
74.492196
 20
143.881157
 40
20.000000
 50
133.513162
 51
166.486836
  0
CIRCLE
  8
CSLAYER1
  6
CONTINUOUS
 62
     6
 10
74.492196
 20
123.881172
 40
2.750000
  0
ARC
  8
CSLAYER1
  6
CENTER
 62
     3
 10
74.492196
 20
143.881157
 40
20.000000
 50
253.513162
 51
286.486836
  0
ARC
  8
CSLAYER1
  6
CONTINUOUS
 62
     6
 10
142.363890
 20
166.131157
 40
0.500000
 50
90.000000
 51
180.000000
  0
ARC
  8
CSLAYER1
  6
CONTINUOUS
 62
     6
 10
142.677369
 20
166.931157
 40
0.300000
 50
270.000000
 51
329.999801
  0
LINE
  8
CSLAYER1
  6
CONTINUOUS
 62
     6
 10
142.937194
 20
160.981126
 11
143.096214
 21
160.705699
  0
LINE
  8
CSLAYER1
  6
CONTINUOUS
 62
     6
 10
143.096214
 20
160.705699
 11
145.163890
 21
160.705699
  0
LINE
  8
CSLAYER1
  6
CONTINUOUS
 62
     6
 10
140.963890
 20
161.881157
 11
141.863890
 21
161.881157
  0
LINE
  8
CSLAYER1
  6
CONTINUOUS
 62
     3
 10
140.563890
 20
162.281157
 11
141.863890
 21
162.281157
  0
LINE
  8
CSLAYER1
  6
CONTINUOUS
 62
     6
 10
140.463890
 20
162.381157
 11
140.963890
 21
161.881157
  0
LINE
  8
CSLAYER1
  6
CONTINUOUS
 62
     6
 10
142.363890
 20
161.131157
 11
142.677369
 21
161.131157
  0
ARC
  8
CSLAYER1
  6
CONTINUOUS
 62
     6
 10
142.363890
 20
161.631157
 40
0.500000
 50
180.000000
 51
270.000000
  0
ARC
  8
CSLAYER1
  6
CONTINUOUS
 62
     6
 10
142.677369
 20
160.831157
 40
0.300000
 50
30.000199
 51
90.000000
  0
LINE
  8
CSLAYER1
  6
CONTINUOUS
 62
     6
 10
143.154981
 20
165.468870
 11
145.163890
 21
165.468870
  0
LINE
  8
CSLAYER1
  6
CONTINUOUS
 62
     6
 10
143.154981
 20
162.293443
 11
145.163890
 21
162.293443
  0
ARC
  8
CSLAYER1
  6
CONTINUOUS
 62
     6
 10
147.339408
 20
163.881157
 40
4.475518
 50
159.221559
 51
200.778441
  0
ARC
  8
CSLAYER1
  6
CONTINUOUS
 62
     6
 10
145.235734
 20
166.625278
 40
2.380506
 50
184.889424
 51
209.063736
  0
ARC
  8
CSLAYER1
  6
CONTINUOUS
 62
     6
 10
145.235734
 20
161.137036
 40
2.380506
 50
150.936264
 51
175.110576
  0
LINE
  8
CSLAYER1
  6
CONTINUOUS
 62
     6
 10
142.937194
 20
136.781188
 11
143.096214
 21
137.056614
  0
LINE
  8
CSLAYER1
  6
CONTINUOUS
 62
     6
 10
143.096214
 20
137.056614
 11
145.163890
 21
137.056614
  0
LINE
  8
CSLAYER1
  6
CONTINUOUS
 62
     6
 10
140.463890
 20
132.381157
 11
140.463890
 21
135.381157
  0
LINE
  8
CSLAYER1
  6
CONTINUOUS
 62
     6
 10
140.963890
 20
135.881157
 11
141.863890
 21
135.881157
  0
LINE
  8
CSLAYER1
  6
CONTINUOUS
 62
     3
 10
140.563890
 20
135.481157
 11
141.863890
 21
135.481157
  0
LINE
  8
CSLAYER1
  6
CONTINUOUS
 62
     6
 10
140.463890
 20
135.381157
 11
140.963890
 21
135.881157
  0
LINE
  8
CSLAYER1
  6
CONTINUOUS
 62
     6
 10
142.363890
 20
136.631157
 11
142.677369
 21
136.631157
  0
LINE
  8
CSLAYER1
  6
CONTINUOUS
 62
     6
 10
141.863890
 20
136.131157
 11
141.863890
 21
131.631157
  0
LINE
  8
CSLAYER1
  6
CONTINUOUS
 62
     6
 10
142.863890
 20
136.422380
 11
142.863890
 21
131.339933
  0
ARC
  8
CSLAYER1
  6
CONTINUOUS
 62
     6
 10
142.363890
 20
136.131157
 40
0.500000
 50
90.000000
 51
180.000000
  0
ARC
  8
CSLAYER1
  6
CONTINUOUS
 62
     6
 10
142.677369
 20
136.931157
 40
0.300000
 50
270.000000
 51
329.999801
  0
LINE
  8
CSLAYER1
  6
CONTINUOUS
 62
     6
 10
142.937194
 20
130.981126
 11
143.096214
 21
130.705699
  0
LINE
  8
CSLAYER1
  6
CONTINUOUS
 62
     6
 10
143.096214
 20
130.705699
 11
145.163890
 21
130.705699
  0
LINE
  8
CSLAYER1
  6
CONTINUOUS
 62
     6
 10
140.963890
 20
131.881157
 11
141.863890
 21
131.881157
  0
LINE
  8
CSLAYER1
  6
CONTINUOUS
 62
     3
 10
140.563890
 20
132.281157
 11
141.863890
 21
132.281157
  0
LINE
  8
CSLAYER1
  6
CONTINUOUS
 62
     6
 10
140.463890
 20
132.381157
 11
140.963890
 21
131.881157
  0
LINE
  8
CSLAYER1
  6
CONTINUOUS
 62
     6
 10
142.363890
 20
131.131157
 11
142.677369
 21
131.131157
  0
ARC
  8
CSLAYER1
  6
CONTINUOUS
 62
     6
 10
142.363890
 20
131.631157
 40
0.500000
 50
180.000000
 51
270.000000
  0
ARC
  8
CSLAYER1
  6
CONTINUOUS
 62
     6
 10
142.677369
 20
130.831157
 40
0.300000
 50
30.000199
 51
90.000000
  0
LINE
  8
CSLAYER1
  6
CONTINUOUS
 62
     6
 10
143.154981
 20
135.468870
 11
145.163890
 21
135.468870
  0
LINE
  8
CSLAYER1
  6
CONTINUOUS
 62
     6
 10
143.154981
 20
132.293443
 11
145.163890
 21
132.293443
  0
ARC
  8
CSLAYER1
  6
CONTINUOUS
 62
     6
 10
147.339408
 20
133.881157
 40
4.475518
 50
159.221559
 51
200.778441
  0
ARC
  8
CSLAYER1
  6
CONTINUOUS
 62
     6
 10
145.235734
 20
136.625278
 40
2.380506
 50
184.889424
 51
209.063736
  0
ARC
  8
CSLAYER1
  6
CONTINUOUS
 62
     6
 10
145.235734
 20
131.137036
 40
2.380506
 50
150.936264
 51
175.110576
  0
LINE
  8
CSLAYER1
  6
CENTER
 62
     3
 10
160.937295
 20
166.381157
 11
147.916881
 21
166.381157
  0
LINE
  8
CSLAYER1
  6
CENTER
 62
     3
 10
163.927285
 20
166.381157
 11
168.845285
 21
166.381157
  0
LINE
  8
CSLAYER1
  6
CENTER
 62
     3
 10
160.937295
 20
161.381157
 11
147.916881
 21
161.381157
  0
LINE
  8
CSLAYER1
  6
CENTER
 62
     3
 10
163.927287
 20
161.381157
 11
168.845286
 21
161.381157
  0
LINE
  8
CSLAYER1
  6
CONTINUOUS
 62
     6
 10
168.100123
 20
151.225998
 11
168.100123
 21
156.536331
  0
ARC
  8
CSLAYER1
  6
CONTINUOUS
 62
     6
 10
172.841512
 20
153.881164
 40
6.637945
 50
163.742994
 51
196.257016
  0
LINE
  8
CSLAYER1
  6
CONTINUOUS
 62
     6
 10
167.893903
 20
156.470885
 11
167.296656
 21
156.418635
  0
ARC
  8
CSLAYER1
  6
CONTINUOUS
 62
     6
 10
167.379307
 20
155.473960
 40
0.948278
 50
95.000111
 51
163.742611
  0
ARC
  8
CSLAYER1
  6
CONTINUOUS
 62
     6
 10
167.910456
 20
156.281956
 40
0.189656
 50
0.000000
 51
95.000152
  0
LINE
  8
CSLAYER1
  6
CONTINUOUS
 62
     6
 10
168.194927
 20
156.631164
 11
168.669066
 21
156.631164
  0
ARC
  8
CSLAYER1
  6
CONTINUOUS
 62
     6
 10
168.194927
 20
156.536331
 40
0.094828
 50
90.000003
 51
180.000005
  0
ARC
  8
CSLAYER1
  6
CONTINUOUS
 62
     6
 10
168.669066
 20
156.536331
 40
0.094828
 50
0.000000
 51
90.000003
  0
LINE
  8
CSLAYER1
  6
CONTINUOUS
 62
     6
 10
167.893903
 20
151.291444
 11
167.296656
 21
151.343693
  0
ARC
  8
CSLAYER1
  6
CONTINUOUS
 62
     6
 10
167.379307
 20
152.288368
 40
0.948278
 50
196.257399
 51
264.999892
  0
ARC
  8
CSLAYER1
  6
CONTINUOUS
 62
     6
 10
167.910456
 20
151.480373
 40
0.189656
 50
264.999865
 51
359.942691
  0
ARC
  8
CSLAYER1
  6
CONTINUOUS
 62
     6
 10
168.194927
 20
151.225998
 40
0.094828
 50
180.000005
 51
270.000001
  0
LINE
  8
CSLAYER1
  6
CONTINUOUS
 62
     6
 10
168.194927
 20
151.131164
 11
168.669066
 21
151.131164
  0
ARC
  8
CSLAYER1
  6
CONTINUOUS
 62
     6
 10
168.669066
 20
151.225998
 40
0.094828
 50
270.000001
 51
359.942691
  0
LINE
  8
CSLAYER1
  6
CONTINUOUS
 62
     6
 10
168.100123
 20
153.316055
 11
168.763900
 21
153.736961
  0
LINE
  8
CSLAYER1
  6
CONTINUOUS
 62
     6
 10
168.100123
 20
153.790194
 11
168.763900
 21
154.211100
  0
LINE
  8
CSLAYER1
  6
CONTINUOUS
 62
     6
 10
163.263894
 20
136.131157
 11
169.263894
 21
136.131157
  0
LINE
  8
CSLAYER1
  6
CONTINUOUS
 62
     6
 10
161.263894
 20
136.131157
 11
147.163890
 21
136.131157
  0
LINE
  8
CSLAYER1
  6
CONTINUOUS
 62
     6
 10
163.263894
 20
131.631157
 11
169.263894
 21
131.631157
  0
LINE
  8
CSLAYER1
  6
CONTINUOUS
 62
     6
 10
161.263894
 20
131.631157
 11
147.163890
 21
131.631157
  0
LINE
  8
CSLAYER1
  6
CENTER
 62
     3
 10
148.484996
 20
136.631157
 11
149.506403
 21
131.131157
  0
LINE
  8
CSLAYER1
  6
CENTER
 62
     3
 10
149.484996
 20
136.631157
 11
150.506403
 21
131.131157
  0
LINE
  8
CSLAYER1
  6
CENTER
 62
     3
 10
150.484996
 20
136.631157
 11
151.506407
 21
131.131157
  0
LINE
  8
CSLAYER1
  6
CENTER
 62
     3
 10
147.957341
 20
131.131157
 11
147.917224
 21
136.631157
  0
LINE
  8
CSLAYER1
  6
CENTER
 62
     3
 10
164.454590
 20
136.631157
 11
165.475997
 21
131.131157
  0
LINE
  8
CSLAYER1
  6
CENTER
 62
     3
 10
165.454590
 20
136.631157
 11
166.475997
 21
131.131157
  0
LINE
  8
CSLAYER1
  6
CENTER
 62
     3
 10
166.454590
 20
136.631157
 11
167.475997
 21
131.131157
  0
LINE
  8
CSLAYER1
  6
CENTER
 62
     3
 10
163.926943
 20
131.131157
 11
163.886826
 21
136.631157
  0
LINE
  8
CSLAYER1
  6
CENTER
 62
     3
 10
160.937295
 20
136.631157
 11
147.916881
 21
136.631157
  0
LINE
  8
CSLAYER1
  6
CENTER
 62
     3
 10
163.927285
 20
136.631157
 11
168.845285
 21
136.631157
  0
LINE
  8
CSLAYER1
  6
CENTER
 62
     3
 10
160.937295
 20
131.131157
 11
147.916881
 21
131.131157
  0
LINE
  8
CSLAYER1
  6
CENTER
 62
     3
 10
163.927285
 20
131.131157
 11
168.845285
 21
131.131157
  0
ARC
  8
CSLAYER1
  6
CONTINUOUS
 62
     6
 10
151.563888
 20
143.881157
 40
3.000000
 50
-149.114032
 51
149.114032
  0
LINE
  8
CSLAYER1
  6
CONTINUOUS
 62
     6
 10
95.190242
 20
153.810443
 11
95.059363
 21
153.734880
  0
LINE
  8
CSLAYER1
  6
CONTINUOUS
 62
     6
 10
93.440242
 20
156.841532
 11
93.309372
 21
156.765974
  0
ARC
  8
CSLAYER1
  6
CONTINUOUS
 62
     6
 10
74.492196
 20
143.881149
 40
23.500000
 50
35.613995
 51
144.385960
  0
ARC
  8
CSLAYER1
  6
CONTINUOUS
 62
     6
 10
93.190243
 20
157.274545
 40
0.500000
 50
-60.000022
 51
35.613995
  0
ARC
  8
CSLAYER1
  6
CONTINUOUS
 62
     6
 10
95.440242
 20
153.377430
 40
0.500000
 50
24.385994
 51
119.999978
  0
LINE
  8
CSLAYER1
  6
CONTINUOUS
 62
     6
 10
55.544160
 20
156.841547
 11
55.675021
 21
156.765994
  0
LINE
  8
CSLAYER1
  6
CONTINUOUS
 62
     6
 10
53.794158
 20
153.810459
 11
53.925020
 21
153.734906
  0
ARC
  8
CSLAYER1
  6
CONTINUOUS
 62
     6
 10
55.794160
 20
157.274559
 40
0.500000
 50
144.385960
 51
239.999978
  0
ARC
  8
CSLAYER1
  6
CONTINUOUS
 62
     6
 10
53.544157
 20
153.377447
 40
0.500000
 50
59.999978
 51
155.613961
  0
ARC
  8
CSLAYER1
  6
CONTINUOUS
 62
     6
 10
74.492196
 20
143.881149
 40
23.500000
 50
155.613961
 51
264.385999
  0
LINE
  8
CSLAYER1
  6
CONTINUOUS
 62
     6
 10
76.242196
 20
120.991468
 11
76.242196
 21
121.142601
  0
LINE
  8
CSLAYER1
  6
CONTINUOUS
 62
     6
 10
72.742196
 20
120.991468
 11
72.742196
 21
121.142601
  0
ARC
  8
CSLAYER1
  6
CONTINUOUS
 62
     6
 10
74.492196
 20
143.881149
 40
23.500000
 50
275.614001
 51
356.242639
  0
ARC
  8
CSLAYER1
  6
CONTINUOUS
 62
     6
 10
72.242196
 20
120.991468
 40
0.500000
 50
264.385999
 51
360.000000
  0
ARC
  8
CSLAYER1
  6
CONTINUOUS
 62
     6
 10
76.742196
 20
120.991468
 40
0.500000
 50
180.000000
 51
275.614001
  0
ARC
  8
CSLAYER1
  6
CONTINUOUS
 62
     6
 10
57.171675
 20
153.881162
 40
1.750000
 50
73.398433
 51
106.601567
  0
ARC
  8
CSLAYER1
  6
CONTINUOUS
 62
     6
 10
57.171675
 20
153.881162
 40
1.750000
 50
163.398415
 51
196.601605
  0
ARC
  8
CSLAYER1
  6
CONTINUOUS
 62
     6
 10
57.171675
 20
153.881162
 40
1.750000
 50
253.398453
 51
286.601587
  0
LINE
  8
CSLAYER1
  6
CONTINUOUS
 62
     6
 10
56.671675
 20
152.881162
 11
56.671675
 21
152.204114
  0
LINE
  8
CSLAYER1
  6
CONTINUOUS
 62
     6
 10
56.671675
 20
154.881162
 11
56.671675
 21
155.558210
  0
LINE
  8
CSLAYER1
  6
CONTINUOUS
 62
     6
 10
57.671675
 20
152.881162
 11
57.671675
 21
152.204114
  0
LINE
  8
CSLAYER1
  6
CONTINUOUS
 62
     6
 10
57.671675
 20
154.881162
 11
57.671675
 21
155.558210
  0
LINE
  8
CSLAYER1
  6
CONTINUOUS
 62
     6
 10
56.171675
 20
154.381162
 11
55.494643
 21
154.381162
  0
LINE
  8
CSLAYER1
  6
CONTINUOUS
 62
     6
 10
58.171675
 20
154.381162
 11
58.848738
 21
154.381162
  0
LINE
  8
CSLAYER1
  6
CONTINUOUS
 62
     6
 10
56.171675
 20
153.381162
 11
55.494643
 21
153.381162
  0
LINE
  8
CSLAYER1
  6
CONTINUOUS
 62
     6
 10
58.171675
 20
153.381162
 11
58.848738
 21
153.381162
  0
ARC
  8
CSLAYER1
  6
CONTINUOUS
 62
     6
 10
56.171675
 20
152.881162
 40
0.500000
 50
0.000019
 51
90.000000
  0
ARC
  8
CSLAYER1
  6
CONTINUOUS
 62
     6
 10
58.171675
 20
152.881162
 40
0.500000
 50
90.000000
 51
179.999981
  0
ARC
  8
CSLAYER1
  6
CONTINUOUS
 62
     6
 10
58.171675
 20
154.881162
 40
0.500000
 50
179.999981
 51
270.000020
  0
ARC
  8
CSLAYER1
  6
CONTINUOUS
 62
     6
 10
56.171675
 20
154.881162
 40
0.500000
 50
270.000020
 51
359.942705
  0
ARC
  8
CSLAYER1
  6
CONTINUOUS
 62
     6
 10
57.171675
 20
153.881162
 40
1.750000
 50
-16.601566
 51
16.601568
  0
ARC
  8
CSLAYER1
  6
CONTINUOUS
 62
     6
 10
74.492179
 20
123.881155
 40
1.750000
 50
73.398433
 51
106.601567
  0
ARC
  8
CSLAYER1
  6
CONTINUOUS
 62
     6
 10
74.492179
 20
123.881155
 40
1.750000
 50
163.398415
 51
196.601605
  0
ARC
  8
CSLAYER1
  6
CONTINUOUS
 62
     6
 10
74.492179
 20
123.881155
 40
1.750000
 50
253.398453
 51
286.601587
  0
LINE
  8
CSLAYER1
  6
CONTINUOUS
 62
     6
 10
73.992179
 20
122.881155
 11
73.992179
 21
122.204107
  0
LINE
  8
CSLAYER1
  6
CONTINUOUS
 62
     6
 10
73.992179
 20
124.881155
 11
73.992179
 21
125.558203
  0
LINE
  8
CSLAYER1
  6
CONTINUOUS
 62
     6
 10
74.992179
 20
122.881155
 11
74.992179
 21
122.204107
  0
LINE
  8
CSLAYER1
  6
CONTINUOUS
 62
     6
 10
74.992179
 20
124.881155
 11
74.992179
 21
125.558203
  0
LINE
  8
CSLAYER1
  6
CONTINUOUS
 62
     6
 10
73.492179
 20
124.381155
 11
72.815147
 21
124.381155
  0
LINE
  8
CSLAYER1
  6
CONTINUOUS
 62
     6
 10
75.492179
 20
124.381155
 11
76.169242
 21
124.381155
  0
LINE
  8
CSLAYER1
  6
CONTINUOUS
 62
     6
 10
73.492179
 20
123.381155
 11
72.815147
 21
123.381155
  0
LINE
  8
CSLAYER1
  6
CONTINUOUS
 62
     6
 10
75.492179
 20
123.381155
 11
76.169242
 21
123.381155
  0
ARC
  8
CSLAYER1
  6
CONTINUOUS
 62
     6
 10
73.492179
 20
122.881155
 40
0.500000
 50
0.000019
 51
90.000000
  0
ARC
  8
CSLAYER1
  6
CONTINUOUS
 62
     6
 10
75.492179
 20
122.881155
 40
0.500000
 50
90.000000
 51
179.999981
  0
ARC
  8
CSLAYER1
  6
CONTINUOUS
 62
     6
 10
75.492179
 20
124.881155
 40
0.500000
 50
179.999981
 51
270.000020
  0
ARC
  8
CSLAYER1
  6
CONTINUOUS
 62
     6
 10
73.492179
 20
124.881155
 40
0.500000
 50
270.000020
 51
359.942705
  0
ARC
  8
CSLAYER1
  6
CONTINUOUS
 62
     6
 10
74.492179
 20
123.881155
 40
1.750000
 50
-16.601566
 51
16.601568
  0
ARC
  8
CSLAYER1
  6
CONTINUOUS
 62
     6
 10
74.492196
 20
143.881157
 40
29.377975
 50
3.081742
 51
356.918258
  0
LINE
  8
CSLAYER1
  6
CONTINUOUS
 62
     6
 10
163.263894
 20
239.881172
 11
169.263894
 21
239.881172
  0
LINE
  8
CSLAYER1
  6
CONTINUOUS
 62
     6
 10
161.263894
 20
239.881172
 11
147.163890
 21
239.881172
  0
LINE
  8
CSLAYER1
  6
CONTINUOUS
 62
     6
 10
163.263894
 20
235.881172
 11
169.263894
 21
235.881172
  0
LINE
  8
CSLAYER1
  6
CONTINUOUS
 62
     6
 10
161.263894
 20
235.881172
 11
147.163890
 21
235.881172
  0
LINE
  8
CSLAYER1
  6
CENTER
 62
     3
 10
148.484996
 20
240.381172
 11
149.506403
 21
235.381172
  0
LINE
  8
CSLAYER1
  6
CENTER
 62
     3
 10
149.484996
 20
240.381172
 11
150.506403
 21
235.381172
  0
LINE
  8
CSLAYER1
  6
CENTER
 62
     3
 10
150.484996
 20
240.381172
 11
151.506407
 21
235.381172
  0
LINE
  8
CSLAYER1
  6
CENTER
 62
     3
 10
147.957341
 20
235.381172
 11
147.917224
 21
240.381172
  0
LINE
  8
CSLAYER1
  6
CENTER
 62
     3
 10
164.454590
 20
240.381172
 11
165.475997
 21
235.381172
  0
LINE
  8
CSLAYER1
  6
CENTER
 62
     3
 10
165.454590
 20
240.381172
 11
166.475997
 21
235.381172
  0
LINE
  8
CSLAYER1
  6
CENTER
 62
     3
 10
166.454590
 20
240.381172
 11
167.475997
 21
235.381172
  0
LINE
  8
CSLAYER1
  6
CENTER
 62
     3
 10
163.926943
 20
235.381172
 11
163.886826
 21
240.381172
  0
LINE
  8
CSLAYER1
  6
CENTER
 62
     3
 10
160.937295
 20
240.381172
 11
147.916881
 21
240.381172
  0
LINE
  8
CSLAYER1
  6
CENTER
 62
     3
 10
163.927285
 20
240.381172
 11
168.845285
 21
240.381172
  0
LINE
  8
CSLAYER1
  6
CENTER
 62
     3
 10
160.937295
 20
235.381172
 11
147.916881
 21
235.381172
  0
LINE
  8
CSLAYER1
  6
CENTER
 62
     3
 10
163.927285
 20
235.381172
 11
168.845285
 21
235.381172
  0
LINE
  8
CSLAYER1
  6
CONTINUOUS
 62
     6
 10
142.937194
 20
258.101672
 11
143.096214
 21
258.377099
  0
LINE
  8
CSLAYER1
  6
CONTINUOUS
 62
     6
 10
143.096214
 20
258.377099
 11
145.163890
 21
258.377099
  0
LINE
  8
CSLAYER1
  6
CONTINUOUS
 62
     6
 10
140.463890
 20
253.701641
 11
140.463890
 21
256.701641
  0
LINE
  8
CSLAYER1
  6
CONTINUOUS
 62
     6
 10
140.963890
 20
257.201641
 11
141.863890
 21
257.201641
  0
LINE
  8
CSLAYER1
  6
CONTINUOUS
 62
     3
 10
140.563890
 20
256.801641
 11
141.863890
 21
256.801641
  0
LINE
  8
CSLAYER1
  6
CONTINUOUS
 62
     6
 10
140.463890
 20
256.701641
 11
140.963890
 21
257.201641
  0
LINE
  8
CSLAYER1
  6
CONTINUOUS
 62
     6
 10
142.363890
 20
257.951641
 11
142.677369
 21
257.951641
  0
LINE
  8
CSLAYER1
  6
CONTINUOUS
 62
     6
 10
141.863890
 20
257.451641
 11
141.863890
 21
252.951641
  0
LINE
  8
CSLAYER1
  6
CONTINUOUS
 62
     6
 10
142.863890
 20
257.742864
 11
142.863890
 21
252.660417
  0
ARC
  8
CSLAYER1
  6
CONTINUOUS
 62
     6
 10
142.363890
 20
257.451641
 40
0.500000
 50
90.000000
 51
180.000000
  0
ARC
  8
CSLAYER1
  6
CONTINUOUS
 62
     6
 10
142.677369
 20
258.251641
 40
0.300000
 50
270.000000
 51
329.999801
  0
LINE
  8
CSLAYER1
  6
CONTINUOUS
 62
     6
 10
142.937194
 20
252.301610
 11
143.096214
 21
252.026183
  0
LINE
  8
CSLAYER1
  6
CONTINUOUS
 62
     6
 10
143.096214
 20
252.026183
 11
145.163890
 21
252.026183
  0
LINE
  8
CSLAYER1
  6
CONTINUOUS
 62
     6
 10
140.963890
 20
253.201641
 11
141.863890
 21
253.201641
  0
LINE
  8
CSLAYER1
  6
CONTINUOUS
 62
     3
 10
140.563890
 20
253.601641
 11
141.863890
 21
253.601641
  0
LINE
  8
CSLAYER1
  6
CONTINUOUS
 62
     6
 10
140.463890
 20
253.701641
 11
140.963890
 21
253.201641
  0
LINE
  8
CSLAYER1
  6
CONTINUOUS
 62
     6
 10
142.363890
 20
252.451641
 11
142.677369
 21
252.451641
  0
ARC
  8
CSLAYER1
  6
CONTINUOUS
 62
     6
 10
142.363890
 20
252.951641
 40
0.500000
 50
180.000000
 51
270.000000
  0
ARC
  8
CSLAYER1
  6
CONTINUOUS
 62
     6
 10
142.677369
 20
252.151641
 40
0.300000
 50
30.000199
 51
90.000000
  0
LINE
  8
CSLAYER1
  6
CONTINUOUS
 62
     6
 10
143.154981
 20
256.789354
 11
145.163890
 21
256.789354
  0
LINE
  8
CSLAYER1
  6
CONTINUOUS
 62
     6
 10
143.154981
 20
253.613928
 11
145.163890
 21
253.613928
  0
ARC
  8
CSLAYER1
  6
CONTINUOUS
 62
     6
 10
147.339408
 20
255.201641
 40
4.475518
 50
159.221559
 51
200.778441
  0
ARC
  8
CSLAYER1
  6
CONTINUOUS
 62
     6
 10
145.235734
 20
257.945762
 40
2.380506
 50
184.889424
 51
209.063736
  0
ARC
  8
CSLAYER1
  6
CONTINUOUS
 62
     6
 10
145.235734
 20
252.457520
 40
2.380506
 50
150.936264
 51
175.110576
  0
LINE
  8
CSLAYER1
  6
CONTINUOUS
 62
     6
 10
142.937194
 20
240.781203
 11
143.096214
 21
241.056630
  0
LINE
  8
CSLAYER1
  6
CONTINUOUS
 62
     6
 10
143.096214
 20
241.056630
 11
145.163890
 21
241.056630
  0
LINE
  8
CSLAYER1
  6
CONTINUOUS
 62
     6
 10
140.463890
 20
236.381172
 11
140.463890
 21
239.381172
  0
LINE
  8
CSLAYER1
  6
CONTINUOUS
 62
     6
 10
140.963890
 20
239.881172
 11
141.863890
 21
239.881172
  0
LINE
  8
CSLAYER1
  6
CONTINUOUS
 62
     3
 10
140.563890
 20
239.481172
 11
141.863890
 21
239.481172
  0
LINE
  8
CSLAYER1
  6
CONTINUOUS
 62
     6
 10
140.463890
 20
239.381172
 11
140.963890
 21
239.881172
  0
LINE
  8
CSLAYER1
  6
CONTINUOUS
 62
     6
 10
142.363890
 20
240.631172
 11
142.677369
 21
240.631172
  0
LINE
  8
CSLAYER1
  6
CONTINUOUS
 62
     6
 10
141.863890
 20
240.131172
 11
141.863890
 21
235.631172
  0
LINE
  8
CSLAYER1
  6
CONTINUOUS
 62
     6
 10
142.863890
 20
240.422395
 11
142.863890
 21
235.339949
  0
ARC
  8
CSLAYER1
  6
CONTINUOUS
 62
     6
 10
142.363890
 20
240.131172
 40
0.500000
 50
90.000000
 51
180.000000
  0
ARC
  8
CSLAYER1
  6
CONTINUOUS
 62
     6
 10
142.677369
 20
240.931172
 40
0.300000
 50
270.000000
 51
329.999801
  0
LINE
  8
CSLAYER1
  6
CONTINUOUS
 62
     6
 10
142.937194
 20
234.981141
 11
143.096214
 21
234.705714
  0
LINE
  8
CSLAYER1
  6
CONTINUOUS
 62
     6
 10
143.096214
 20
234.705714
 11
145.163890
 21
234.705714
  0
LINE
  8
CSLAYER1
  6
CONTINUOUS
 62
     6
 10
140.963890
 20
235.881172
 11
141.863890
 21
235.881172
  0
LINE
  8
CSLAYER1
  6
CONTINUOUS
 62
     3
 10
140.563890
 20
236.281172
 11
141.863890
 21
236.281172
  0
LINE
  8
CSLAYER1
  6
CONTINUOUS
 62
     6
 10
140.463890
 20
236.381172
 11
140.963890
 21
235.881172
  0
LINE
  8
CSLAYER1
  6
CONTINUOUS
 62
     6
 10
142.363890
 20
235.131172
 11
142.677369
 21
235.131172
  0
ARC
  8
CSLAYER1
  6
CONTINUOUS
 62
     6
 10
142.363890
 20
235.631172
 40
0.500000
 50
180.000000
 51
270.000000
  0
ARC
  8
CSLAYER1
  6
CONTINUOUS
 62
     6
 10
142.677369
 20
234.831172
 40
0.300000
 50
30.000199
 51
90.000000
  0
LINE
  8
CSLAYER1
  6
CONTINUOUS
 62
     6
 10
143.154981
 20
239.468885
 11
145.163890
 21
239.468885
  0
LINE
  8
CSLAYER1
  6
CONTINUOUS
 62
     6
 10
143.154981
 20
236.293459
 11
145.163890
 21
236.293459
  0
ARC
  8
CSLAYER1
  6
CONTINUOUS
 62
     6
 10
147.339408
 20
237.881172
 40
4.475518
 50
159.221559
 51
200.778441
  0
ARC
  8
CSLAYER1
  6
CONTINUOUS
 62
     6
 10
145.235734
 20
240.625293
 40
2.380506
 50
184.889424
 51
209.063736
  0
ARC
  8
CSLAYER1
  6
CONTINUOUS
 62
     6
 10
145.235734
 20
235.137051
 40
2.380506
 50
150.936264
 51
175.110576
  0
LINE
  8
CSLAYER1
  6
CONTINUOUS
 62
     6
 10
142.937194
 20
223.460711
 11
143.096214
 21
223.736138
  0
LINE
  8
CSLAYER1
  6
CONTINUOUS
 62
     6
 10
143.096214
 20
223.736138
 11
145.163890
 21
223.736138
  0
LINE
  8
CSLAYER1
  6
CONTINUOUS
 62
     6
 10
140.463890
 20
219.060680
 11
140.463890
 21
222.060680
  0
LINE
  8
CSLAYER1
  6
CONTINUOUS
 62
     6
 10
140.963890
 20
222.560680
 11
141.863890
 21
222.560680
  0
LINE
  8
CSLAYER1
  6
CONTINUOUS
 62
     3
 10
140.563890
 20
222.160680
 11
141.863890
 21
222.160680
  0
LINE
  8
CSLAYER1
  6
CONTINUOUS
 62
     6
 10
140.463890
 20
222.060680
 11
140.963890
 21
222.560680
  0
LINE
  8
CSLAYER1
  6
CONTINUOUS
 62
     6
 10
142.363890
 20
223.310680
 11
142.677369
 21
223.310680
  0
LINE
  8
CSLAYER1
  6
CONTINUOUS
 62
     6
 10
141.863890
 20
222.810680
 11
141.863890
 21
218.310680
  0
LINE
  8
CSLAYER1
  6
CONTINUOUS
 62
     6
 10
142.863890
 20
223.101903
 11
142.863890
 21
218.019456
  0
ARC
  8
CSLAYER1
  6
CONTINUOUS
 62
     6
 10
142.363890
 20
222.810680
 40
0.500000
 50
90.000000
 51
180.000000
  0
ARC
  8
CSLAYER1
  6
CONTINUOUS
 62
     6
 10
142.677369
 20
223.610680
 40
0.300000
 50
270.000000
 51
329.999801
  0
LINE
  8
CSLAYER1
  6
CONTINUOUS
 62
     6
 10
142.937194
 20
217.660649
 11
143.096214
 21
217.385222
  0
LINE
  8
CSLAYER1
  6
CONTINUOUS
 62
     6
 10
143.096214
 20
217.385222
 11
145.163890
 21
217.385222
  0
LINE
  8
CSLAYER1
  6
CONTINUOUS
 62
     6
 10
140.963890
 20
218.560680
 11
141.863890
 21
218.560680
  0
LINE
  8
CSLAYER1
  6
CONTINUOUS
 62
     3
 10
140.563890
 20
218.960680
 11
141.863890
 21
218.960680
  0
LINE
  8
CSLAYER1
  6
CONTINUOUS
 62
     6
 10
140.463890
 20
219.060680
 11
140.963890
 21
218.560680
  0
LINE
  8
CSLAYER1
  6
CONTINUOUS
 62
     6
 10
142.363890
 20
217.810680
 11
142.677369
 21
217.810680
  0
ARC
  8
CSLAYER1
  6
CONTINUOUS
 62
     6
 10
142.363890
 20
218.310680
 40
0.500000
 50
180.000000
 51
270.000000
  0
ARC
  8
CSLAYER1
  6
CONTINUOUS
 62
     6
 10
142.677369
 20
217.510680
 40
0.300000
 50
30.000199
 51
90.000000
  0
LINE
  8
CSLAYER1
  6
CONTINUOUS
 62
     6
 10
143.154981
 20
222.148393
 11
145.163890
 21
222.148393
  0
LINE
  8
CSLAYER1
  6
CONTINUOUS
 62
     6
 10
143.154981
 20
218.972967
 11
145.163890
 21
218.972967
  0
ARC
  8
CSLAYER1
  6
CONTINUOUS
 62
     6
 10
147.339408
 20
220.560680
 40
4.475518
 50
159.221559
 51
200.778441
  0
ARC
  8
CSLAYER1
  6
CONTINUOUS
 62
     6
 10
145.235734
 20
223.304801
 40
2.380506
 50
184.889424
 51
209.063736
  0
ARC
  8
CSLAYER1
  6
CONTINUOUS
 62
     6
 10
145.235734
 20
217.816559
 40
2.380506
 50
150.936264
 51
175.110576
  0
LINE
  8
CSLAYER1
  6
CENTER
 62
     3
 10
149.029036
 20
220.381172
 11
149.506403
 21
218.060680
  0
LINE
  8
CSLAYER1
  6
CENTER
 62
     3
 10
150.029036
 20
220.381172
 11
150.506403
 21
218.060680
  0
LINE
  8
CSLAYER1
  6
CENTER
 62
     3
 10
147.957341
 20
218.060680
 11
147.931298
 21
221.381142
  0
LINE
  8
CSLAYER1
  6
CENTER
 62
     3
 10
164.534354
 20
222.560680
 11
165.475997
 21
218.060680
  0
LINE
  8
CSLAYER1
  6
CENTER
 62
     3
 10
165.534354
 20
222.560680
 11
166.475997
 21
218.060680
  0
LINE
  8
CSLAYER1
  6
CENTER
 62
     3
 10
163.926943
 20
218.060680
 11
163.889958
 21
222.560680
  0
LINE
  8
CSLAYER1
  6
CENTER
 62
     3
 10
160.937295
 20
218.060680
 11
147.916881
 21
218.060680
  0
LINE
  8
CSLAYER1
  6
CENTER
 62
     3
 10
163.927285
 20
218.060680
 11
167.103301
 21
218.060680
  0
LINE
  8
CSLAYER1
  6
CONTINUOUS
 62
     6
 10
148.663900
 20
221.381172
 11
154.663900
 21
221.381172
  0
LINE
  8
CSLAYER1
  6
CONTINUOUS
 62
     6
 10
148.663900
 20
220.381172
 11
154.663900
 21
220.381172
  0
LINE
  8
CSLAYER1
  6
CONTINUOUS
 62
     6
 10
154.663900
 20
221.381172
 11
154.663900
 21
220.381172
  0
LINE
  8
CSLAYER1
  6
CONTINUOUS
 62
     6
 10
148.663900
 20
221.381144
 11
148.663900
 21
220.381172
  0
LINE
  8
CSLAYER1
  6
CONTINUOUS
 62
     6
 10
161.263894
 20
34.560653
 11
147.163890
 21
34.560653
  0
LINE
  8
CSLAYER1
  6
CONTINUOUS
 62
     6
 10
161.263894
 20
30.560653
 11
147.163890
 21
30.560653
  0
LINE
  8
CSLAYER1
  6
CENTER
 62
     3
 10
148.484996
 20
35.060653
 11
149.506403
 21
30.060653
  0
LINE
  8
CSLAYER1
  6
CENTER
 62
     3
 10
149.484996
 20
35.060653
 11
150.506403
 21
30.060653
  0
LINE
  8
CSLAYER1
  6
CENTER
 62
     3
 10
150.484996
 20
35.060653
 11
151.506407
 21
30.060653
  0
LINE
  8
CSLAYER1
  6
CENTER
 62
     3
 10
147.957341
 20
30.060653
 11
147.917224
 21
35.060653
  0
LINE
  8
CSLAYER1
  6
CENTER
 62
     3
 10
160.937295
 20
35.060653
 11
147.916881
 21
35.060653
  0
LINE
  8
CSLAYER1
  6
CENTER
 62
     3
 10
160.937295
 20
30.060653
 11
147.916881
 21
30.060653
  0
LINE
  8
CSLAYER1
  6
CONTINUOUS
 62
     6
 10
161.263894
 20
69.201683
 11
147.163890
 21
69.201683
  0
LINE
  8
CSLAYER1
  6
CONTINUOUS
 62
     6
 10
161.263904
 20
65.201683
 11
147.163900
 21
65.201683
  0
LINE
  8
CSLAYER1
  6
CENTER
 62
     3
 10
148.484996
 20
69.701683
 11
149.506413
 21
64.701683
  0
LINE
  8
CSLAYER1
  6
CENTER
 62
     3
 10
149.484996
 20
69.701683
 11
150.506413
 21
64.701683
  0
LINE
  8
CSLAYER1
  6
CENTER
 62
     3
 10
150.484996
 20
69.701683
 11
151.506417
 21
64.701683
  0
LINE
  8
CSLAYER1
  6
CENTER
 62
     3
 10
147.957350
 20
64.701683
 11
147.917224
 21
69.701683
  0
LINE
  8
CSLAYER1
  6
CENTER
 62
     3
 10
160.937295
 20
69.701683
 11
147.916881
 21
69.701683
  0
LINE
  8
CSLAYER1
  6
CENTER
 62
     3
 10
160.937304
 20
64.701683
 11
147.916890
 21
64.701683
  0
LINE
  8
CSLAYER1
  6
CONTINUOUS
 62
     6
 10
163.263896
 20
69.201683
 11
169.263896
 21
69.201683
  0
LINE
  8
CSLAYER1
  6
CONTINUOUS
 62
     6
 10
163.263896
 20
65.201683
 11
169.263896
 21
65.201683
  0
LINE
  8
CSLAYER1
  6
CENTER
 62
     3
 10
164.454591
 20
69.701683
 11
165.475999
 21
64.701683
  0
LINE
  8
CSLAYER1
  6
CENTER
 62
     3
 10
165.454591
 20
69.701683
 11
166.475999
 21
64.701683
  0
LINE
  8
CSLAYER1
  6
CENTER
 62
     3
 10
166.454591
 20
69.701683
 11
167.475999
 21
64.701683
  0
LINE
  8
CSLAYER1
  6
CENTER
 62
     3
 10
163.926944
 20
64.701683
 11
163.886827
 21
69.701683
  0
LINE
  8
CSLAYER1
  6
CENTER
 62
     3
 10
163.927287
 20
69.701683
 11
168.845286
 21
69.701683
  0
LINE
  8
CSLAYER1
  6
CENTER
 62
     3
 10
163.927287
 20
64.701683
 11
168.845286
 21
64.701683
  0
LINE
  8
CSLAYER1
  6
CONTINUOUS
 62
     6
 10
163.263896
 20
34.560653
 11
169.263896
 21
34.560653
  0
LINE
  8
CSLAYER1
  6
CONTINUOUS
 62
     6
 10
163.263896
 20
30.560653
 11
169.263896
 21
30.560653
  0
LINE
  8
CSLAYER1
  6
CENTER
 62
     3
 10
164.454591
 20
35.060653
 11
165.475999
 21
30.060653
  0
LINE
  8
CSLAYER1
  6
CENTER
 62
     3
 10
165.454591
 20
35.060653
 11
166.475999
 21
30.060653
  0
LINE
  8
CSLAYER1
  6
CENTER
 62
     3
 10
166.454591
 20
35.060653
 11
167.475999
 21
30.060653
  0
LINE
  8
CSLAYER1
  6
CENTER
 62
     3
 10
163.926944
 20
30.060653
 11
163.886827
 21
35.060653
  0
LINE
  8
CSLAYER1
  6
CENTER
 62
     3
 10
163.927287
 20
35.060653
 11
168.845286
 21
35.060653
  0
LINE
  8
CSLAYER1
  6
CENTER
 62
     3
 10
163.927287
 20
30.060653
 11
168.845286
 21
30.060653
  0
LINE
  8
CSLAYER1
  6
CONTINUOUS
 62
     6
 10
168.063914
 20
47.081169
 11
168.063914
 21
52.681144
  0
ARC
  8
CSLAYER1
  6
CONTINUOUS
 62
     6
 10
173.063914
 20
49.881157
 40
7.000000
 50
163.742994
 51
196.257016
  0
LINE
  8
CSLAYER1
  6
CONTINUOUS
 62
     6
 10
167.846446
 20
52.612129
 11
167.216624
 21
52.557029
  0
ARC
  8
CSLAYER1
  6
CONTINUOUS
 62
     6
 10
167.303782
 20
51.560829
 40
1.000000
 50
95.000111
 51
163.742611
  0
ARC
  8
CSLAYER1
  6
CONTINUOUS
 62
     6
 10
167.863902
 20
52.412895
 40
0.200000
 50
0.000000
 51
95.000152
  0
LINE
  8
CSLAYER1
  6
CONTINUOUS
 62
     6
 10
168.163889
 20
52.781151
 11
168.663889
 21
52.781151
  0
ARC
  8
CSLAYER1
  6
CONTINUOUS
 62
     6
 10
168.163889
 20
52.681144
 40
0.100000
 50
90.000003
 51
180.000005
  0
ARC
  8
CSLAYER1
  6
CONTINUOUS
 62
     6
 10
168.663889
 20
52.681144
 40
0.100000
 50
0.000000
 51
90.000003
  0
LINE
  8
CSLAYER1
  6
CONTINUOUS
 62
     6
 10
167.846446
 20
47.150184
 11
167.216624
 21
47.205284
  0
ARC
  8
CSLAYER1
  6
CONTINUOUS
 62
     6
 10
167.303782
 20
48.201484
 40
1.000000
 50
196.257399
 51
264.999892
  0
ARC
  8
CSLAYER1
  6
CONTINUOUS
 62
     6
 10
167.863902
 20
47.349418
 40
0.200000
 50
264.999865
 51
359.942691
  0
ARC
  8
CSLAYER1
  6
CONTINUOUS
 62
     6
 10
168.163889
 20
47.081169
 40
0.100000
 50
180.000005
 51
270.000001
  0
LINE
  8
CSLAYER1
  6
CONTINUOUS
 62
     6
 10
168.163889
 20
46.981163
 11
168.663889
 21
46.981163
  0
ARC
  8
CSLAYER1
  6
CONTINUOUS
 62
     6
 10
168.663889
 20
47.081169
 40
0.100000
 50
270.000001
 51
359.942691
  0
LINE
  8
CSLAYER1
  6
CONTINUOUS
 62
     6
 10
168.063914
 20
49.285225
 11
168.763896
 21
49.729088
  0
LINE
  8
CSLAYER1
  6
CONTINUOUS
 62
     6
 10
168.063914
 20
49.785225
 11
168.763896
 21
50.229088
  0
LINE
  8
CSLAYER1
  6
CONTINUOUS
 62
     6
 10
168.763896
 20
46.631141
 11
169.263896
 21
46.631141
  0
LINE
  8
CSLAYER1
  6
CONTINUOUS
 62
     6
 10
168.763896
 20
53.131141
 11
169.263896
 21
53.131141
  0
LINE
  8
CSLAYER1
  6
CONTINUOUS
 62
     6
 10
168.763896
 20
53.131141
 11
168.763896
 21
46.631141
  0
LINE
  8
CSLAYER1
  6
CONTINUOUS
 62
     6
 10
142.937194
 20
70.101714
 11
143.096214
 21
70.377141
  0
LINE
  8
CSLAYER1
  6
CONTINUOUS
 62
     6
 10
143.096214
 20
70.377141
 11
145.163890
 21
70.377141
  0
LINE
  8
CSLAYER1
  6
CONTINUOUS
 62
     6
 10
140.463890
 20
65.701683
 11
140.463890
 21
68.701683
  0
LINE
  8
CSLAYER1
  6
CONTINUOUS
 62
     6
 10
140.963890
 20
69.201683
 11
141.863890
 21
69.201683
  0
LINE
  8
CSLAYER1
  6
CONTINUOUS
 62
     3
 10
140.563890
 20
68.801683
 11
141.863890
 21
68.801683
  0
LINE
  8
CSLAYER1
  6
CONTINUOUS
 62
     6
 10
140.463890
 20
68.701683
 11
140.963890
 21
69.201683
  0
LINE
  8
CSLAYER1
  6
CONTINUOUS
 62
     6
 10
142.363890
 20
69.951683
 11
142.677369
 21
69.951683
  0
LINE
  8
CSLAYER1
  6
CONTINUOUS
 62
     6
 10
141.863890
 20
69.451683
 11
141.863890
 21
64.951683
  0
LINE
  8
CSLAYER1
  6
CONTINUOUS
 62
     6
 10
142.863890
 20
69.742907
 11
142.863890
 21
64.660460
  0
ARC
  8
CSLAYER1
  6
CONTINUOUS
 62
     6
 10
142.363890
 20
69.451683
 40
0.500000
 50
90.000000
 51
180.000000
  0
ARC
  8
CSLAYER1
  6
CONTINUOUS
 62
     6
 10
142.677369
 20
70.251683
 40
0.300000
 50
270.000000
 51
329.999801
  0
LINE
  8
CSLAYER1
  6
CONTINUOUS
 62
     6
 10
142.937194
 20
64.301653
 11
143.096214
 21
64.026226
  0
LINE
  8
CSLAYER1
  6
CONTINUOUS
 62
     6
 10
143.096214
 20
64.026226
 11
145.163890
 21
64.026226
  0
LINE
  8
CSLAYER1
  6
CONTINUOUS
 62
     6
 10
140.963890
 20
65.201683
 11
141.863890
 21
65.201683
  0
LINE
  8
CSLAYER1
  6
CONTINUOUS
 62
     3
 10
140.563890
 20
65.601683
 11
141.863890
 21
65.601683
  0
LINE
  8
CSLAYER1
  6
CONTINUOUS
 62
     6
 10
140.463890
 20
65.701683
 11
140.963890
 21
65.201683
  0
LINE
  8
CSLAYER1
  6
CONTINUOUS
 62
     6
 10
142.363890
 20
64.451683
 11
142.677369
 21
64.451683
  0
ARC
  8
CSLAYER1
  6
CONTINUOUS
 62
     6
 10
142.363890
 20
64.951683
 40
0.500000
 50
180.000000
 51
270.000000
  0
ARC
  8
CSLAYER1
  6
CONTINUOUS
 62
     6
 10
142.677369
 20
64.151683
 40
0.300000
 50
30.000199
 51
90.000000
  0
LINE
  8
CSLAYER1
  6
CONTINUOUS
 62
     6
 10
143.154981
 20
68.789397
 11
145.163890
 21
68.789397
  0
LINE
  8
CSLAYER1
  6
CONTINUOUS
 62
     6
 10
143.154981
 20
65.613970
 11
145.163890
 21
65.613970
  0
ARC
  8
CSLAYER1
  6
CONTINUOUS
 62
     6
 10
147.339408
 20
67.201683
 40
4.475518
 50
159.221559
 51
200.778441
  0
ARC
  8
CSLAYER1
  6
CONTINUOUS
 62
     6
 10
145.235734
 20
69.945804
 40
2.380506
 50
184.889424
 51
209.063736
  0
ARC
  8
CSLAYER1
  6
CONTINUOUS
 62
     6
 10
145.235734
 20
64.457562
 40
2.380506
 50
150.936264
 51
175.110576
  0
LINE
  8
CSLAYER1
  6
CONTINUOUS
 62
     6
 10
142.937194
 20
35.460684
 11
143.096214
 21
35.736111
  0
LINE
  8
CSLAYER1
  6
CONTINUOUS
 62
     6
 10
143.096214
 20
35.736111
 11
145.163890
 21
35.736111
  0
LINE
  8
CSLAYER1
  6
CONTINUOUS
 62
     6
 10
140.463890
 20
31.060653
 11
140.463890
 21
34.060653
  0
LINE
  8
CSLAYER1
  6
CONTINUOUS
 62
     6
 10
140.963890
 20
34.560653
 11
141.863890
 21
34.560653
  0
LINE
  8
CSLAYER1
  6
CONTINUOUS
 62
     3
 10
140.563890
 20
34.160653
 11
141.863890
 21
34.160653
  0
LINE
  8
CSLAYER1
  6
CONTINUOUS
 62
     6
 10
140.463890
 20
34.060653
 11
140.963890
 21
34.560653
  0
LINE
  8
CSLAYER1
  6
CONTINUOUS
 62
     6
 10
142.363890
 20
35.310653
 11
142.677369
 21
35.310653
  0
LINE
  8
CSLAYER1
  6
CONTINUOUS
 62
     6
 10
141.863890
 20
34.810653
 11
141.863890
 21
30.310653
  0
LINE
  8
CSLAYER1
  6
CONTINUOUS
 62
     6
 10
142.863890
 20
35.101877
 11
142.863890
 21
30.019430
  0
ARC
  8
CSLAYER1
  6
CONTINUOUS
 62
     6
 10
142.363890
 20
34.810653
 40
0.500000
 50
90.000000
 51
180.000000
  0
ARC
  8
CSLAYER1
  6
CONTINUOUS
 62
     6
 10
142.677369
 20
35.610653
 40
0.300000
 50
270.000000
 51
329.999801
  0
LINE
  8
CSLAYER1
  6
CONTINUOUS
 62
     6
 10
142.937194
 20
29.660623
 11
143.096214
 21
29.385196
  0
LINE
  8
CSLAYER1
  6
CONTINUOUS
 62
     6
 10
143.096214
 20
29.385196
 11
145.163890
 21
29.385196
  0
LINE
  8
CSLAYER1
  6
CONTINUOUS
 62
     6
 10
140.963890
 20
30.560653
 11
141.863890
 21
30.560653
  0
LINE
  8
CSLAYER1
  6
CONTINUOUS
 62
     3
 10
140.563890
 20
30.960653
 11
141.863890
 21
30.960653
  0
LINE
  8
CSLAYER1
  6
CONTINUOUS
 62
     6
 10
140.463890
 20
31.060653
 11
140.963890
 21
30.560653
  0
LINE
  8
CSLAYER1
  6
CONTINUOUS
 62
     6
 10
142.363890
 20
29.810653
 11
142.677369
 21
29.810653
  0
ARC
  8
CSLAYER1
  6
CONTINUOUS
 62
     6
 10
142.363890
 20
30.310653
 40
0.500000
 50
180.000000
 51
270.000000
  0
ARC
  8
CSLAYER1
  6
CONTINUOUS
 62
     6
 10
142.677369
 20
29.510653
 40
0.300000
 50
30.000199
 51
90.000000
  0
LINE
  8
CSLAYER1
  6
CONTINUOUS
 62
     6
 10
143.154981
 20
34.148367
 11
145.163890
 21
34.148367
  0
LINE
  8
CSLAYER1
  6
CONTINUOUS
 62
     6
 10
143.154981
 20
30.972940
 11
145.163890
 21
30.972940
  0
ARC
  8
CSLAYER1
  6
CONTINUOUS
 62
     6
 10
147.339408
 20
32.560653
 40
4.475518
 50
159.221559
 51
200.778441
  0
ARC
  8
CSLAYER1
  6
CONTINUOUS
 62
     6
 10
145.235734
 20
35.304774
 40
2.380506
 50
184.889424
 51
209.063736
  0
ARC
  8
CSLAYER1
  6
CONTINUOUS
 62
     6
 10
145.235734
 20
29.816532
 40
2.380506
 50
150.936264
 51
175.110576
  0
LINE
  8
CSLAYER1
  6
CONTINUOUS
 62
     6
 10
142.937194
 20
52.781172
 11
143.096214
 21
53.056599
  0
LINE
  8
CSLAYER1
  6
CONTINUOUS
 62
     6
 10
143.096214
 20
53.056599
 11
145.163890
 21
53.056599
  0
LINE
  8
CSLAYER1
  6
CONTINUOUS
 62
     6
 10
140.463890
 20
48.381141
 11
140.463890
 21
51.381141
  0
LINE
  8
CSLAYER1
  6
CONTINUOUS
 62
     6
 10
140.963890
 20
51.881141
 11
141.863890
 21
51.881141
  0
LINE
  8
CSLAYER1
  6
CONTINUOUS
 62
     3
 10
140.563890
 20
51.481141
 11
141.863890
 21
51.481141
  0
LINE
  8
CSLAYER1
  6
CONTINUOUS
 62
     6
 10
140.463890
 20
51.381141
 11
140.963890
 21
51.881141
  0
LINE
  8
CSLAYER1
  6
CONTINUOUS
 62
     6
 10
142.363890
 20
52.631141
 11
142.677369
 21
52.631141
  0
LINE
  8
CSLAYER1
  6
CONTINUOUS
 62
     6
 10
141.863890
 20
52.131141
 11
141.863890
 21
47.631141
  0
LINE
  8
CSLAYER1
  6
CONTINUOUS
 62
     6
 10
142.863890
 20
52.422365
 11
142.863890
 21
47.339918
  0
ARC
  8
CSLAYER1
  6
CONTINUOUS
 62
     6
 10
142.363890
 20
52.131141
 40
0.500000
 50
90.000000
 51
180.000000
  0
ARC
  8
CSLAYER1
  6
CONTINUOUS
 62
     6
 10
142.677369
 20
52.931141
 40
0.300000
 50
270.000000
 51
329.999801
  0
LINE
  8
CSLAYER1
  6
CONTINUOUS
 62
     6
 10
142.937194
 20
46.981111
 11
143.096214
 21
46.705684
  0
LINE
  8
CSLAYER1
  6
CONTINUOUS
 62
     6
 10
143.096214
 20
46.705684
 11
145.163890
 21
46.705684
  0
LINE
  8
CSLAYER1
  6
CONTINUOUS
 62
     6
 10
140.963890
 20
47.881141
 11
141.863890
 21
47.881141
  0
LINE
  8
CSLAYER1
  6
CONTINUOUS
 62
     3
 10
140.563890
 20
48.281141
 11
141.863890
 21
48.281141
  0
LINE
  8
CSLAYER1
  6
CONTINUOUS
 62
     6
 10
140.463890
 20
48.381141
 11
140.963890
 21
47.881141
  0
LINE
  8
CSLAYER1
  6
CONTINUOUS
 62
     6
 10
142.363890
 20
47.131141
 11
142.677369
 21
47.131141
  0
ARC
  8
CSLAYER1
  6
CONTINUOUS
 62
     6
 10
142.363890
 20
47.631141
 40
0.500000
 50
180.000000
 51
270.000000
  0
ARC
  8
CSLAYER1
  6
CONTINUOUS
 62
     6
 10
142.677369
 20
46.831141
 40
0.300000
 50
30.000199
 51
90.000000
  0
LINE
  8
CSLAYER1
  6
CONTINUOUS
 62
     6
 10
143.154981
 20
51.468855
 11
145.163890
 21
51.468855
  0
LINE
  8
CSLAYER1
  6
CONTINUOUS
 62
     6
 10
143.154981
 20
48.293428
 11
145.163890
 21
48.293428
  0
ARC
  8
CSLAYER1
  6
CONTINUOUS
 62
     6
 10
147.339408
 20
49.881141
 40
4.475518
 50
159.221559
 51
200.778441
  0
ARC
  8
CSLAYER1
  6
CONTINUOUS
 62
     6
 10
145.235734
 20
52.625262
 40
2.380506
 50
184.889424
 51
209.063736
  0
ARC
  8
CSLAYER1
  6
CONTINUOUS
 62
     6
 10
145.235734
 20
47.137020
 40
2.380506
 50
150.936264
 51
175.110576
  0
LINE
  8
CSLAYER1
  6
CONTINUOUS
 62
     6
 10
163.263896
 20
158.881157
 11
169.263894
 21
158.881157
  0
LINE
  8
CSLAYER1
  6
CONTINUOUS
 62
     6
 10
163.263896
 20
128.881157
 11
169.263894
 21
128.881157
  0
LINE
  8
CSLAYER1
  6
CONTINUOUS
 62
     6
 10
163.263896
 20
64.881141
 11
169.263896
 21
64.881141
  0
LINE
  8
CSLAYER1
  6
CONTINUOUS
 62
     6
 10
163.263896
 20
34.881141
 11
169.263896
 21
34.881141
  0
LINE
  8
CSLAYER1
  6
CENTER
 62
     3
 10
163.562872
 20
257.748638
 11
167.405391
 21
257.748638
  0
LINE
  8
CSLAYER1
  6
DASHED
 62
     6
 10
152.433910
 20
69.701683
 11
152.433910
 21
67.201683
  0
LINE
  8
CSLAYER1
  6
DASHED
 62
     6
 10
150.893916
 20
69.701683
 11
150.893916
 21
67.201683
  0
ARC
  8
CSLAYER1
  6
CONTINUOUS
 62
     6
 10
74.492191
 20
143.881151
 40
6.000000
 50
168.557272
 51
191.442828
  0
ARC
  8
CSLAYER1
  6
CONTINUOUS
 62
     6
 10
74.492191
 20
143.881151
 40
6.000000
 50
258.557172
 51
281.442949
  0
ARC
  8
CSLAYER1
  6
CONTINUOUS
 62
     6
 10
74.492191
 20
143.881151
 40
6.000000
 50
-11.442728
 51
11.442828
  0
LINE
  8
CSLAYER1
  6
CONTINUOUS
 62
     6
 10
79.527727
 20
145.916693
 11
77.492191
 21
143.881157
  0
LINE
  8
CSLAYER1
  6
CONTINUOUS
 62
     6
 10
77.492191
 20
143.881157
 11
79.527729
 21
141.845618
  0
LINE
  8
CSLAYER1
  6
CONTINUOUS
 62
     6
 10
73.507664
 20
141.047301
 11
76.118546
 21
138.436419
  0
LINE
  8
CSLAYER1
  6
CONTINUOUS
 62
     6
 10
76.684230
 20
139.002106
 11
75.399039
 21
141.021496
  0
LINE
  8
CSLAYER1
  6
CONTINUOUS
 62
     6
 10
73.507664
 20
146.715013
 11
76.118546
 21
149.325894
  0
LINE
  8
CSLAYER1
  6
CONTINUOUS
 62
     6
 10
76.684230
 20
148.760207
 11
75.399033
 21
146.740808
  0
LINE
  8
CSLAYER1
  6
CONTINUOUS
 62
     6
 10
77.330990
 20
142.910987
 11
78.962045
 21
141.279931
  0
LINE
  8
CSLAYER1
  6
CONTINUOUS
 62
     6
 10
77.330990
 20
144.851327
 11
78.962045
 21
146.482382
  0
LINE
  8
CSLAYER1
  6
CONTINUOUS
 62
     6
 10
168.763906
 20
217.310680
 11
169.263906
 21
217.310680
  0
LINE
  8
CSLAYER1
  6
CONTINUOUS
 62
     6
 10
168.763906
 20
223.810680
 11
169.263906
 21
223.810680
  0
LINE
  8
CSLAYER1
  6
CONTINUOUS
 62
     6
 10
168.763906
 20
223.810680
 11
168.763906
 21
217.310680
  0
LINE
  8
CSLAYER1
  6
CONTINUOUS
 62
     6
 10
168.100134
 20
217.905528
 11
168.100134
 21
223.215861
  0
ARC
  8
CSLAYER1
  6
CONTINUOUS
 62
     6
 10
172.841524
 20
220.560694
 40
6.637945
 50
163.742994
 51
196.257016
  0
LINE
  8
CSLAYER1
  6
CONTINUOUS
 62
     6
 10
167.893914
 20
223.150415
 11
167.296668
 21
223.098165
  0
ARC
  8
CSLAYER1
  6
CONTINUOUS
 62
     6
 10
167.379318
 20
222.153490
 40
0.948278
 50
95.000111
 51
163.742611
  0
ARC
  8
CSLAYER1
  6
CONTINUOUS
 62
     6
 10
167.910467
 20
222.961486
 40
0.189656
 50
0.000000
 51
95.000152
  0
LINE
  8
CSLAYER1
  6
CONTINUOUS
 62
     6
 10
168.194939
 20
223.310694
 11
168.669078
 21
223.310694
  0
ARC
  8
CSLAYER1
  6
CONTINUOUS
 62
     6
 10
168.194939
 20
223.215861
 40
0.094828
 50
90.000003
 51
180.000005
  0
ARC
  8
CSLAYER1
  6
CONTINUOUS
 62
     6
 10
168.669078
 20
223.215861
 40
0.094828
 50
0.000000
 51
90.000003
  0
LINE
  8
CSLAYER1
  6
CONTINUOUS
 62
     6
 10
167.893914
 20
217.970974
 11
167.296668
 21
218.023223
  0
ARC
  8
CSLAYER1
  6
CONTINUOUS
 62
     6
 10
167.379318
 20
218.967898
 40
0.948278
 50
196.257399
 51
264.999892
  0
ARC
  8
CSLAYER1
  6
CONTINUOUS
 62
     6
 10
167.910467
 20
218.159903
 40
0.189656
 50
264.999865
 51
359.942691
  0
ARC
  8
CSLAYER1
  6
CONTINUOUS
 62
     6
 10
168.194939
 20
217.905528
 40
0.094828
 50
180.000005
 51
270.000001
  0
LINE
  8
CSLAYER1
  6
CONTINUOUS
 62
     6
 10
168.194939
 20
217.810694
 11
168.669078
 21
217.810694
  0
ARC
  8
CSLAYER1
  6
CONTINUOUS
 62
     6
 10
168.669078
 20
217.905528
 40
0.094828
 50
270.000001
 51
359.942691
  0
LINE
  8
CSLAYER1
  6
CONTINUOUS
 62
     6
 10
168.100134
 20
219.995585
 11
168.763911
 21
220.416491
  0
LINE
  8
CSLAYER1
  6
CONTINUOUS
 62
     6
 10
168.100134
 20
220.469724
 11
168.763911
 21
220.890629
  0
LINE
  8
CSLAYER1
  6
CONTINUOUS
 62
     6
 10
168.763906
 20
251.951641
 11
169.263906
 21
251.951641
  0
LINE
  8
CSLAYER1
  6
CONTINUOUS
 62
     6
 10
168.763906
 20
258.451641
 11
169.263906
 21
258.451641
  0
LINE
  8
CSLAYER1
  6
CONTINUOUS
 62
     6
 10
168.763906
 20
258.451641
 11
168.763906
 21
251.951641
  0
LINE
  8
CSLAYER1
  6
CONTINUOUS
 62
     6
 10
168.100134
 20
252.546489
 11
168.100134
 21
257.856822
  0
ARC
  8
CSLAYER1
  6
CONTINUOUS
 62
     6
 10
172.841524
 20
255.201655
 40
6.637945
 50
163.742994
 51
196.257016
  0
LINE
  8
CSLAYER1
  6
CONTINUOUS
 62
     6
 10
167.893914
 20
257.791376
 11
167.296668
 21
257.739126
  0
ARC
  8
CSLAYER1
  6
CONTINUOUS
 62
     6
 10
167.379318
 20
256.794451
 40
0.948278
 50
95.000111
 51
163.742611
  0
ARC
  8
CSLAYER1
  6
CONTINUOUS
 62
     6
 10
167.910467
 20
257.602447
 40
0.189656
 50
0.000000
 51
95.000152
  0
LINE
  8
CSLAYER1
  6
CONTINUOUS
 62
     6
 10
168.194939
 20
257.951655
 11
168.669078
 21
257.951655
  0
ARC
  8
CSLAYER1
  6
CONTINUOUS
 62
     6
 10
168.194939
 20
257.856822
 40
0.094828
 50
90.000003
 51
180.000005
  0
ARC
  8
CSLAYER1
  6
CONTINUOUS
 62
     6
 10
168.669078
 20
257.856822
 40
0.094828
 50
0.000000
 51
90.000003
  0
LINE
  8
CSLAYER1
  6
CONTINUOUS
 62
     6
 10
167.893914
 20
252.611935
 11
167.296668
 21
252.664184
  0
ARC
  8
CSLAYER1
  6
CONTINUOUS
 62
     6
 10
167.379318
 20
253.608859
 40
0.948278
 50
196.257399
 51
264.999892
  0
ARC
  8
CSLAYER1
  6
CONTINUOUS
 62
     6
 10
167.910467
 20
252.800864
 40
0.189656
 50
264.999865
 51
359.942691
  0
ARC
  8
CSLAYER1
  6
CONTINUOUS
 62
     6
 10
168.194939
 20
252.546489
 40
0.094828
 50
180.000005
 51
270.000001
  0
LINE
  8
CSLAYER1
  6
CONTINUOUS
 62
     6
 10
168.194939
 20
252.451655
 11
168.669078
 21
252.451655
  0
ARC
  8
CSLAYER1
  6
CONTINUOUS
 62
     6
 10
168.669078
 20
252.546489
 40
0.094828
 50
270.000001
 51
359.942691
  0
LINE
  8
CSLAYER1
  6
CONTINUOUS
 62
     6
 10
168.100134
 20
254.636546
 11
168.763911
 21
255.057452
  0
LINE
  8
CSLAYER1
  6
CONTINUOUS
 62
     6
 10
168.100134
 20
255.110685
 11
168.763911
 21
255.531590
  0
LINE
  8
CSLAYER1
  6
CENTER
 62
     3
 10
395.963803
 20
143.881146
 11
325.963803
 21
143.881146
  0
CIRCLE
  8
CSLAYER1
  6
CONTINUOUS
 62
     6
 10
360.963787
 20
143.881146
 40
4.000000
  0
CIRCLE
  8
CSLAYER1
  6
CONTINUOUS
 62
     6
 10
360.963787
 20
143.881146
 40
15.000000
  0
CIRCLE
  8
CSLAYER1
  6
CONTINUOUS
 62
     6
 10
360.963787
 20
143.881146
 40
17.500000
  0
LINE
  8
CSLAYER1
  6
CENTER
 62
     3
 10
334.963803
 20
174.820416
 11
334.963803
 21
164.881146
  0
LINE
  8
CSLAYER1
  6
CENTER
 62
     3
 10
339.963803
 20
169.881146
 11
329.963803
 21
169.881146
  0
CIRCLE
  8
CSLAYER1
  6
CONTINUOUS
 62
     6
 10
334.963803
 20
169.881146
 40
2.250000
  0
LINE
  8
CSLAYER1
  6
CENTER
 62
     3
 10
360.963803
 20
178.881115
 11
360.963803
 21
108.881237
  0
CIRCLE
  8
CSLAYER1
  6
CONTINUOUS
 62
     6
 10
360.963803
 20
143.881146
 40
11.000000
  0
LINE
  8
CSLAYER1
  6
CENTER
 62
     3
 10
330.024533
 20
117.881146
 11
339.963803
 21
117.881146
  0
LINE
  8
CSLAYER1
  6
CENTER
 62
     3
 10
334.963803
 20
122.881146
 11
334.963803
 21
112.881146
  0
CIRCLE
  8
CSLAYER1
  6
CONTINUOUS
 62
     6
 10
334.963803
 20
117.881146
 40
2.250000
  0
LINE
  8
CSLAYER1
  6
CENTER
 62
     3
 10
386.963803
 20
112.941876
 11
386.963803
 21
122.881146
  0
LINE
  8
CSLAYER1
  6
CENTER
 62
     3
 10
381.963803
 20
117.881146
 11
391.963803
 21
117.881146
  0
CIRCLE
  8
CSLAYER1
  6
CONTINUOUS
 62
     6
 10
386.963803
 20
117.881146
 40
2.250000
  0
LINE
  8
CSLAYER1
  6
CENTER
 62
     3
 10
386.963803
 20
174.820416
 11
386.963803
 21
164.881146
  0
LINE
  8
CSLAYER1
  6
CENTER
 62
     3
 10
381.963803
 20
169.881146
 11
391.963803
 21
169.881146
  0
CIRCLE
  8
CSLAYER1
  6
CONTINUOUS
 62
     6
 10
386.963803
 20
169.881146
 40
2.250000
  0
ARC
  8
CSLAYER1
  6
CENTER
 62
     3
 10
360.963818
 20
143.881146
 40
24.000000
 50
204.927254
 51
245.072670
  0
CIRCLE
  8
CSLAYER1
  6
CONTINUOUS
 62
     6
 10
343.993252
 20
126.910626
 40
4.500000
  0
ARC
  8
CSLAYER1
  6
CONTINUOUS
 62
     6
 10
343.993252
 20
126.910626
 40
2.397500
 50
-16.601566
 51
16.601595
  0
ARC
  8
CSLAYER1
  6
CONTINUOUS
 62
     6
 10
343.993252
 20
126.910626
 40
2.397500
 50
253.398424
 51
286.601586
  0
ARC
  8
CSLAYER1
  6
CONTINUOUS
 62
     6
 10
343.993252
 20
126.910626
 40
2.397500
 50
163.398442
 51
196.601576
  0
ARC
  8
CSLAYER1
  6
CONTINUOUS
 62
     6
 10
343.993252
 20
126.910626
 40
2.397500
 50
73.398416
 51
106.601604
  0
LINE
  8
CSLAYER1
  6
CONTINUOUS
 62
     6
 10
342.623257
 20
126.225628
 11
341.695690
 21
126.225628
  0
LINE
  8
CSLAYER1
  6
CONTINUOUS
 62
     6
 10
345.363247
 20
126.225628
 11
346.290814
 21
126.225628
  0
LINE
  8
CSLAYER1
  6
CONTINUOUS
 62
     6
 10
342.623257
 20
127.595623
 11
341.695690
 21
127.595623
  0
LINE
  8
CSLAYER1
  6
CONTINUOUS
 62
     6
 10
345.363247
 20
127.595623
 11
346.290814
 21
127.595623
  0
LINE
  8
CSLAYER1
  6
CONTINUOUS
 62
     6
 10
344.678250
 20
125.540630
 11
344.678250
 21
124.613079
  0
LINE
  8
CSLAYER1
  6
CONTINUOUS
 62
     6
 10
344.678250
 20
128.280621
 11
344.678250
 21
129.208172
  0
LINE
  8
CSLAYER1
  6
CONTINUOUS
 62
     6
 10
343.308255
 20
125.540630
 11
343.308255
 21
124.613079
  0
LINE
  8
CSLAYER1
  6
CONTINUOUS
 62
     6
 10
343.308255
 20
128.280621
 11
343.308255
 21
129.208172
  0
ARC
  8
CSLAYER1
  6
CONTINUOUS
 62
     6
 10
342.623257
 20
125.540630
 40
0.685000
 50
0.000001
 51
89.942691
  0
ARC
  8
CSLAYER1
  6
CONTINUOUS
 62
     6
 10
342.623257
 20
128.280621
 40
0.685000
 50
-89.999995
 51
0.000001
  0
ARC
  8
CSLAYER1
  6
CONTINUOUS
 62
     6
 10
345.363247
 20
128.280621
 40
0.685000
 50
180.000009
 51
270.000005
  0
ARC
  8
CSLAYER1
  6
CONTINUOUS
 62
     6
 10
345.363247
 20
125.540630
 40
0.685000
 50
90.000000
 51
180.000009
  0
CIRCLE
  8
CSLAYER1
  6
CONTINUOUS
 62
     6
 10
343.993252
 20
126.910626
 40
5.500000
  0
LINE
  8
CSLAYER1
  6
CENTER
 62
     3
 10
339.013424
 20
121.930767
 11
348.973064
 21
131.890421
  0
ARC
  8
CSLAYER1
  6
CENTER
 62
     3
 10
360.963787
 20
143.881146
 40
24.000000
 50
24.927254
 51
65.072670
  0
CIRCLE
  8
CSLAYER1
  6
CONTINUOUS
 62
     6
 10
377.934353
 20
160.851666
 40
4.500000
  0
ARC
  8
CSLAYER1
  6
CONTINUOUS
 62
     6
 10
377.934353
 20
160.851666
 40
2.397500
 50
163.398434
 51
196.601595
  0
ARC
  8
CSLAYER1
  6
CONTINUOUS
 62
     6
 10
377.934353
 20
160.851666
 40
2.397500
 50
73.398424
 51
106.601586
  0
ARC
  8
CSLAYER1
  6
CONTINUOUS
 62
     6
 10
377.934353
 20
160.851666
 40
2.397500
 50
-16.601558
 51
16.601576
  0
ARC
  8
CSLAYER1
  6
CONTINUOUS
 62
     6
 10
377.934353
 20
160.851666
 40
2.397500
 50
253.398416
 51
286.601604
  0
LINE
  8
CSLAYER1
  6
CONTINUOUS
 62
     6
 10
379.304348
 20
161.536663
 11
380.231915
 21
161.536663
  0
LINE
  8
CSLAYER1
  6
CONTINUOUS
 62
     6
 10
376.564358
 20
161.536663
 11
375.636791
 21
161.536663
  0
LINE
  8
CSLAYER1
  6
CONTINUOUS
 62
     6
 10
379.304348
 20
160.166668
 11
380.231915
 21
160.166668
  0
LINE
  8
CSLAYER1
  6
CONTINUOUS
 62
     6
 10
376.564358
 20
160.166668
 11
375.636791
 21
160.166668
  0
LINE
  8
CSLAYER1
  6
CONTINUOUS
 62
     6
 10
377.249356
 20
162.221661
 11
377.249356
 21
163.149212
  0
LINE
  8
CSLAYER1
  6
CONTINUOUS
 62
     6
 10
377.249356
 20
159.481670
 11
377.249356
 21
158.554119
  0
LINE
  8
CSLAYER1
  6
CONTINUOUS
 62
     6
 10
378.619351
 20
162.221661
 11
378.619351
 21
163.149212
  0
LINE
  8
CSLAYER1
  6
CONTINUOUS
 62
     6
 10
378.619351
 20
159.481670
 11
378.619351
 21
158.554119
  0
ARC
  8
CSLAYER1
  6
CONTINUOUS
 62
     6
 10
379.304348
 20
162.221661
 40
0.685000
 50
180.000001
 51
269.942691
  0
ARC
  8
CSLAYER1
  6
CONTINUOUS
 62
     6
 10
379.304348
 20
159.481670
 40
0.685000
 50
90.000005
 51
180.000001
  0
ARC
  8
CSLAYER1
  6
CONTINUOUS
 62
     6
 10
376.564358
 20
159.481670
 40
0.685000
 50
0.000009
 51
90.000005
  0
ARC
  8
CSLAYER1
  6
CONTINUOUS
 62
     6
 10
376.564358
 20
162.221661
 40
0.685000
 50
-90.000000
 51
0.000009
  0
CIRCLE
  8
CSLAYER1
  6
CONTINUOUS
 62
     6
 10
377.934353
 20
160.851666
 40
5.500000
  0
LINE
  8
CSLAYER1
  6
CENTER
 62
     3
 10
382.914181
 20
165.831524
 11
372.954542
 21
155.871870
  0
LINE
  8
CSLAYER1
  6
CONTINUOUS
 62
     6
 10
270.463894
 20
174.881161
 11
270.463894
 21
112.881161
  0
CIRCLE
  8
CSLAYER1
  6
CONTINUOUS
 62
     6
 10
365.724697
 20
135.611553
 40
0.999999
  0
ARC
  8
CSLAYER1
  6
CONTINUOUS
 62
     6
 10
365.724697
 20
135.611553
 40
2.143138
 50
50.235874
 51
203.481567
  0
LINE
  8
CSLAYER1
  6
CONTINUOUS
 62
     6
 10
363.759030
 20
134.757626
 11
364.186093
 21
133.363720
  0
CIRCLE
  8
CSLAYER1
  6
CONTINUOUS
 62
     6
 10
356.202908
 20
135.611553
 40
0.999999
  0
ARC
  8
CSLAYER1
  6
CONTINUOUS
 62
     6
 10
356.202908
 20
135.611553
 40
2.143138
 50
-23.481552
 51
129.764124
  0
LINE
  8
CSLAYER1
  6
CONTINUOUS
 62
     6
 10
358.168576
 20
134.757626
 11
357.741513
 21
133.363720
  0
ARC
  8
CSLAYER1
  6
CONTINUOUS
 62
     6
 10
360.963803
 20
143.299542
 40
9.581602
 50
-37.903087
 51
217.903071
  0
ARC
  8
CSLAYER1
  6
CONTINUOUS
 62
     6
 10
367.735134
 20
138.027645
 40
0.999999
 50
230.236306
 51
322.096613
  0
ARC
  8
CSLAYER1
  6
CONTINUOUS
 62
     6
 10
354.192471
 20
138.027645
 40
0.999999
 50
217.903402
 51
309.763723
  0
LINE
  8
CSLAYER1
  6
CONTINUOUS
 62
     6
 10
282.463894
 20
128.881161
 11
282.463894
 21
158.881161
  0
LINE
  8
CSLAYER1
  6
CONTINUOUS
 62
     6
 10
280.463894
 20
111.881146
 11
280.463894
 21
175.881146
  0
LINE
  8
CSLAYER1
  6
CONTINUOUS
 62
     6
 10
282.463894
 20
158.881161
 11
280.463894
 21
158.881161
  0
LINE
  8
CSLAYER1
  6
CONTINUOUS
 62
     6
 10
282.463894
 20
128.881161
 11
280.463894
 21
128.881161
  0
LINE
  8
CSLAYER1
  6
CONTINUOUS
 62
     6
 10
271.463894
 20
173.881146
 11
271.463894
 21
113.881146
  0
LINE
  8
CSLAYER1
  6
CENTER
 62
     3
 10
268.463894
 20
117.881146
 11
282.463894
 21
117.881146
  0
LINE
  8
CSLAYER1
  6
CENTER
 62
     3
 10
268.463900
 20
169.881156
 11
282.463900
 21
169.881152
  0
LINE
  8
CSLAYER1
  6
CONTINUOUS
 62
     6
 10
306.963894
 20
147.881153
 11
282.463894
 21
147.881153
  0
LINE
  8
CSLAYER1
  6
CONTINUOUS
 62
     6
 10
306.963894
 20
139.881153
 11
282.463909
 21
139.881153
  0
LINE
  8
CSLAYER1
  6
CONTINUOUS
 62
     6
 10
306.963894
 20
139.881153
 11
306.963894
 21
147.881153
  0
LINE
  8
CSLAYER1
  6
CONTINUOUS
 62
     6
 10
386.963803
 20
111.881146
 11
334.963803
 21
111.881146
  0
LINE
  8
CSLAYER1
  6
CONTINUOUS
 62
     6
 10
386.963803
 20
175.881146
 11
334.963803
 21
175.881146
  0
LINE
  8
CSLAYER1
  6
CONTINUOUS
 62
     6
 10
328.963803
 20
169.881146
 11
328.963803
 21
117.881146
  0
LINE
  8
CSLAYER1
  6
CONTINUOUS
 62
     6
 10
392.963803
 20
169.881146
 11
392.963803
 21
117.881146
  0
ARC
  8
CSLAYER1
  6
CONTINUOUS
 62
     6
 10
334.963803
 20
117.881146
 40
6.000000
 50
180.000000
 51
270.000000
  0
ARC
  8
CSLAYER1
  6
CONTINUOUS
 62
     6
 10
334.963803
 20
169.881146
 40
6.000000
 50
90.000000
 51
180.000000
  0
ARC
  8
CSLAYER1
  6
CONTINUOUS
 62
     6
 10
386.963803
 20
169.881146
 40
6.000000
 50
0.000000
 51
90.000000
  0
ARC
  8
CSLAYER1
  6
CONTINUOUS
 62
     6
 10
386.963803
 20
117.881146
 40
6.000000
 50
270.000000
 51
360.000000
  0
LINE
  8
CSLAYER1
  6
CENTER
 62
     3
 10
48.492196
 20
174.820427
 11
48.492196
 21
164.881157
  0
LINE
  8
CSLAYER1
  6
CENTER
 62
     3
 10
53.492196
 20
169.881157
 11
43.492196
 21
169.881157
  0
CIRCLE
  8
CSLAYER1
  6
CONTINUOUS
 62
     6
 10
48.492196
 20
169.881157
 40
2.250000
  0
LINE
  8
CSLAYER1
  6
CENTER
 62
     3
 10
43.552926
 20
117.881157
 11
53.492196
 21
117.881157
  0
LINE
  8
CSLAYER1
  6
CENTER
 62
     3
 10
48.492196
 20
122.881157
 11
48.492196
 21
112.881157
  0
CIRCLE
  8
CSLAYER1
  6
CONTINUOUS
 62
     6
 10
48.492196
 20
117.881157
 40
2.250000
  0
LINE
  8
CSLAYER1
  6
CENTER
 62
     3
 10
100.492196
 20
112.941887
 11
100.492196
 21
122.881157
  0
LINE
  8
CSLAYER1
  6
CENTER
 62
     3
 10
95.492196
 20
117.881157
 11
105.492196
 21
117.881157
  0
CIRCLE
  8
CSLAYER1
  6
CONTINUOUS
 62
     6
 10
100.492196
 20
117.881157
 40
2.250000
  0
LINE
  8
CSLAYER1
  6
CENTER
 62
     3
 10
100.492196
 20
174.820427
 11
100.492196
 21
164.881157
  0
LINE
  8
CSLAYER1
  6
CENTER
 62
     3
 10
95.492196
 20
169.881157
 11
105.492196
 21
169.881157
  0
CIRCLE
  8
CSLAYER1
  6
CONTINUOUS
 62
     6
 10
100.492196
 20
169.881157
 40
2.250000
  0
LINE
  8
CSLAYER1
  6
CONTINUOUS
 62
     6
 10
100.492196
 20
111.881157
 11
48.492196
 21
111.881157
  0
LINE
  8
CSLAYER1
  6
CONTINUOUS
 62
     6
 10
100.492196
 20
175.881157
 11
48.492196
 21
175.881157
  0
LINE
  8
CSLAYER1
  6
CONTINUOUS
 62
     6
 10
42.492196
 20
169.881157
 11
42.492196
 21
117.881157
  0
LINE
  8
CSLAYER1
  6
CONTINUOUS
 62
     6
 10
106.492196
 20
169.881157
 11
106.492196
 21
146.081152
  0
ARC
  8
CSLAYER1
  6
CONTINUOUS
 62
     6
 10
48.492196
 20
117.881157
 40
6.000000
 50
180.000000
 51
270.000000
  0
ARC
  8
CSLAYER1
  6
CONTINUOUS
 62
     6
 10
48.492196
 20
169.881157
 40
6.000000
 50
90.000000
 51
180.000000
  0
ARC
  8
CSLAYER1
  6
CONTINUOUS
 62
     6
 10
100.492196
 20
169.881157
 40
6.000000
 50
0.000000
 51
90.000000
  0
ARC
  8
CSLAYER1
  6
CONTINUOUS
 62
     6
 10
100.492196
 20
117.881157
 40
6.000000
 50
270.000000
 51
360.000000
  0
LINE
  8
CSLAYER1
  6
CONTINUOUS
 62
     6
 10
106.492196
 20
141.681154
 11
106.492196
 21
117.881157
  0
LINE
  8
CSLAYER1
  6
CONTINUOUS
 62
     6
 10
280.463894
 20
175.881146
 11
273.463894
 21
175.881146
  0
LINE
  8
CSLAYER1
  6
CONTINUOUS
 62
     6
 10
280.463894
 20
111.881146
 11
273.463894
 21
111.881146
  0
ARC
  8
CSLAYER1
  6
CONTINUOUS
 62
     6
 10
273.463894
 20
173.881146
 40
2.000000
 50
90.000000
 51
180.000000
  0
ARC
  8
CSLAYER1
  6
CONTINUOUS
 62
     6
 10
273.463894
 20
113.881146
 40
2.000000
 50
180.000000
 51
270.000000
  0
LINE
  8
CSLAYER1
  6
CONTINUOUS
 62
     6
 10
270.463894
 20
173.881150
 11
271.463894
 21
173.881150
  0
LINE
  8
CSLAYER1
  6
CONTINUOUS
 62
     6
 10
270.463894
 20
113.881150
 11
271.463894
 21
113.881150
  0
LINE
  8
CSLAYER1
  6
CONTINUOUS
 62
     6
 10
270.463908
 20
268.881176
 11
270.463908
 21
206.881176
  0
LINE
  8
CSLAYER1
  6
CONTINUOUS
 62
     6
 10
282.463908
 20
222.881176
 11
282.463908
 21
252.881176
  0
LINE
  8
CSLAYER1
  6
CONTINUOUS
 62
     6
 10
280.463908
 20
205.881161
 11
280.463908
 21
269.881161
  0
LINE
  8
CSLAYER1
  6
CONTINUOUS
 62
     6
 10
282.463908
 20
252.881176
 11
280.463908
 21
252.881176
  0
LINE
  8
CSLAYER1
  6
CONTINUOUS
 62
     6
 10
282.463908
 20
222.881176
 11
280.463908
 21
222.881176
  0
LINE
  8
CSLAYER1
  6
CONTINUOUS
 62
     6
 10
271.463908
 20
267.881161
 11
271.463908
 21
207.881161
  0
LINE
  8
CSLAYER1
  6
CENTER
 62
     3
 10
268.463908
 20
211.881161
 11
282.463908
 21
211.881161
  0
LINE
  8
CSLAYER1
  6
CENTER
 62
     3
 10
268.463914
 20
263.881171
 11
282.463914
 21
263.881167
  0
LINE
  8
CSLAYER1
  6
CONTINUOUS
 62
     6
 10
306.963908
 20
241.881168
 11
282.463908
 21
241.881168
  0
LINE
  8
CSLAYER1
  6
CONTINUOUS
 62
     6
 10
306.963908
 20
233.881168
 11
282.463923
 21
233.881168
  0
LINE
  8
CSLAYER1
  6
CONTINUOUS
 62
     6
 10
306.963908
 20
233.881168
 11
306.963908
 21
241.881168
  0
LINE
  8
CSLAYER1
  6
CONTINUOUS
 62
     6
 10
280.463908
 20
269.881161
 11
273.463908
 21
269.881161
  0
LINE
  8
CSLAYER1
  6
CONTINUOUS
 62
     6
 10
280.463908
 20
205.881161
 11
273.463908
 21
205.881161
  0
ARC
  8
CSLAYER1
  6
CONTINUOUS
 62
     6
 10
273.463908
 20
267.881161
 40
2.000000
 50
90.000000
 51
180.000000
  0
ARC
  8
CSLAYER1
  6
CONTINUOUS
 62
     6
 10
273.463908
 20
207.881161
 40
2.000000
 50
180.000000
 51
270.000000
  0
LINE
  8
CSLAYER1
  6
CONTINUOUS
 62
     6
 10
270.463908
 20
267.881166
 11
271.463908
 21
267.881165
  0
LINE
  8
CSLAYER1
  6
CONTINUOUS
 62
     6
 10
270.463908
 20
207.881166
 11
271.463908
 21
207.881165
  0
LINE
  8
CSLAYER1
  6
CONTINUOUS
 62
     6
 10
270.463908
 20
80.881146
 11
270.463908
 21
18.881146
  0
LINE
  8
CSLAYER1
  6
CONTINUOUS
 62
     6
 10
282.463908
 20
34.881146
 11
282.463908
 21
64.881146
  0
LINE
  8
CSLAYER1
  6
CONTINUOUS
 62
     6
 10
280.463908
 20
17.881130
 11
280.463908
 21
81.881130
  0
LINE
  8
CSLAYER1
  6
CONTINUOUS
 62
     6
 10
282.463908
 20
64.881146
 11
280.463908
 21
64.881146
  0
LINE
  8
CSLAYER1
  6
CONTINUOUS
 62
     6
 10
282.463908
 20
34.881146
 11
280.463908
 21
34.881146
  0
LINE
  8
CSLAYER1
  6
CONTINUOUS
 62
     6
 10
271.463908
 20
79.881130
 11
271.463908
 21
19.881130
  0
LINE
  8
CSLAYER1
  6
CENTER
 62
     3
 10
268.463908
 20
23.881130
 11
282.463908
 21
23.881130
  0
LINE
  8
CSLAYER1
  6
CENTER
 62
     3
 10
268.463914
 20
75.881140
 11
282.463914
 21
75.881137
  0
LINE
  8
CSLAYER1
  6
CONTINUOUS
 62
     6
 10
306.963908
 20
53.881138
 11
282.463908
 21
53.881138
  0
LINE
  8
CSLAYER1
  6
CONTINUOUS
 62
     6
 10
306.963908
 20
45.881138
 11
282.463923
 21
45.881138
  0
LINE
  8
CSLAYER1
  6
CONTINUOUS
 62
     6
 10
306.963908
 20
45.881138
 11
306.963908
 21
53.881138
  0
LINE
  8
CSLAYER1
  6
CONTINUOUS
 62
     6
 10
280.463908
 20
81.881130
 11
273.463908
 21
81.881130
  0
LINE
  8
CSLAYER1
  6
CONTINUOUS
 62
     6
 10
280.463908
 20
17.881130
 11
273.463908
 21
17.881130
  0
ARC
  8
CSLAYER1
  6
CONTINUOUS
 62
     6
 10
273.463908
 20
79.881130
 40
2.000000
 50
90.000000
 51
180.000000
  0
ARC
  8
CSLAYER1
  6
CONTINUOUS
 62
     6
 10
273.463908
 20
19.881130
 40
2.000000
 50
180.000000
 51
270.000000
  0
LINE
  8
CSLAYER1
  6
CONTINUOUS
 62
     6
 10
270.463908
 20
79.881135
 11
271.463908
 21
79.881135
  0
LINE
  8
CSLAYER1
  6
CONTINUOUS
 62
     6
 10
270.463908
 20
19.881135
 11
271.463908
 21
19.881135
  0
LINE
  8
CSLAYER1
  6
CONTINUOUS
 62
     6
 10
172.463894
 20
115.422283
 11
172.463894
 21
172.340039
  0
LINE
  8
CSLAYER1
  6
CONTINUOUS
 62
     6
 10
173.463894
 20
114.404827
 11
173.463894
 21
173.357494
  0
LINE
  8
CSLAYER1
  6
CONTINUOUS
 62
     6
 10
173.463742
 20
173.357492
 11
203.463909
 21
173.881146
  0
LINE
  8
CSLAYER1
  6
CONTINUOUS
 62
     6
 10
203.463894
 20
113.881168
 11
173.463742
 21
114.404830
  0
LINE
  8
CSLAYER1
  6
CONTINUOUS
 62
     6
 10
172.463894
 20
115.422283
 11
173.463742
 21
114.404830
  0
LINE
  8
CSLAYER1
  6
CONTINUOUS
 62
     6
 10
203.463908
 20
268.881172
 11
203.463908
 21
206.881172
  0
LINE
  8
CSLAYER1
  6
CONTINUOUS
 62
     6
 10
172.463908
 20
209.422298
 11
172.463908
 21
266.340055
  0
LINE
  8
CSLAYER1
  6
CONTINUOUS
 62
     6
 10
173.463908
 20
208.404843
 11
173.463908
 21
267.357510
  0
LINE
  8
CSLAYER1
  6
CONTINUOUS
 62
     6
 10
173.463755
 20
267.357507
 11
203.463923
 21
267.881161
  0
LINE
  8
CSLAYER1
  6
CONTINUOUS
 62
     6
 10
203.463908
 20
207.881183
 11
173.463755
 21
208.404845
  0
LINE
  8
CSLAYER1
  6
CONTINUOUS
 62
     6
 10
172.463908
 20
209.422298
 11
173.463755
 21
208.404845
  0
LINE
  8
CSLAYER1
  6
CONTINUOUS
 62
     6
 10
173.463755
 20
267.357507
 11
172.463908
 21
266.340055
  0
LINE
  8
CSLAYER1
  6
CONTINUOUS
 62
     6
 10
203.463908
 20
80.881141
 11
203.463908
 21
18.881141
  0
LINE
  8
CSLAYER1
  6
CONTINUOUS
 62
     6
 10
172.463908
 20
21.422267
 11
172.463908
 21
78.340024
  0
LINE
  8
CSLAYER1
  6
CONTINUOUS
 62
     6
 10
173.463908
 20
20.404812
 11
173.463908
 21
79.357479
  0
LINE
  8
CSLAYER1
  6
CONTINUOUS
 62
     6
 10
173.463755
 20
79.357477
 11
203.463923
 21
79.881130
  0
LINE
  8
CSLAYER1
  6
CONTINUOUS
 62
     6
 10
203.463908
 20
19.881153
 11
173.463755
 21
20.404815
  0
LINE
  8
CSLAYER1
  6
CONTINUOUS
 62
     6
 10
172.463908
 20
21.422267
 11
173.463755
 21
20.404815
  0
LINE
  8
CSLAYER1
  6
CONTINUOUS
 62
     6
 10
173.463755
 20
79.357477
 11
172.463908
 21
78.340024
  0
LINE
  8
CSLAYER1
  6
CONTINUOUS
 62
     6
 10
169.263894
 20
153.426254
 11
172.463894
 21
153.426254
  0
LINE
  8
CSLAYER1
  6
CONTINUOUS
 62
     6
 10
172.463894
 20
155.381150
 11
169.263894
 21
155.381150
  0
LINE
  8
CSLAYER1
  6
CONTINUOUS
 62
     3
 10
169.263894
 20
155.081150
 11
172.463894
 21
155.081150
  0
LINE
  8
CSLAYER1
  6
CONTINUOUS
 62
     6
 10
172.463894
 20
172.340031
 11
173.463742
 21
173.357483
  0
ARC
  8
CSLAYER1
  6
CONTINUOUS
 62
     6
 10
57.171692
 20
153.881163
 40
3.249965
 50
-7.382174
 51
307.382101
  0
ARC
  8
CSLAYER1
  6
CONTINUOUS
 62
     6
 10
91.812691
 20
153.881149
 40
3.249965
 50
-127.381921
 51
187.381876
  0
ARC
  8
CSLAYER1
  6
CONTINUOUS
 62
     6
 10
74.492196
 20
123.881172
 40
3.249965
 50
-247.380930
 51
67.380877
  0
LINE
  8
CSLAYER1
  6
CONTINUOUS
 62
     6
 10
169.263896
 20
51.631141
 11
172.463908
 21
51.631141
  0
LINE
  8
CSLAYER1
  6
CONTINUOUS
 62
     6
 10
169.263896
 20
48.131141
 11
172.463908
 21
48.131141
  0
LINE
  8
CSLAYER1
  6
CONTINUOUS
 62
     6
 10
172.463896
 20
51.381141
 11
169.263896
 21
51.381141
  0
LINE
  8
CSLAYER1
  6
CONTINUOUS
 62
     3
 10
169.263896
 20
51.081141
 11
172.463896
 21
51.081141
  0
LINE
  8
CSLAYER1
  6
CONTINUOUS
 62
     6
 10
172.463896
 20
48.381141
 11
169.263896
 21
48.381141
  0
LINE
  8
CSLAYER1
  6
CONTINUOUS
 62
     3
 10
169.263896
 20
48.681141
 11
172.463896
 21
48.681141
  0
LINE
  8
CSLAYER1
  6
CONTINUOUS
 62
     6
 10
169.263906
 20
257.079208
 11
172.463908
 21
257.079208
  0
LINE
  8
CSLAYER1
  6
CONTINUOUS
 62
     6
 10
169.263906
 20
218.683125
 11
172.463908
 21
218.683125
  0
ARC
  8
CSLAYER1
  6
CONTINUOUS
 62
     6
 10
74.492196
 20
143.881157
 40
23.499992
 50
3.757379
 51
356.242619
  0
LINE
  8
CSLAYER1
  6
DOT
 62
     4
 10
147.263904
 20
66.381141
 11
169.263896
 21
66.381141
  0
ENDSEC
  0
EOF
