  0
SECTION
  2
HEADER
  9
$ACADVER
  1
AC1006
  9
$INSBASE
 10
0.000000
 20
0.000000
 30
0.0
  9
$EXTMIN
 10
0.000000
 20
0.000000
  9
$EXTMAX
 10
420.000000
 20
297.000000
  9
$LIMMIN
 10
0.000000
 20
0.000000
  9
$LIMMAX
 10
420.000000
 20
297.000000
  9
$VIEWCTR
 10
210.000000
 20
148.500000
  9
$VIEWSIZE
 40
297.000000
  9
$SNAPMODE
 70
     0
  9
$SNAPUNIT
 10
1.0
 20
1.0
  9
$SNAPBASE
 10
0.0
 20
0.0
  9
$SNAPANG
 50
0.0
  9
$SNAPSTYLE
 70
     0
  9
$SNAPISOPAIR
 70
     0
  9
$GRIDMODE
 70
     0
  9
$GRIDUNIT
 10
0.0
 20
0.0
  9
$ORTHOMODE
 70
     0
  9
$REGENMODE
 70
     1
  9
$FILLMODE
 70
     1
  9
$QTEXTMODE
 70
     0
  9
$DRAGMODE
 70
     2
  9
$LTSCALE
 40
15.000000
  9
$OSMODE
 70
     0
  9
$ATTMODE
 70
     1
  9
$TEXTSIZE
 40
0.2
  9
$TRACEWID
 40
0.05
  9
$TEXTSTYLE
  7
STANDARD
  9
$CLAYER
  8
CSLAYER1
  9
$CELTYPE
  6
BYLAYER
  9
$CECOLOR
 62
   256
  9
$DIMSCALE
 40
1.0
  9
$DIMASZ
 40
0.18
  9
$DIMEXO
 40
0.0625
  9
$DIMDLI
 40
0.38
  9
$DIMRND
 40
0.0
  9
$DIMDLE
 40
0.0
  9
$DIMEXE
 40
0.18
  9
$DIMTP
 40
0.0
  9
$DIMTM
 40
0.0
  9
$DIMTXT
 40
0.18
  9
$DIMCEN
 40
0.09
  9
$DIMTSZ
 40
0.0
  9
$DIMTOL
 70
     0
  9
$DIMLIM
 70
     0
  9
$DIMTIH
 70
     1
  9
$DIMTOH
 70
     1
  9
$DIMSE1
 70
     0
  9
$DIMSE2
 70
     0
  9
$DIMTAD
 70
     0
  9
$DIMZIN
 70
     0
  9
$DIMBLK
  1

  9
$LUNITS
 70
     2
  9
$LUPREC
 70
     4
  9
$AXISMODE
 70
     0
  9
$AXISUNIT
 10
0.0
 20
0.0
  9
$SKETCHINC
 40
0.1
  9
$FILLETRAD
 40
0.0
  9
$AUNITS
 70
     0
  9
$AUPREC
 70
     0
  9
$MENU
  1
ACAD
  9
$ELEVATION
 40
0.0
  9
$THICKNESS
 40
0.0
  9
$VIEWDIR
 10
0.0
 20
0.0
 30
1.0
  9
$LIMCHECK
 70
     0
  9
$BLIPMODE
 70
     1
  9
$CHAMFERA
 40
0.0
  9
$CHAMFERB
 40
0.0
  9
$FASTZOOM
 70
     1
  9
$SKPOLY
 70
     0
  9
$TDCREATE
 40
0.000000
  9
$TDUPDATE
 40
0.000000
  9
$TDINDWG
 40
0.0
  9
$TDUSRTIMER
 40
0.0
  9
$USRTIMER
 70
     1
  9
$ANGBASE
 50
0.0
  9
$ANGDIR
 70
     0
  9
$PDMODE
 70
     0
  9
$PDSIZE
 40
0.0
  9
$PLINEWID
 40
0.0
  9
$COORDS
 70
     0
  9
$USERI1
 70
     0
  9
$USERI2
 70
     0
  9
$USERI3
 70
     0
  9
$USERI4
 70
     0
  9
$USERI5
 70
     0
  9
$USERR1
 40
0.0
  9
$USERR2
 40
0.0
  9
$USERR3
 40
0.0
  9
$USERR4
 40
0.0
  9
$USERR5
 40
0.0
  0
ENDSEC
  0
SECTION
  2
TABLES
  0
TABLE
  2
LTYPE
 70
     9
  0
LTYPE
  2
CONTINUOUS
 70
    64
  3
Solid line
 72
    65
 73
     0
 40
0.0
  0
LTYPE
  2
DASHED
 70
    64
  3
__ __ __ __ __ __ __ __ __ __ __ __ __ __ __
 72
    65
 73
     2
 40
0.75
 49
0.5
 49
-0.25
  0
LTYPE
  2
HIDDEN
 70
    64
  3
_ _ _ _ _ _ _ _ _ _ _ _ _ _ _ _ _ _ _ _ _ _ _
 72
    65
 73
     2
 40
0.375
 49
0.25
 49
-0.125
  0
LTYPE
  2
DOT
 70
    64
  3
...............................................
 72
    65
 73
     2
 40
0.25
 49
0.0
 49
-0.25
  0
LTYPE
  2
DASHDOT
 70
    64
  3
__ . __ . __ . __ . __ . __ . __ . __ . __ . __
 72
    65
 73
     4
 40
1.0
 49
0.5
 49
-0.25
 49
0.0
 49
-0.25
  0
LTYPE
  2
DIVIDE
 70
    64
  3
__ . . __ . . __ . . __ . . __ . . __ . . __
 72
    65
 73
     6
 40
1.25
 49
0.5
 49
-0.25
 49
0.0
 49
-0.25
 49
0.0
 49
-0.25
  0
LTYPE
  2
CENTER
 70
    64
  3
____ _ ____ _ ____ _ ____ _ ____ _ ____ _ ____ 
 72
    65
 73
     4
 40
2.0
 49
1.25
 49
-0.25
 49
0.25
 49
-0.25
  0
LTYPE
  2
PHANTOM
 70
    64
  3
______  __  __  ______  __  __  ______  __  __ 
 72
    65
 73
     6
 40
2.5
 49
1.25
 49
-0.25
 49
0.25
 49
-0.25
 49
0.25
 49
-0.25
  0
LTYPE
  2
BORDER
 70
    64
  3
__ __ . __ __ . __ __ . __ __ . __ __ . __ __ .
 72
    65
 73
     6
 40
1.75
 49
0.5
 49
-0.25
 49
0.5
 49
-0.25
 49
0.0
 49
-0.25
  0
ENDTAB
  0
TABLE
  2
LAYER
 70
    16
  0
LAYER
  2
CSLAYER1
 70
    64
 62
     7
  6
CONTINUOUS
  0
LAYER
  2
CSLAYER2
 70
    64
 62
     7
  6
CONTINUOUS
  0
LAYER
  2
CSLAYER3
 70
    64
 62
     7
  6
CONTINUOUS
  0
LAYER
  2
CSLAYER4
 70
    64
 62
     7
  6
CONTINUOUS
  0
LAYER
  2
CSLAYER5
 70
    64
 62
     7
  6
CONTINUOUS
  0
LAYER
  2
CSLAYER6
 70
    64
 62
     7
  6
CONTINUOUS
  0
LAYER
  2
CSLAYER7
 70
    64
 62
     7
  6
CONTINUOUS
  0
LAYER
  2
CSLAYER8
 70
    64
 62
     7
  6
CONTINUOUS
  0
LAYER
  2
CSLAYER9
 70
    64
 62
     7
  6
CONTINUOUS
  0
LAYER
  2
CSLAYER10
 70
    64
 62
     7
  6
CONTINUOUS
  0
LAYER
  2
CSLAYER11
 70
    64
 62
     7
  6
CONTINUOUS
  0
LAYER
  2
CSLAYER12
 70
    64
 62
     7
  6
CONTINUOUS
  0
LAYER
  2
CSLAYER13
 70
    64
 62
     7
  6
CONTINUOUS
  0
LAYER
  2
CSLAYER14
 70
    64
 62
     7
  6
CONTINUOUS
  0
LAYER
  2
CSLAYER15
 70
    64
 62
     7
  6
CONTINUOUS
  0
LAYER
  2
CSLAYER16
 70
    64
 62
     7
  6
CONTINUOUS
  0
ENDTAB
  0
TABLE
  2
STYLE
 70
     1
  0
STYLE
  2
JX_FONT
 70
     0
 40
1.0
 41
1.0
 50
0.0
 71
     0
 42
1.0
  3
monotxt
  4
bigfont
  0
ENDTAB
  0
TABLE
  2
VIEW
 70
     0
  0
ENDTAB
  0
ENDSEC
  0
SECTION
  2
BLOCKS
  0
ENDSEC
  0
SECTION
  2
ENTITIES
  0
LINE
  8
CSLAYER1
  6
CENTER
 62
     3
 10
202.463850
 20
43.881155
 11
202.463850
 21
65.881155
  0
ARC
  8
CSLAYER1
  6
CONTINUOUS
 62
     6
 10
202.463850
 20
55.981161
 40
1.100000
 50
-89.999999
 51
90.000019
  0
ARC
  8
CSLAYER1
  6
CONTINUOUS
 62
     6
 10
202.463850
 20
53.781149
 40
1.100000
 50
-89.999999
 51
90.000019
  0
LINE
  8
CSLAYER1
  6
CONTINUOUS
 62
     6
 10
203.563856
 20
55.981161
 11
203.563856
 21
53.781149
  0
ARC
  8
CSLAYER1
  6
CONTINUOUS
 62
     6
 10
202.463850
 20
54.881155
 40
8.000000
 50
-163.520967
 51
163.520790
  0
ARC
  8
CSLAYER1
  6
CONTINUOUS
 62
     6
 10
198.393080
 20
56.531133
 40
1.100006
 50
149.999997
 51
209.999999
  0
ARC
  8
CSLAYER1
  6
CONTINUOUS
 62
     6
 10
198.393080
 20
55.431127
 40
1.100006
 50
149.999997
 51
209.999999
  0
ARC
  8
CSLAYER1
  6
CONTINUOUS
 62
     6
 10
196.487807
 20
55.431127
 40
1.100006
 50
-30.000011
 51
29.999977
  0
ARC
  8
CSLAYER1
  6
CONTINUOUS
 62
     6
 10
198.393080
 20
54.331152
 40
1.100006
 50
149.999997
 51
209.999999
  0
ARC
  8
CSLAYER1
  6
CONTINUOUS
 62
     6
 10
198.393080
 20
53.231146
 40
1.100006
 50
149.999997
 51
209.999999
  0
ARC
  8
CSLAYER1
  6
CONTINUOUS
 62
     6
 10
196.487807
 20
53.231146
 40
1.100006
 50
-30.000011
 51
29.999977
  0
LINE
  8
CSLAYER1
  6
CONTINUOUS
 62
     6
 10
196.940443
 20
54.881155
 11
202.463850
 21
54.881155
  0
LINE
  8
CSLAYER1
  6
CONTINUOUS
 62
     6
 10
197.440447
 20
57.081136
 11
202.463850
 21
57.081136
  0
LINE
  8
CSLAYER1
  6
CONTINUOUS
 62
     6
 10
197.440440
 20
52.681143
 11
202.463850
 21
52.681143
  0
ARC
  8
CSLAYER1
  6
CONTINUOUS
 62
     6
 10
196.161684
 20
70.640017
 40
15.758816
 50
242.536193
 51
270.000110
  0
ARC
  8
CSLAYER1
  6
CONTINUOUS
 62
     6
 10
196.161684
 20
70.640017
 40
13.558834
 50
242.536193
 51
270.000083
  0
ARC
  8
CSLAYER1
  6
CONTINUOUS
 62
     6
 10
195.209074
 20
55.431188
 40
1.099999
 50
-29.999656
 51
30.000332
  0
ARC
  8
CSLAYER1
  6
CONTINUOUS
 62
     6
 10
195.209059
 20
56.531179
 40
1.099999
 50
-29.999656
 51
30.000332
  0
ARC
  8
CSLAYER1
  6
CONTINUOUS
 62
     6
 10
197.114317
 20
56.531194
 40
1.099999
 50
150.000353
 51
210.000354
  0
LINE
  8
CSLAYER1
  6
CONTINUOUS
 62
     6
 10
189.566743
 20
57.951632
 11
186.628664
 21
59.568789
  0
LINE
  8
CSLAYER1
  6
CONTINUOUS
 62
     6
 10
189.312593
 20
57.462710
 11
186.305177
 21
59.039492
  0
LINE
  8
CSLAYER1
  6
CONTINUOUS
 62
     6
 10
189.105653
 20
57.064578
 11
186.025850
 21
58.466067
  0
LINE
  8
CSLAYER1
  6
CONTINUOUS
 62
     6
 10
189.908540
 20
58.609255
 11
188.893922
 21
56.657198
  0
ARC
  8
CSLAYER1
  6
CONTINUOUS
 62
     6
 10
196.161684
 20
39.122317
 40
15.758816
 50
89.999900
 51
117.463817
  0
ARC
  8
CSLAYER1
  6
CONTINUOUS
 62
     6
 10
196.161684
 20
39.122317
 40
13.558834
 50
89.999927
 51
117.463817
  0
ARC
  8
CSLAYER1
  6
CONTINUOUS
 62
     6
 10
195.209059
 20
53.231161
 40
1.099999
 50
-30.000346
 51
29.999656
  0
ARC
  8
CSLAYER1
  6
CONTINUOUS
 62
     6
 10
195.209074
 20
54.331152
 40
1.099999
 50
-30.000346
 51
29.999656
  0
ARC
  8
CSLAYER1
  6
CONTINUOUS
 62
     6
 10
197.114332
 20
54.331136
 40
1.099999
 50
149.999656
 51
209.999658
  0
LINE
  8
CSLAYER1
  6
CONTINUOUS
 62
     6
 10
189.566743
 20
51.810732
 11
186.628664
 21
50.193575
  0
LINE
  8
CSLAYER1
  6
CONTINUOUS
 62
     6
 10
189.312593
 20
52.299654
 11
186.305177
 21
50.722872
  0
LINE
  8
CSLAYER1
  6
CONTINUOUS
 62
     6
 10
189.105653
 20
52.697787
 11
186.025850
 21
51.296298
  0
LINE
  8
CSLAYER1
  6
CONTINUOUS
 62
     6
 10
189.908540
 20
51.153109
 11
188.893922
 21
53.105166
  0
LINE
  8
CSLAYER1
  6
CONTINUOUS
 62
     6
 10
188.463850
 20
84.453481
 11
213.463881
 21
84.881124
  0
LINE
  8
CSLAYER1
  6
CONTINUOUS
 62
     6
 10
188.463850
 20
25.308798
 11
213.463881
 21
24.881155
  0
LINE
  8
CSLAYER1
  6
CENTER
 62
     3
 10
163.463850
 20
48.381155
 11
163.463850
 21
61.381155
  0
ARC
  8
CSLAYER1
  6
CONTINUOUS
 62
     6
 10
163.463850
 20
55.574145
 40
0.693004
 50
-89.999999
 51
90.000019
  0
ARC
  8
CSLAYER1
  6
CONTINUOUS
 62
     6
 10
163.463850
 20
54.188137
 40
0.693004
 50
-90.000027
 51
89.999992
  0
LINE
  8
CSLAYER1
  6
CONTINUOUS
 62
     6
 10
164.156868
 20
55.574145
 11
164.156868
 21
54.188137
  0
ARC
  8
CSLAYER1
  6
CONTINUOUS
 62
     6
 10
163.463850
 20
54.881155
 40
4.500000
 50
-162.061155
 51
162.061522
  0
ARC
  8
CSLAYER1
  6
CONTINUOUS
 62
     6
 10
157.306068
 20
64.809225
 40
9.928054
 50
242.536193
 51
269.942682
  0
ARC
  8
CSLAYER1
  6
CONTINUOUS
 62
     6
 10
157.306068
 20
64.809225
 40
8.542065
 50
242.536193
 51
269.942682
  0
LINE
  8
CSLAYER1
  6
CONTINUOUS
 62
     6
 10
153.151259
 20
56.815518
 11
151.300282
 21
57.834335
  0
LINE
  8
CSLAYER1
  6
CONTINUOUS
 62
     6
 10
153.366591
 20
57.229839
 11
152.727379
 21
56.000030
  0
ARC
  8
CSLAYER1
  6
CONTINUOUS
 62
     6
 10
159.475561
 20
55.920654
 40
0.693004
 50
149.999997
 51
209.999999
  0
ARC
  8
CSLAYER1
  6
CONTINUOUS
 62
     6
 10
159.475561
 20
55.227636
 40
0.693004
 50
149.999997
 51
209.999999
  0
ARC
  8
CSLAYER1
  6
CONTINUOUS
 62
     6
 10
158.275249
 20
55.227636
 40
0.693004
 50
-30.000011
 51
29.999977
  0
ARC
  8
CSLAYER1
  6
CONTINUOUS
 62
     6
 10
157.306068
 20
44.953085
 40
8.542065
 50
89.999975
 51
117.463872
  0
LINE
  8
CSLAYER1
  6
CONTINUOUS
 62
     6
 10
153.151259
 20
52.946764
 11
151.300282
 21
51.927947
  0
LINE
  8
CSLAYER1
  6
CONTINUOUS
 62
     6
 10
153.366591
 20
52.532470
 11
152.727351
 21
53.762252
  0
ARC
  8
CSLAYER1
  6
CONTINUOUS
 62
     6
 10
157.306068
 20
44.953085
 40
9.928054
 50
90.000003
 51
117.463872
  0
ARC
  8
CSLAYER1
  6
CONTINUOUS
 62
     6
 10
159.475561
 20
54.534646
 40
0.693004
 50
149.999997
 51
209.999999
  0
ARC
  8
CSLAYER1
  6
CONTINUOUS
 62
     6
 10
159.475561
 20
53.841628
 40
0.693004
 50
149.999997
 51
209.999999
  0
ARC
  8
CSLAYER1
  6
CONTINUOUS
 62
     6
 10
158.275249
 20
53.841628
 40
0.693004
 50
-30.000011
 51
29.999977
  0
ARC
  8
CSLAYER1
  6
CONTINUOUS
 62
     6
 10
157.242699
 20
55.227664
 40
0.692999
 50
-29.999656
 51
30.000332
  0
ARC
  8
CSLAYER1
  6
CONTINUOUS
 62
     6
 10
157.242699
 20
55.920667
 40
0.692999
 50
-29.999656
 51
30.000332
  0
ARC
  8
CSLAYER1
  6
CONTINUOUS
 62
     6
 10
158.443011
 20
55.920681
 40
0.692999
 50
150.000353
 51
210.000354
  0
ARC
  8
CSLAYER1
  6
CONTINUOUS
 62
     6
 10
157.242699
 20
53.841656
 40
0.692999
 50
-29.999656
 51
30.000332
  0
ARC
  8
CSLAYER1
  6
CONTINUOUS
 62
     6
 10
157.242699
 20
54.534660
 40
0.692999
 50
-29.999656
 51
30.000332
  0
ARC
  8
CSLAYER1
  6
CONTINUOUS
 62
     6
 10
158.443011
 20
54.534673
 40
0.692999
 50
150.000353
 51
210.000354
  0
LINE
  8
CSLAYER1
  6
CONTINUOUS
 62
     6
 10
157.306068
 20
56.267162
 11
157.842855
 21
56.267162
  0
LINE
  8
CSLAYER1
  6
CONTINUOUS
 62
     6
 10
157.306068
 20
54.881127
 11
157.842855
 21
54.881127
  0
LINE
  8
CSLAYER1
  6
CONTINUOUS
 62
     6
 10
157.306123
 20
53.495147
 11
157.842855
 21
53.495147
  0
LINE
  8
CSLAYER1
  6
CONTINUOUS
 62
     6
 10
152.991133
 20
56.507516
 11
151.726469
 21
57.500872
  0
LINE
  8
CSLAYER1
  6
CONTINUOUS
 62
     6
 10
152.860780
 20
56.256698
 11
151.550496
 21
57.139614
  0
LINE
  8
CSLAYER1
  6
CONTINUOUS
 62
     6
 10
152.991133
 20
53.254794
 11
151.726469
 21
52.261410
  0
LINE
  8
CSLAYER1
  6
CONTINUOUS
 62
     6
 10
152.860780
 20
53.505612
 11
151.550496
 21
52.622668
  0
LINE
  8
CSLAYER1
  6
CONTINUOUS
 62
     6
 10
163.463850
 20
54.881155
 11
158.875405
 21
54.881155
  0
LINE
  8
CSLAYER1
  6
CONTINUOUS
 62
     6
 10
163.463850
 20
56.267135
 11
158.875405
 21
56.267135
  0
LINE
  8
CSLAYER1
  6
CONTINUOUS
 62
     6
 10
163.463850
 20
53.495147
 11
158.875405
 21
53.495147
  0
LINE
  8
CSLAYER1
  6
CONTINUOUS
 62
     6
 10
147.463850
 20
78.881141
 11
147.463850
 21
30.881141
  0
LINE
  8
CSLAYER1
  6
CONTINUOUS
 62
     6
 10
188.463850
 20
24.881141
 11
188.463850
 21
84.881141
  0
CIRCLE
  8
CSLAYER1
  6
CONTINUOUS
 62
     6
 10
370.963925
 20
153.881157
 40
4.000000
  0
CIRCLE
  8
CSLAYER1
  6
CONTINUOUS
 62
     6
 10
370.963925
 20
153.881157
 40
15.000000
  0
CIRCLE
  8
CSLAYER1
  6
CONTINUOUS
 62
     6
 10
370.963925
 20
153.881157
 40
17.500000
  0
CIRCLE
  8
CSLAYER1
  6
CONTINUOUS
 62
     6
 10
370.963909
 20
153.881157
 40
11.000000
  0
LINE
  8
CSLAYER1
  6
CENTER
 62
     3
 10
144.463850
 20
54.881141
 11
319.963911
 21
54.881141
  0
ARC
  8
CSLAYER1
  6
CENTER
 62
     3
 10
370.963909
 20
153.881172
 40
24.000000
 50
294.927254
 51
335.072670
  0
CIRCLE
  8
CSLAYER1
  6
CONTINUOUS
 62
     6
 10
387.934429
 20
136.910606
 40
4.500000
  0
ARC
  8
CSLAYER1
  6
CONTINUOUS
 62
     6
 10
387.934429
 20
136.910606
 40
2.397500
 50
73.398434
 51
106.601595
  0
ARC
  8
CSLAYER1
  6
CONTINUOUS
 62
     6
 10
387.934429
 20
136.910606
 40
2.397500
 50
-16.601576
 51
16.601586
  0
ARC
  8
CSLAYER1
  6
CONTINUOUS
 62
     6
 10
387.934429
 20
136.910606
 40
2.397500
 50
253.398442
 51
286.601576
  0
ARC
  8
CSLAYER1
  6
CONTINUOUS
 62
     6
 10
387.934429
 20
136.910606
 40
2.397500
 50
163.398416
 51
196.601604
  0
LINE
  8
CSLAYER1
  6
CONTINUOUS
 62
     6
 10
388.619427
 20
135.540611
 11
388.619427
 21
134.613044
  0
LINE
  8
CSLAYER1
  6
CONTINUOUS
 62
     6
 10
388.619427
 20
138.280601
 11
388.619427
 21
139.208168
  0
LINE
  8
CSLAYER1
  6
CONTINUOUS
 62
     6
 10
387.249432
 20
135.540611
 11
387.249432
 21
134.613044
  0
LINE
  8
CSLAYER1
  6
CONTINUOUS
 62
     6
 10
387.249432
 20
138.280601
 11
387.249432
 21
139.208168
  0
LINE
  8
CSLAYER1
  6
CONTINUOUS
 62
     6
 10
389.304425
 20
137.595604
 11
390.231976
 21
137.595604
  0
LINE
  8
CSLAYER1
  6
CONTINUOUS
 62
     6
 10
386.564434
 20
137.595604
 11
385.636883
 21
137.595604
  0
LINE
  8
CSLAYER1
  6
CONTINUOUS
 62
     6
 10
389.304425
 20
136.225609
 11
390.231976
 21
136.225609
  0
LINE
  8
CSLAYER1
  6
CONTINUOUS
 62
     6
 10
386.564434
 20
136.225609
 11
385.636883
 21
136.225609
  0
ARC
  8
CSLAYER1
  6
CONTINUOUS
 62
     6
 10
389.304425
 20
135.540611
 40
0.685000
 50
90.000001
 51
179.942691
  0
ARC
  8
CSLAYER1
  6
CONTINUOUS
 62
     6
 10
386.564434
 20
135.540611
 40
0.685000
 50
0.000005
 51
90.000001
  0
ARC
  8
CSLAYER1
  6
CONTINUOUS
 62
     6
 10
386.564434
 20
138.280601
 40
0.685000
 50
-89.999991
 51
0.000005
  0
ARC
  8
CSLAYER1
  6
CONTINUOUS
 62
     6
 10
389.304425
 20
138.280601
 40
0.685000
 50
180.000000
 51
270.000009
  0
CIRCLE
  8
CSLAYER1
  6
CONTINUOUS
 62
     6
 10
387.934429
 20
136.910606
 40
5.500000
  0
LINE
  8
CSLAYER1
  6
CENTER
 62
     3
 10
392.914288
 20
131.930778
 11
382.954634
 21
141.890418
  0
ARC
  8
CSLAYER1
  6
CENTER
 62
     3
 10
370.963909
 20
153.881141
 40
24.000000
 50
114.927254
 51
155.072670
  0
CIRCLE
  8
CSLAYER1
  6
CONTINUOUS
 62
     6
 10
353.993389
 20
170.851707
 40
4.500000
  0
ARC
  8
CSLAYER1
  6
CONTINUOUS
 62
     6
 10
353.993389
 20
170.851707
 40
2.397500
 50
253.398434
 51
286.601595
  0
ARC
  8
CSLAYER1
  6
CONTINUOUS
 62
     6
 10
353.993389
 20
170.851707
 40
2.397500
 50
163.398424
 51
196.601586
  0
ARC
  8
CSLAYER1
  6
CONTINUOUS
 62
     6
 10
353.993389
 20
170.851707
 40
2.397500
 50
73.398442
 51
106.601576
  0
ARC
  8
CSLAYER1
  6
CONTINUOUS
 62
     6
 10
353.993389
 20
170.851707
 40
2.397500
 50
-16.601584
 51
16.601604
  0
LINE
  8
CSLAYER1
  6
CONTINUOUS
 62
     6
 10
353.308392
 20
172.221702
 11
353.308392
 21
173.149269
  0
LINE
  8
CSLAYER1
  6
CONTINUOUS
 62
     6
 10
353.308392
 20
169.481712
 11
353.308392
 21
168.554146
  0
LINE
  8
CSLAYER1
  6
CONTINUOUS
 62
     6
 10
354.678387
 20
172.221702
 11
354.678387
 21
173.149269
  0
LINE
  8
CSLAYER1
  6
CONTINUOUS
 62
     6
 10
354.678387
 20
169.481712
 11
354.678387
 21
168.554146
  0
LINE
  8
CSLAYER1
  6
CONTINUOUS
 62
     6
 10
352.623394
 20
170.166710
 11
351.695843
 21
170.166710
  0
LINE
  8
CSLAYER1
  6
CONTINUOUS
 62
     6
 10
355.363385
 20
170.166710
 11
356.290936
 21
170.166710
  0
LINE
  8
CSLAYER1
  6
CONTINUOUS
 62
     6
 10
352.623394
 20
171.536705
 11
351.695843
 21
171.536705
  0
LINE
  8
CSLAYER1
  6
CONTINUOUS
 62
     6
 10
355.363385
 20
171.536705
 11
356.290936
 21
171.536705
  0
ARC
  8
CSLAYER1
  6
CONTINUOUS
 62
     6
 10
352.623394
 20
172.221702
 40
0.685000
 50
270.000001
 51
359.942691
  0
ARC
  8
CSLAYER1
  6
CONTINUOUS
 62
     6
 10
355.363385
 20
172.221702
 40
0.685000
 50
180.000005
 51
270.000001
  0
ARC
  8
CSLAYER1
  6
CONTINUOUS
 62
     6
 10
355.363385
 20
169.481712
 40
0.685000
 50
90.000009
 51
180.000005
  0
ARC
  8
CSLAYER1
  6
CONTINUOUS
 62
     6
 10
352.623394
 20
169.481712
 40
0.685000
 50
0.000000
 51
90.000009
  0
CIRCLE
  8
CSLAYER1
  6
CONTINUOUS
 62
     6
 10
353.993389
 20
170.851707
 40
5.500000
  0
LINE
  8
CSLAYER1
  6
CENTER
 62
     3
 10
349.013531
 20
175.831535
 11
358.973185
 21
165.871896
  0
CIRCLE
  8
CSLAYER1
  6
CONTINUOUS
 62
     6
 10
375.724804
 20
145.611564
 40
0.999999
  0
ARC
  8
CSLAYER1
  6
CONTINUOUS
 62
     6
 10
375.724804
 20
145.611564
 40
2.143138
 50
50.235874
 51
203.481567
  0
LINE
  8
CSLAYER1
  6
CONTINUOUS
 62
     6
 10
373.759136
 20
144.757637
 11
374.186199
 21
143.363731
  0
CIRCLE
  8
CSLAYER1
  6
CONTINUOUS
 62
     6
 10
366.203015
 20
145.611564
 40
0.999999
  0
ARC
  8
CSLAYER1
  6
CONTINUOUS
 62
     6
 10
366.203015
 20
145.611564
 40
2.143138
 50
-23.481552
 51
129.764124
  0
LINE
  8
CSLAYER1
  6
CONTINUOUS
 62
     6
 10
368.168682
 20
144.757637
 11
367.741619
 21
143.363731
  0
ARC
  8
CSLAYER1
  6
CONTINUOUS
 62
     6
 10
370.963909
 20
153.299553
 40
9.581602
 50
-37.903087
 51
217.903071
  0
ARC
  8
CSLAYER1
  6
CONTINUOUS
 62
     6
 10
377.735241
 20
148.027656
 40
0.999999
 50
230.236306
 51
322.096613
  0
ARC
  8
CSLAYER1
  6
CONTINUOUS
 62
     6
 10
364.192578
 20
148.027656
 40
0.999999
 50
217.903402
 51
309.763723
  0
LINE
  8
CSLAYER1
  6
CONTINUOUS
 62
     6
 10
402.963909
 20
127.881157
 11
402.963909
 21
179.881096
  0
LINE
  8
CSLAYER1
  6
CENTER
 62
     3
 10
335.963909
 20
153.881157
 11
405.963909
 21
153.881157
  0
LINE
  8
CSLAYER1
  6
CONTINUOUS
 62
     6
 10
344.963909
 20
121.881157
 11
396.963909
 21
121.881157
  0
ARC
  8
CSLAYER1
  6
CONTINUOUS
 62
     6
 10
396.963909
 20
127.881157
 40
6.000000
 50
-90.000000
 51
0.000003
  0
LINE
  8
CSLAYER1
  6
CONTINUOUS
 62
     6
 10
338.963909
 20
127.881157
 11
338.963909
 21
179.881096
  0
LINE
  8
CSLAYER1
  6
CONTINUOUS
 62
     6
 10
344.963909
 20
185.881096
 11
396.963909
 21
185.881096
  0
LINE
  8
CSLAYER1
  6
CENTER
 62
     3
 10
370.963909
 20
118.881187
 11
370.963909
 21
188.881065
  0
ARC
  8
CSLAYER1
  6
CONTINUOUS
 62
     6
 10
396.963909
 20
179.881157
 40
6.000000
 50
0.000000
 51
90.000003
  0
ARC
  8
CSLAYER1
  6
CONTINUOUS
 62
     6
 10
344.963909
 20
179.881157
 40
6.000000
 50
90.000000
 51
180.000003
  0
ARC
  8
CSLAYER1
  6
CONTINUOUS
 62
     6
 10
344.963909
 20
127.881157
 40
6.000000
 50
179.999997
 51
270.000000
  0
LINE
  8
CSLAYER1
  6
CONTINUOUS
 62
     6
 10
316.963927
 20
58.881141
 11
292.463896
 21
58.881141
  0
LINE
  8
CSLAYER1
  6
CONTINUOUS
 62
     6
 10
316.963896
 20
50.881157
 11
292.463927
 21
50.881157
  0
LINE
  8
CSLAYER1
  6
CONTINUOUS
 62
     6
 10
316.963927
 20
58.881141
 11
316.963896
 21
50.881157
  0
LINE
  8
CSLAYER1
  6
CONTINUOUS
 62
     6
 10
281.463896
 20
24.881157
 11
280.463896
 21
24.881157
  0
LINE
  8
CSLAYER1
  6
CONTINUOUS
 62
     6
 10
292.463896
 20
39.881157
 11
292.463896
 21
69.881172
  0
LINE
  8
CSLAYER1
  6
CONTINUOUS
 62
     6
 10
281.463896
 20
84.881172
 11
280.463896
 21
84.881172
  0
ARC
  8
CSLAYER1
  6
CONTINUOUS
 62
     6
 10
283.463896
 20
84.881172
 40
2.000000
 50
90.000003
 51
179.999991
  0
LINE
  8
CSLAYER1
  6
CONTINUOUS
 62
     6
 10
290.463896
 20
22.881157
 11
290.463896
 21
86.881172
  0
LINE
  8
CSLAYER1
  6
CONTINUOUS
 62
     6
 10
292.463896
 20
69.881172
 11
290.463896
 21
69.881172
  0
LINE
  8
CSLAYER1
  6
CONTINUOUS
 62
     6
 10
290.463896
 20
86.881172
 11
283.463896
 21
86.881172
  0
LINE
  8
CSLAYER1
  6
CONTINUOUS
 62
     6
 10
290.463896
 20
39.881157
 11
292.463911
 21
39.881156
  0
ARC
  8
CSLAYER1
  6
CONTINUOUS
 62
     6
 10
283.463896
 20
24.881157
 40
2.000000
 50
180.000005
 51
269.999973
  0
LINE
  8
CSLAYER1
  6
CONTINUOUS
 62
     6
 10
290.463896
 20
22.881157
 11
283.463896
 21
22.881157
  0
LINE
  8
CSLAYER1
  6
CONTINUOUS
 62
     6
 10
281.463896
 20
84.881172
 11
281.463896
 21
24.881157
  0
LINE
  8
CSLAYER1
  6
CENTER
 62
     3
 10
278.804259
 20
28.881157
 11
291.849913
 21
28.881157
  0
LINE
  8
CSLAYER1
  6
CONTINUOUS
 62
     6
 10
292.463911
 20
69.881156
 11
290.463911
 21
69.881156
  0
LINE
  8
CSLAYER1
  6
CENTER
 62
     3
 10
278.463918
 20
80.881151
 11
292.463918
 21
80.881148
  0
LINE
  8
CSLAYER1
  6
CONTINUOUS
 62
     6
 10
280.463896
 20
85.881172
 11
280.463896
 21
23.881157
  0
LINE
  8
CSLAYER1
  6
CONTINUOUS
 62
     6
 10
213.463881
 20
85.881172
 11
213.463881
 21
23.881157
  0
LINE
  8
CSLAYER1
  6
CONTINUOUS
 62
     6
 10
280.463896
 20
85.881172
 11
213.463881
 21
85.881172
  0
LINE
  8
CSLAYER1
  6
CONTINUOUS
 62
     6
 10
280.463896
 20
23.881157
 11
213.463881
 21
23.881157
  0
LINE
  8
CSLAYER1
  6
CENTER
 62
     3
 10
344.963909
 20
122.941887
 11
344.963909
 21
132.881157
  0
LINE
  8
CSLAYER1
  6
CENTER
 62
     3
 10
349.963909
 20
127.881157
 11
339.963909
 21
127.881157
  0
CIRCLE
  8
CSLAYER1
  6
CONTINUOUS
 62
     6
 10
344.963909
 20
127.881157
 40
2.250000
  0
LINE
  8
CSLAYER1
  6
CENTER
 62
     3
 10
344.963909
 20
184.820427
 11
344.963909
 21
174.881157
  0
LINE
  8
CSLAYER1
  6
CENTER
 62
     3
 10
349.963909
 20
179.881157
 11
339.963909
 21
179.881157
  0
CIRCLE
  8
CSLAYER1
  6
CONTINUOUS
 62
     6
 10
344.963909
 20
179.881157
 40
2.250000
  0
LINE
  8
CSLAYER1
  6
CENTER
 62
     3
 10
401.903179
 20
179.881157
 11
391.963909
 21
179.881157
  0
LINE
  8
CSLAYER1
  6
CENTER
 62
     3
 10
396.963909
 20
174.881157
 11
396.963909
 21
184.881157
  0
CIRCLE
  8
CSLAYER1
  6
CONTINUOUS
 62
     6
 10
396.963909
 20
179.881157
 40
2.250000
  0
LINE
  8
CSLAYER1
  6
CENTER
 62
     3
 10
396.963909
 20
122.941887
 11
396.963909
 21
132.881157
  0
LINE
  8
CSLAYER1
  6
CENTER
 62
     3
 10
391.963909
 20
127.881157
 11
401.963909
 21
127.881157
  0
CIRCLE
  8
CSLAYER1
  6
CONTINUOUS
 62
     6
 10
396.963909
 20
127.881157
 40
2.250000
  0
LINE
  8
CSLAYER1
  6
CENTER
 62
     3
 10
144.463850
 20
153.881157
 11
319.963911
 21
153.881157
  0
LINE
  8
CSLAYER1
  6
CONTINUOUS
 62
     3
 10
228.963911
 20
169.381126
 11
264.963888
 21
169.381126
  0
LINE
  8
CSLAYER1
  6
CONTINUOUS
 62
     3
 10
227.963911
 20
184.881157
 11
227.963911
 21
170.381126
  0
ARC
  8
CSLAYER1
  6
CONTINUOUS
 62
     3
 10
228.963911
 20
170.381126
 40
1.000000
 50
180.000019
 51
270.000028
  0
ARC
  8
CSLAYER1
  6
CONTINUOUS
 62
     3
 10
264.963888
 20
170.381126
 40
1.000000
 50
270.000028
 51
359.942691
  0
LINE
  8
CSLAYER1
  6
CONTINUOUS
 62
     3
 10
265.963888
 20
170.381126
 11
265.963888
 21
184.881157
  0
TEXT
  8
CSLAYER1
 62
     3
 10
244.939133
 20
182.381149
 40
3.500000
 41
1.125000
  1
N P
 50
270.000000
 51
10.000000
  7
JX_FONT
 72
     5
 11
244.939133
 21
171.881149
  0
LINE
  8
CSLAYER1
  6
CONTINUOUS
 62
     6
 10
316.963927
 20
157.881157
 11
292.463896
 21
157.881157
  0
LINE
  8
CSLAYER1
  6
CONTINUOUS
 62
     6
 10
316.963896
 20
149.881172
 11
292.463927
 21
149.881172
  0
LINE
  8
CSLAYER1
  6
CONTINUOUS
 62
     6
 10
316.963927
 20
157.881157
 11
316.963896
 21
149.881172
  0
LINE
  8
CSLAYER1
  6
CONTINUOUS
 62
     6
 10
281.463896
 20
123.881172
 11
280.463896
 21
123.881172
  0
LINE
  8
CSLAYER1
  6
CONTINUOUS
 62
     6
 10
292.463896
 20
138.881172
 11
292.463896
 21
168.881187
  0
LINE
  8
CSLAYER1
  6
CONTINUOUS
 62
     6
 10
281.463896
 20
183.881187
 11
280.463896
 21
183.881187
  0
ARC
  8
CSLAYER1
  6
CONTINUOUS
 62
     6
 10
283.463896
 20
183.881187
 40
2.000000
 50
90.000003
 51
179.999991
  0
LINE
  8
CSLAYER1
  6
CONTINUOUS
 62
     6
 10
290.463896
 20
121.881172
 11
290.463896
 21
185.881187
  0
LINE
  8
CSLAYER1
  6
CONTINUOUS
 62
     6
 10
292.463896
 20
168.881187
 11
290.463896
 21
168.881187
  0
LINE
  8
CSLAYER1
  6
CONTINUOUS
 62
     6
 10
290.463896
 20
185.881187
 11
283.463896
 21
185.881187
  0
LINE
  8
CSLAYER1
  6
CONTINUOUS
 62
     6
 10
290.463896
 20
138.881172
 11
292.463911
 21
138.881172
  0
ARC
  8
CSLAYER1
  6
CONTINUOUS
 62
     6
 10
283.463896
 20
123.881172
 40
2.000000
 50
180.000005
 51
269.999973
  0
LINE
  8
CSLAYER1
  6
CONTINUOUS
 62
     6
 10
290.463896
 20
121.881172
 11
283.463896
 21
121.881172
  0
LINE
  8
CSLAYER1
  6
CONTINUOUS
 62
     6
 10
281.463896
 20
183.881187
 11
281.463896
 21
123.881172
  0
LINE
  8
CSLAYER1
  6
CENTER
 62
     3
 10
278.804259
 20
127.881172
 11
291.849913
 21
127.881172
  0
LINE
  8
CSLAYER1
  6
CONTINUOUS
 62
     6
 10
292.463911
 20
168.881172
 11
290.463911
 21
168.881172
  0
LINE
  8
CSLAYER1
  6
CENTER
 62
     3
 10
278.463918
 20
179.881166
 11
292.463918
 21
179.881163
  0
LINE
  8
CSLAYER1
  6
CONTINUOUS
 62
     6
 10
280.463927
 20
184.881157
 11
213.463894
 21
184.881157
  0
LINE
  8
CSLAYER1
  6
CONTINUOUS
 62
     6
 10
280.463927
 20
122.881157
 11
213.463894
 21
122.881157
  0
LINE
  8
CSLAYER1
  6
CONTINUOUS
 62
     6
 10
280.463896
 20
184.881157
 11
280.463896
 21
122.881157
  0
LINE
  8
CSLAYER1
  6
CONTINUOUS
 62
     6
 10
213.463894
 20
184.881157
 11
213.463894
 21
122.881157
  0
ARC
  8
CSLAYER1
  6
CONTINUOUS
 62
     6
 10
202.463850
 20
54.881155
 40
8.000000
 50
179.343106
 51
180.656719
  0
LINE
  8
CSLAYER1
  6
CONTINUOUS
 62
     6
 10
121.463894
 20
127.881157
 11
121.463894
 21
151.566890
  0
LINE
  8
CSLAYER1
  6
CENTER
 62
     3
 10
54.463894
 20
153.881157
 11
124.463894
 21
153.881157
  0
LINE
  8
CSLAYER1
  6
CONTINUOUS
 62
     6
 10
63.463894
 20
121.881157
 11
85.437866
 21
121.881157
  0
ARC
  8
CSLAYER1
  6
CONTINUOUS
 62
     6
 10
115.463894
 20
127.881157
 40
6.000000
 50
-90.000000
 51
0.000003
  0
LINE
  8
CSLAYER1
  6
CONTINUOUS
 62
     6
 10
57.463894
 20
127.881157
 11
57.463894
 21
151.566919
  0
LINE
  8
CSLAYER1
  6
CONTINUOUS
 62
     6
 10
63.463894
 20
185.881096
 11
87.149605
 21
185.881096
  0
LINE
  8
CSLAYER1
  6
CENTER
 62
     3
 10
89.463894
 20
104.134707
 11
89.463894
 21
188.881065
  0
ARC
  8
CSLAYER1
  6
CONTINUOUS
 62
     6
 10
115.463894
 20
179.881157
 40
6.000000
 50
0.000000
 51
90.000003
  0
ARC
  8
CSLAYER1
  6
CONTINUOUS
 62
     6
 10
63.463894
 20
179.881157
 40
6.000000
 50
90.000000
 51
180.000003
  0
ARC
  8
CSLAYER1
  6
CONTINUOUS
 62
     6
 10
63.463894
 20
127.881157
 40
6.000000
 50
179.999997
 51
270.000000
  0
LINE
  8
CSLAYER1
  6
CENTER
 62
     3
 10
63.463894
 20
122.941887
 11
63.463894
 21
132.881157
  0
LINE
  8
CSLAYER1
  6
CENTER
 62
     3
 10
68.463894
 20
127.881157
 11
58.463894
 21
127.881157
  0
CIRCLE
  8
CSLAYER1
  6
CONTINUOUS
 62
     6
 10
63.463894
 20
127.881157
 40
2.250000
  0
LINE
  8
CSLAYER1
  6
CENTER
 62
     3
 10
63.463894
 20
184.820427
 11
63.463894
 21
174.881157
  0
LINE
  8
CSLAYER1
  6
CENTER
 62
     3
 10
68.463894
 20
179.881157
 11
58.463894
 21
179.881157
  0
CIRCLE
  8
CSLAYER1
  6
CONTINUOUS
 62
     6
 10
63.463894
 20
179.881157
 40
2.250000
  0
LINE
  8
CSLAYER1
  6
CENTER
 62
     3
 10
120.403164
 20
179.881157
 11
110.463894
 21
179.881157
  0
LINE
  8
CSLAYER1
  6
CENTER
 62
     3
 10
115.463894
 20
174.881157
 11
115.463894
 21
184.881157
  0
CIRCLE
  8
CSLAYER1
  6
CONTINUOUS
 62
     6
 10
115.463894
 20
179.881157
 40
2.250000
  0
LINE
  8
CSLAYER1
  6
CENTER
 62
     3
 10
115.463894
 20
122.941887
 11
115.463894
 21
132.881157
  0
LINE
  8
CSLAYER1
  6
CENTER
 62
     3
 10
110.463894
 20
127.881157
 11
120.463894
 21
127.881157
  0
CIRCLE
  8
CSLAYER1
  6
CONTINUOUS
 62
     6
 10
115.463894
 20
127.881157
 40
2.250000
  0
LINE
  8
CSLAYER1
  6
CONTINUOUS
 62
     6
 10
121.463894
 20
156.195394
 11
121.463894
 21
179.881096
  0
LINE
  8
CSLAYER1
  6
CONTINUOUS
 62
     6
 10
93.489892
 20
121.881157
 11
115.463894
 21
121.881157
  0
LINE
  8
CSLAYER1
  6
CONTINUOUS
 62
     6
 10
91.778212
 20
185.881096
 11
115.463894
 21
185.881096
  0
LINE
  8
CSLAYER1
  6
CONTINUOUS
 62
     6
 10
57.463894
 20
156.195423
 11
57.463894
 21
179.881096
  0
LINE
  8
CSLAYER1
  6
CONTINUOUS
 62
     6
 10
153.463864
 20
183.881157
 11
188.463864
 21
183.881157
  0
LINE
  8
CSLAYER1
  6
CONTINUOUS
 62
     6
 10
153.463864
 20
123.881157
 11
188.463864
 21
123.881157
  0
ARC
  8
CSLAYER1
  6
CONTINUOUS
 62
     6
 10
153.463864
 20
177.881157
 40
6.000000
 50
90.000003
 51
180.000005
  0
ARC
  8
CSLAYER1
  6
CONTINUOUS
 62
     6
 10
153.463864
 20
129.881157
 40
6.000000
 50
180.000005
 51
270.000001
  0
LINE
  8
CSLAYER1
  6
CONTINUOUS
 62
     6
 10
147.463864
 20
177.881157
 11
147.463864
 21
129.881157
  0
LINE
  8
CSLAYER1
  6
CONTINUOUS
 62
     6
 10
188.463864
 20
123.881157
 11
188.463864
 21
183.881157
  0
LINE
  8
CSLAYER1
  6
CENTER
 62
     3
 10
202.463864
 20
102.598262
 11
202.463864
 21
166.881159
  0
LINE
  8
CSLAYER1
  6
CONTINUOUS
 62
     6
 10
188.463864
 20
183.453495
 11
213.463894
 21
183.881138
  0
LINE
  8
CSLAYER1
  6
CONTINUOUS
 62
     6
 10
188.463864
 20
124.308812
 11
213.463894
 21
123.881169
  0
LINE
  8
CSLAYER1
  6
CENTER
 62
     3
 10
185.463864
 20
149.131157
 11
185.463864
 21
158.631157
  0
LINE
  8
CSLAYER1
  6
CENTER
 62
     3
 10
185.463864
 20
181.268944
 11
185.463864
 21
189.581169
  0
LINE
  8
CSLAYER1
  6
CENTER
 62
     3
 10
185.463879
 20
126.493339
 11
185.463879
 21
118.181144
  0
LINE
  8
CSLAYER1
  6
CENTER
 62
     3
 10
163.463864
 20
126.493339
 11
163.461507
 21
110.227287
  0
LINE
  8
CSLAYER1
  6
CONTINUOUS
 62
     6
 10
160.363864
 20
121.531157
 11
166.563864
 21
121.531157
  0
ARC
  8
CSLAYER1
  6
CONTINUOUS
 62
     6
 10
166.563864
 20
122.931157
 40
1.400000
 50
270.000000
 51
360.000000
  0
ARC
  8
CSLAYER1
  6
CONTINUOUS
 62
     6
 10
160.363864
 20
122.931157
 40
1.400000
 50
180.000000
 51
270.000000
  0
ARC
  8
CSLAYER1
  6
CONTINUOUS
 62
     6
 10
187.808271
 20
112.645503
 40
15.758816
 50
332.536202
 51
359.942691
  0
ARC
  8
CSLAYER1
  6
CONTINUOUS
 62
     6
 10
187.808271
 20
112.645503
 40
13.558834
 50
332.536202
 51
359.942691
  0
ARC
  8
CSLAYER1
  6
CONTINUOUS
 62
     6
 10
203.017103
 20
111.692912
 40
1.099999
 50
60.000350
 51
120.000345
  0
ARC
  8
CSLAYER1
  6
CONTINUOUS
 62
     6
 10
201.917105
 20
111.692897
 40
1.099999
 50
60.000350
 51
120.000345
  0
ARC
  8
CSLAYER1
  6
CONTINUOUS
 62
     6
 10
201.917097
 20
113.598155
 40
1.099999
 50
240.000362
 51
300.000350
  0
LINE
  8
CSLAYER1
  6
CONTINUOUS
 62
     6
 10
199.839048
 20
106.392344
 11
201.791105
 21
105.377726
  0
ARC
  8
CSLAYER1
  6
CONTINUOUS
 62
     6
 10
217.125959
 20
112.645503
 40
15.758816
 50
201.534034
 51
207.463868
  0
ARC
  8
CSLAYER1
  6
CONTINUOUS
 62
     6
 10
217.125959
 20
112.645503
 40
13.558834
 50
179.999978
 51
207.463868
  0
LINE
  8
CSLAYER1
  6
CONTINUOUS
 62
     6
 10
205.095182
 20
106.392329
 11
203.143126
 21
105.377711
  0
ARC
  8
CSLAYER1
  6
CONTINUOUS
 62
     6
 10
201.917128
 20
116.510371
 40
1.100006
 50
240.000007
 51
299.999995
  0
ARC
  8
CSLAYER1
  6
CONTINUOUS
 62
     6
 10
203.017134
 20
116.510371
 40
1.100006
 50
240.000007
 51
299.999995
  0
ARC
  8
CSLAYER1
  6
CONTINUOUS
 62
     6
 10
203.017134
 20
114.605097
 40
1.100006
 50
60.000002
 51
120.000003
  0
LINE
  8
CSLAYER1
  6
CONTINUOUS
 62
     6
 10
203.567122
 20
124.052851
 11
203.567122
 21
115.557734
  0
LINE
  8
CSLAYER1
  6
CONTINUOUS
 62
     6
 10
201.367125
 20
124.094477
 11
201.367125
 21
115.557734
  0
LINE
  8
CSLAYER1
  6
CONTINUOUS
 62
     6
 10
204.608076
 20
106.139140
 11
206.225264
 21
103.201090
  0
LINE
  8
CSLAYER1
  6
CONTINUOUS
 62
     6
 10
204.119154
 20
105.885020
 11
205.695936
 21
102.877619
  0
LINE
  8
CSLAYER1
  6
CONTINUOUS
 62
     6
 10
203.721022
 20
105.678080
 11
205.122541
 21
102.598262
  0
LINE
  8
CSLAYER1
  6
CONTINUOUS
 62
     6
 10
200.278059
 20
106.137950
 11
198.660902
 21
103.199870
  0
LINE
  8
CSLAYER1
  6
CONTINUOUS
 62
     6
 10
200.766981
 20
105.883814
 11
199.190199
 21
102.876399
  0
LINE
  8
CSLAYER1
  6
CONTINUOUS
 62
     6
 10
201.165114
 20
105.676860
 11
199.763624
 21
102.597056
  0
CIRCLE
  8
CSLAYER1
  6
CONTINUOUS
 62
     6
 10
202.463864
 20
153.881159
 40
8.000000
  0
CIRCLE
  8
CSLAYER1
  6
CONTINUOUS
 62
     6
 10
202.463864
 20
153.881159
 40
6.000000
  0
CIRCLE
  8
CSLAYER1
  6
CONTINUOUS
 62
     3
 10
202.463864
 20
153.881159
 40
5.500000
  0
LINE
  8
CSLAYER1
  6
CONTINUOUS
 62
     6
 10
205.213864
 20
154.681163
 11
199.713864
 21
154.681163
  0
LINE
  8
CSLAYER1
  6
CONTINUOUS
 62
     6
 10
205.213864
 20
153.081156
 11
199.713864
 21
153.081156
  0
LINE
  8
CSLAYER1
  6
CONTINUOUS
 62
     6
 10
199.713864
 20
154.681163
 11
199.713864
 21
153.081156
  0
LINE
  8
CSLAYER1
  6
CONTINUOUS
 62
     6
 10
205.213864
 20
154.681163
 11
205.213864
 21
153.081156
  0
ARC
  8
CSLAYER1
  6
CONTINUOUS
 62
     6
 10
152.909481
 20
117.461301
 40
11.346347
 50
332.536202
 51
359.942691
  0
ARC
  8
CSLAYER1
  6
CONTINUOUS
 62
     6
 10
152.909481
 20
117.461301
 40
9.762361
 50
332.536202
 51
359.942691
  0
ARC
  8
CSLAYER1
  6
CONTINUOUS
 62
     6
 10
163.859840
 20
116.775435
 40
0.791999
 50
60.000350
 51
120.000345
  0
ARC
  8
CSLAYER1
  6
CONTINUOUS
 62
     6
 10
163.067841
 20
116.775424
 40
0.791999
 50
60.000350
 51
120.000345
  0
ARC
  8
CSLAYER1
  6
CONTINUOUS
 62
     6
 10
163.067835
 20
118.147210
 40
0.791999
 50
240.000362
 51
300.000350
  0
LINE
  8
CSLAYER1
  6
CONTINUOUS
 62
     6
 10
161.571640
 20
112.959027
 11
162.977121
 21
112.228502
  0
ARC
  8
CSLAYER1
  6
CONTINUOUS
 62
     6
 10
174.018216
 20
117.461301
 40
11.346347
 50
201.534034
 51
207.463868
  0
ARC
  8
CSLAYER1
  6
CONTINUOUS
 62
     6
 10
174.018216
 20
117.461301
 40
9.762361
 50
179.999978
 51
207.463868
  0
LINE
  8
CSLAYER1
  6
CONTINUOUS
 62
     6
 10
165.356057
 20
112.959016
 11
163.950576
 21
112.228491
  0
ARC
  8
CSLAYER1
  6
CONTINUOUS
 62
     6
 10
163.067857
 20
120.244006
 40
0.792004
 50
240.000007
 51
299.999995
  0
ARC
  8
CSLAYER1
  6
CONTINUOUS
 62
     6
 10
163.859861
 20
120.244006
 40
0.792004
 50
240.000007
 51
299.999995
  0
ARC
  8
CSLAYER1
  6
CONTINUOUS
 62
     6
 10
163.859861
 20
118.872209
 40
0.792004
 50
60.000002
 51
120.000003
  0
LINE
  8
CSLAYER1
  6
CONTINUOUS
 62
     6
 10
164.258209
 20
121.531157
 11
164.255853
 21
119.558108
  0
LINE
  8
CSLAYER1
  6
CONTINUOUS
 62
     6
 10
162.674212
 20
121.531157
 11
162.671855
 21
119.558108
  0
LINE
  8
CSLAYER1
  6
CONTINUOUS
 62
     6
 10
165.005340
 20
112.776720
 11
166.169715
 21
110.661324
  0
LINE
  8
CSLAYER1
  6
CONTINUOUS
 62
     6
 10
164.653316
 20
112.593753
 11
165.788599
 21
110.428425
  0
LINE
  8
CSLAYER1
  6
CONTINUOUS
 62
     6
 10
164.366661
 20
112.444757
 11
165.375755
 21
110.227287
  0
LINE
  8
CSLAYER1
  6
CONTINUOUS
 62
     6
 10
161.887728
 20
112.775863
 11
160.723375
 21
110.660445
  0
LINE
  8
CSLAYER1
  6
CONTINUOUS
 62
     6
 10
162.239752
 20
112.592885
 11
161.104468
 21
110.427546
  0
LINE
  8
CSLAYER1
  6
CONTINUOUS
 62
     6
 10
162.526407
 20
112.443878
 11
161.517335
 21
110.226419
  0
ARC
  8
CSLAYER1
  6
CONTINUOUS
 62
     6
 10
89.463894
 20
153.881157
 40
31.000031
 50
4.788463
 51
85.211483
  0
ARC
  8
CSLAYER1
  6
CONTINUOUS
 62
     6
 10
89.463894
 20
153.881157
 40
31.000031
 50
94.788463
 51
175.211483
  0
ARC
  8
CSLAYER1
  6
CONTINUOUS
 62
     6
 10
89.463894
 20
153.881157
 40
31.000031
 50
184.788463
 51
261.653361
  0
ARC
  8
CSLAYER1
  6
CONTINUOUS
 62
     6
 10
89.463894
 20
153.881157
 40
31.000031
 50
278.346582
 51
355.211483
  0
LINE
  8
CSLAYER1
  6
CONTINUOUS
 62
     6
 10
153.463850
 20
84.881141
 11
188.463850
 21
84.881141
  0
LINE
  8
CSLAYER1
  6
CONTINUOUS
 62
     6
 10
153.463850
 20
24.881141
 11
188.463850
 21
24.881141
  0
ARC
  8
CSLAYER1
  6
CONTINUOUS
 62
     6
 10
153.463850
 20
30.881141
 40
6.000000
 50
180.000000
 51
270.000000
  0
ARC
  8
CSLAYER1
  6
CONTINUOUS
 62
     6
 10
153.463850
 20
78.881141
 40
6.000000
 50
90.000000
 51
180.000000
  0
LINE
  8
CSLAYER1
  6
CONTINUOUS
 62
     6
 10
91.663882
 20
117.251210
 11
91.663866
 21
121.567105
  0
LINE
  8
CSLAYER1
  6
CONTINUOUS
 62
     6
 10
87.263884
 20
117.251210
 11
87.263869
 21
121.567058
  0
ARC
  8
CSLAYER1
  6
CONTINUOUS
 62
     6
 10
105.222906
 20
114.339062
 40
15.759004
 50
180.000235
 51
207.463987
  0
ARC
  8
CSLAYER1
  6
CONTINUOUS
 62
     6
 10
105.222906
 20
114.339062
 40
13.559023
 50
180.000308
 51
181.099453
  0
ARC
  8
CSLAYER1
  6
CONTINUOUS
 62
     6
 10
91.113902
 20
118.203831
 40
1.099999
 50
257.213699
 51
299.999858
  0
ARC
  8
CSLAYER1
  6
CONTINUOUS
 62
     6
 10
91.113894
 20
116.298588
 40
1.099999
 50
59.999858
 51
103.490404
  0
ARC
  8
CSLAYER1
  6
CONTINUOUS
 62
     6
 10
91.113884
 20
113.386347
 40
1.099999
 50
59.999715
 51
68.383359
  0
ARC
  8
CSLAYER1
  6
CONTINUOUS
 62
     6
 10
90.013886
 20
113.386363
 40
1.099999
 50
90.387286
 51
119.999716
  0
ARC
  8
CSLAYER1
  6
CONTINUOUS
 62
     6
 10
90.013894
 20
115.291621
 40
1.099999
 50
239.999733
 51
275.099956
  0
LINE
  8
CSLAYER1
  6
CONTINUOUS
 62
     6
 10
92.703965
 20
107.832118
 11
94.480810
 21
104.811119
  0
LINE
  8
CSLAYER1
  6
CONTINUOUS
 62
     6
 10
92.215949
 20
107.578470
 11
93.830126
 21
104.472913
  0
LINE
  8
CSLAYER1
  6
CONTINUOUS
 62
     6
 10
91.727936
 20
107.324817
 11
93.179443
 21
104.134707
  0
LINE
  8
CSLAYER1
  6
CONTINUOUS
 62
     6
 10
93.191977
 20
108.085772
 11
91.239928
 21
107.071154
  0
ARC
  8
CSLAYER1
  6
CONTINUOUS
 62
     6
 10
73.704923
 20
114.338890
 40
15.758933
 50
-27.463461
 51
0.000397
  0
ARC
  8
CSLAYER1
  6
CONTINUOUS
 62
     6
 10
73.704923
 20
114.338890
 40
13.558951
 50
332.536637
 51
357.358933
  0
ARC
  8
CSLAYER1
  6
CONTINUOUS
 62
     6
 10
87.813860
 20
118.203831
 40
1.099999
 50
240.000198
 51
282.787568
  0
ARC
  8
CSLAYER1
  6
CONTINUOUS
 62
     6
 10
88.913880
 20
113.386378
 40
1.099999
 50
60.000350
 51
89.611432
  0
ARC
  8
CSLAYER1
  6
CONTINUOUS
 62
     6
 10
87.813881
 20
113.386363
 40
1.099999
 50
111.614904
 51
120.000345
  0
ARC
  8
CSLAYER1
  6
CONTINUOUS
 62
     6
 10
87.813870
 20
115.291621
 40
1.099999
 50
240.000362
 51
245.504526
  0
LINE
  8
CSLAYER1
  6
CONTINUOUS
 62
     6
 10
86.223842
 20
107.832117
 11
84.446999
 21
104.811117
  0
LINE
  8
CSLAYER1
  6
CONTINUOUS
 62
     6
 10
86.711858
 20
107.578469
 11
85.097682
 21
104.472911
  0
LINE
  8
CSLAYER1
  6
CONTINUOUS
 62
     6
 10
87.199871
 20
107.324816
 11
85.748365
 21
104.134706
  0
LINE
  8
CSLAYER1
  6
CONTINUOUS
 62
     6
 10
85.735861
 20
108.085754
 11
87.687905
 21
107.071140
  0
CIRCLE
  8
CSLAYER1
  6
CONTINUOUS
 62
     6
 10
89.463894
 20
153.881157
 40
30.000000
  0
ARC
  8
CSLAYER1
  6
CONTINUOUS
 62
     6
 10
99.391963
 20
117.723375
 40
9.928054
 50
180.057318
 51
207.463807
  0
ARC
  8
CSLAYER1
  6
CONTINUOUS
 62
     6
 10
99.391963
 20
117.723375
 40
8.542065
 50
180.057318
 51
207.463807
  0
LINE
  8
CSLAYER1
  6
CONTINUOUS
 62
     6
 10
91.398255
 20
113.568565
 11
92.417073
 21
111.717589
  0
LINE
  8
CSLAYER1
  6
CONTINUOUS
 62
     6
 10
91.812577
 20
113.783897
 11
90.582768
 21
113.144685
  0
ARC
  8
CSLAYER1
  6
CONTINUOUS
 62
     6
 10
90.503392
 20
120.158247
 40
0.693004
 50
240.000001
 51
300.000003
  0
ARC
  8
CSLAYER1
  6
CONTINUOUS
 62
     6
 10
89.810374
 20
120.158247
 40
0.693004
 50
240.000001
 51
300.000003
  0
ARC
  8
CSLAYER1
  6
CONTINUOUS
 62
     6
 10
89.810374
 20
118.957936
 40
0.693004
 50
60.000023
 51
120.000011
  0
ARC
  8
CSLAYER1
  6
CONTINUOUS
 62
     6
 10
79.535823
 20
117.723375
 40
8.542065
 50
-27.463872
 51
0.000025
  0
LINE
  8
CSLAYER1
  6
CONTINUOUS
 62
     6
 10
87.529502
 20
113.568565
 11
86.510685
 21
111.717589
  0
LINE
  8
CSLAYER1
  6
CONTINUOUS
 62
     6
 10
87.115208
 20
113.783897
 11
88.344990
 21
113.144658
  0
ARC
  8
CSLAYER1
  6
CONTINUOUS
 62
     6
 10
79.535823
 20
117.723375
 40
9.928054
 50
332.536128
 51
359.999997
  0
ARC
  8
CSLAYER1
  6
CONTINUOUS
 62
     6
 10
89.117384
 20
120.158247
 40
0.693004
 50
240.000001
 51
300.000003
  0
ARC
  8
CSLAYER1
  6
CONTINUOUS
 62
     6
 10
88.424366
 20
120.158247
 40
0.693004
 50
240.000001
 51
300.000003
  0
ARC
  8
CSLAYER1
  6
CONTINUOUS
 62
     6
 10
88.424366
 20
118.957936
 40
0.693004
 50
60.000023
 51
120.000011
  0
ARC
  8
CSLAYER1
  6
CONTINUOUS
 62
     6
 10
89.810401
 20
117.925386
 40
0.692999
 50
59.999668
 51
119.999656
  0
ARC
  8
CSLAYER1
  6
CONTINUOUS
 62
     6
 10
90.503405
 20
117.925386
 40
0.692999
 50
59.999668
 51
119.999656
  0
ARC
  8
CSLAYER1
  6
CONTINUOUS
 62
     6
 10
90.503419
 20
119.125697
 40
0.692999
 50
239.999646
 51
299.999647
  0
ARC
  8
CSLAYER1
  6
CONTINUOUS
 62
     6
 10
88.424394
 20
117.925386
 40
0.692999
 50
59.999668
 51
119.999656
  0
ARC
  8
CSLAYER1
  6
CONTINUOUS
 62
     6
 10
89.117398
 20
117.925386
 40
0.692999
 50
59.999668
 51
119.999656
  0
ARC
  8
CSLAYER1
  6
CONTINUOUS
 62
     6
 10
89.117411
 20
119.125697
 40
0.692999
 50
239.999646
 51
299.999647
  0
LINE
  8
CSLAYER1
  6
CONTINUOUS
 62
     6
 10
90.849916
 20
117.723375
 11
90.849916
 21
118.525541
  0
LINE
  8
CSLAYER1
  6
CONTINUOUS
 62
     6
 10
89.463864
 20
117.039177
 11
89.463864
 21
117.930473
  0
LINE
  8
CSLAYER1
  6
CONTINUOUS
 62
     6
 10
88.077900
 20
117.723430
 11
88.077900
 21
118.525541
  0
LINE
  8
CSLAYER1
  6
CONTINUOUS
 62
     6
 10
91.090254
 20
113.408439
 11
92.083610
 21
112.143776
  0
LINE
  8
CSLAYER1
  6
CONTINUOUS
 62
     6
 10
90.839436
 20
113.278087
 11
91.722352
 21
111.967802
  0
LINE
  8
CSLAYER1
  6
CONTINUOUS
 62
     6
 10
87.837532
 20
113.408439
 11
86.844148
 21
112.143776
  0
LINE
  8
CSLAYER1
  6
CONTINUOUS
 62
     6
 10
88.088349
 20
113.278087
 11
87.205406
 21
111.967802
  0
LINE
  8
CSLAYER1
  6
CONTINUOUS
 62
     6
 10
89.463893
 20
123.881157
 11
89.463893
 21
119.558091
  0
LINE
  8
CSLAYER1
  6
CONTINUOUS
 62
     6
 10
90.849873
 20
121.531157
 11
90.849873
 21
119.558091
  0
LINE
  8
CSLAYER1
  6
CONTINUOUS
 62
     6
 10
88.077885
 20
121.531157
 11
88.077885
 21
119.558091
  0
ARC
  8
CSLAYER1
  6
CONTINUOUS
 62
     6
 10
105.222906
 20
114.339062
 40
13.559023
 50
182.641806
 51
207.464006
  0
ARC
  8
CSLAYER1
  6
CONTINUOUS
 62
     6
 10
73.704923
 20
114.338890
 40
13.558951
 50
-1.098950
 51
0.000417
  0
LINE
  8
CSLAYER1
  6
CONTINUOUS
 62
     6
 10
89.463879
 20
123.881157
 11
89.463879
 21
117.914215
  0
ARC
  8
CSLAYER1
  6
CONTINUOUS
 62
     6
 10
163.463850
 20
54.881155
 40
1.500000
 50
-112.481188
 51
112.483932
  0
LINE
  8
CSLAYER1
  6
CONTINUOUS
 62
     6
 10
158.963864
 20
122.931157
 11
158.963864
 21
123.881157
  0
LINE
  8
CSLAYER1
  6
CONTINUOUS
 62
     6
 10
167.963864
 20
122.931157
 11
167.963864
 21
123.881157
  0
CIRCLE
  8
CSLAYER1
  6
CONTINUOUS
 62
     6
 10
185.463864
 20
153.881157
 40
2.750000
  0
ARC
  8
CSLAYER1
  6
CONTINUOUS
 62
     6
 10
185.463854
 20
153.881157
 40
1.527778
 50
163.398416
 51
196.601577
  0
ARC
  8
CSLAYER1
  6
CONTINUOUS
 62
     6
 10
185.463854
 20
153.881157
 40
1.527778
 50
253.398422
 51
286.601583
  0
ARC
  8
CSLAYER1
  6
CONTINUOUS
 62
     6
 10
185.463854
 20
153.881157
 40
1.527778
 50
-16.601562
 51
16.601572
  0
ARC
  8
CSLAYER1
  6
CONTINUOUS
 62
     6
 10
185.463854
 20
153.881157
 40
1.527778
 50
73.398406
 51
106.601595
  0
LINE
  8
CSLAYER1
  6
CONTINUOUS
 62
     6
 10
186.336880
 20
153.444644
 11
186.927939
 21
153.444644
  0
LINE
  8
CSLAYER1
  6
CONTINUOUS
 62
     6
 10
184.590827
 20
153.444644
 11
183.999768
 21
153.444644
  0
LINE
  8
CSLAYER1
  6
CONTINUOUS
 62
     6
 10
186.336880
 20
154.317671
 11
186.927939
 21
154.317671
  0
LINE
  8
CSLAYER1
  6
CONTINUOUS
 62
     6
 10
184.590827
 20
154.317671
 11
183.999768
 21
154.317671
  0
LINE
  8
CSLAYER1
  6
CONTINUOUS
 62
     6
 10
185.027340
 20
153.008153
 11
185.027340
 21
152.417049
  0
LINE
  8
CSLAYER1
  6
CONTINUOUS
 62
     6
 10
185.027340
 20
154.754161
 11
185.027340
 21
155.345265
  0
LINE
  8
CSLAYER1
  6
CONTINUOUS
 62
     6
 10
185.900367
 20
153.008153
 11
185.900367
 21
152.417049
  0
LINE
  8
CSLAYER1
  6
CONTINUOUS
 62
     6
 10
185.900367
 20
154.754161
 11
185.900367
 21
155.345265
  0
ARC
  8
CSLAYER1
  6
CONTINUOUS
 62
     6
 10
186.336880
 20
153.008153
 40
0.436508
 50
90.000001
 51
179.942691
  0
ARC
  8
CSLAYER1
  6
CONTINUOUS
 62
     6
 10
186.336880
 20
154.754161
 40
0.436508
 50
180.000010
 51
270.000016
  0
ARC
  8
CSLAYER1
  6
CONTINUOUS
 62
     6
 10
184.590827
 20
154.754161
 40
0.436508
 50
-89.999984
 51
0.000005
  0
ARC
  8
CSLAYER1
  6
CONTINUOUS
 62
     6
 10
184.590827
 20
153.008153
 40
0.436508
 50
0.000005
 51
89.942654
  0
LINE
  8
CSLAYER1
  6
CONTINUOUS
 62
     6
 10
182.808712
 20
184.544928
 11
188.119045
 21
184.544928
  0
ARC
  8
CSLAYER1
  6
CONTINUOUS
 62
     6
 10
185.463878
 20
179.803539
 40
6.637945
 50
73.742994
 51
106.257016
  0
LINE
  8
CSLAYER1
  6
CONTINUOUS
 62
     6
 10
188.053599
 20
184.751148
 11
188.001349
 21
185.348394
  0
ARC
  8
CSLAYER1
  6
CONTINUOUS
 62
     6
 10
187.056674
 20
185.265744
 40
0.948278
 50
5.000111
 51
73.742611
  0
ARC
  8
CSLAYER1
  6
CONTINUOUS
 62
     6
 10
187.864669
 20
184.734595
 40
0.189656
 50
-90.000000
 51
5.000152
  0
LINE
  8
CSLAYER1
  6
CONTINUOUS
 62
     6
 10
188.213878
 20
184.450123
 11
188.213878
 21
183.975984
  0
ARC
  8
CSLAYER1
  6
CONTINUOUS
 62
     6
 10
188.119045
 20
184.450123
 40
0.094828
 50
0.000003
 51
90.000005
  0
ARC
  8
CSLAYER1
  6
CONTINUOUS
 62
     6
 10
188.119045
 20
183.975984
 40
0.094828
 50
-90.000000
 51
0.000003
  0
LINE
  8
CSLAYER1
  6
CONTINUOUS
 62
     6
 10
182.874158
 20
184.751148
 11
182.926407
 21
185.348394
  0
ARC
  8
CSLAYER1
  6
CONTINUOUS
 62
     6
 10
183.871082
 20
185.265744
 40
0.948278
 50
106.257399
 51
174.999892
  0
ARC
  8
CSLAYER1
  6
CONTINUOUS
 62
     6
 10
183.063087
 20
184.734595
 40
0.189656
 50
174.999865
 51
269.942691
  0
ARC
  8
CSLAYER1
  6
CONTINUOUS
 62
     6
 10
182.808712
 20
184.450123
 40
0.094828
 50
90.000005
 51
180.000001
  0
LINE
  8
CSLAYER1
  6
CONTINUOUS
 62
     6
 10
182.713878
 20
184.450123
 11
182.713878
 21
183.975984
  0
ARC
  8
CSLAYER1
  6
CONTINUOUS
 62
     6
 10
182.808712
 20
183.975984
 40
0.094828
 50
180.000001
 51
269.942691
  0
LINE
  8
CSLAYER1
  6
CONTINUOUS
 62
     6
 10
184.898769
 20
184.544928
 11
185.319674
 21
183.881151
  0
LINE
  8
CSLAYER1
  6
CONTINUOUS
 62
     6
 10
185.372908
 20
184.544928
 11
185.793813
 21
183.881151
  0
LINE
  8
CSLAYER1
  6
CONTINUOUS
 62
     6
 10
188.119016
 20
123.217361
 11
182.808683
 21
123.217361
  0
ARC
  8
CSLAYER1
  6
CONTINUOUS
 62
     6
 10
185.463849
 20
127.958751
 40
6.637945
 50
253.742994
 51
286.257016
  0
LINE
  8
CSLAYER1
  6
CONTINUOUS
 62
     6
 10
182.874129
 20
123.011141
 11
182.926378
 21
122.413895
  0
ARC
  8
CSLAYER1
  6
CONTINUOUS
 62
     6
 10
183.871053
 20
122.496545
 40
0.948278
 50
185.000111
 51
253.742611
  0
ARC
  8
CSLAYER1
  6
CONTINUOUS
 62
     6
 10
183.063058
 20
123.027694
 40
0.189656
 50
90.000000
 51
185.000152
  0
LINE
  8
CSLAYER1
  6
CONTINUOUS
 62
     6
 10
182.713849
 20
123.312166
 11
182.713849
 21
123.786305
  0
ARC
  8
CSLAYER1
  6
CONTINUOUS
 62
     6
 10
182.808683
 20
123.312166
 40
0.094828
 50
180.000003
 51
270.000005
  0
ARC
  8
CSLAYER1
  6
CONTINUOUS
 62
     6
 10
182.808683
 20
123.786305
 40
0.094828
 50
90.000000
 51
180.000003
  0
LINE
  8
CSLAYER1
  6
CONTINUOUS
 62
     6
 10
188.053570
 20
123.011141
 11
188.001320
 21
122.413895
  0
ARC
  8
CSLAYER1
  6
CONTINUOUS
 62
     6
 10
187.056645
 20
122.496545
 40
0.948278
 50
286.257399
 51
354.999892
  0
ARC
  8
CSLAYER1
  6
CONTINUOUS
 62
     6
 10
187.864641
 20
123.027694
 40
0.189656
 50
-5.000135
 51
89.942691
  0
ARC
  8
CSLAYER1
  6
CONTINUOUS
 62
     6
 10
188.119016
 20
123.312166
 40
0.094828
 50
-89.999995
 51
0.000001
  0
LINE
  8
CSLAYER1
  6
CONTINUOUS
 62
     6
 10
188.213849
 20
123.312166
 11
188.213849
 21
123.786305
  0
ARC
  8
CSLAYER1
  6
CONTINUOUS
 62
     6
 10
188.119016
 20
123.786305
 40
0.094828
 50
0.000001
 51
89.942691
  0
LINE
  8
CSLAYER1
  6
CONTINUOUS
 62
     6
 10
186.028958
 20
123.217361
 11
185.608053
 21
123.881138
  0
LINE
  8
CSLAYER1
  6
CONTINUOUS
 62
     6
 10
185.554819
 20
123.217361
 11
185.133914
 21
123.881138
  0
LINE
  8
CSLAYER1
  6
CENTER
 62
     3
 10
185.463850
 20
50.131141
 11
185.463850
 21
59.631141
  0
LINE
  8
CSLAYER1
  6
CENTER
 62
     3
 10
185.463850
 20
82.268928
 11
185.463850
 21
90.581154
  0
LINE
  8
CSLAYER1
  6
CENTER
 62
     3
 10
185.463865
 20
27.493348
 11
185.463865
 21
19.181153
  0
CIRCLE
  8
CSLAYER1
  6
CONTINUOUS
 62
     6
 10
185.463850
 20
54.881141
 40
2.750000
  0
ARC
  8
CSLAYER1
  6
CONTINUOUS
 62
     6
 10
185.463840
 20
54.881142
 40
1.527778
 50
163.398416
 51
196.601577
  0
ARC
  8
CSLAYER1
  6
CONTINUOUS
 62
     6
 10
185.463840
 20
54.881142
 40
1.527778
 50
253.398422
 51
286.601583
  0
ARC
  8
CSLAYER1
  6
CONTINUOUS
 62
     6
 10
185.463840
 20
54.881142
 40
1.527778
 50
-16.601562
 51
16.601572
  0
ARC
  8
CSLAYER1
  6
CONTINUOUS
 62
     6
 10
185.463840
 20
54.881142
 40
1.527778
 50
73.398406
 51
106.601595
  0
LINE
  8
CSLAYER1
  6
CONTINUOUS
 62
     6
 10
186.336867
 20
54.444629
 11
186.927925
 21
54.444629
  0
LINE
  8
CSLAYER1
  6
CONTINUOUS
 62
     6
 10
184.590814
 20
54.444629
 11
183.999755
 21
54.444629
  0
LINE
  8
CSLAYER1
  6
CONTINUOUS
 62
     6
 10
186.336867
 20
55.317655
 11
186.927925
 21
55.317655
  0
LINE
  8
CSLAYER1
  6
CONTINUOUS
 62
     6
 10
184.590814
 20
55.317655
 11
183.999755
 21
55.317655
  0
LINE
  8
CSLAYER1
  6
CONTINUOUS
 62
     6
 10
185.027327
 20
54.008138
 11
185.027327
 21
53.417034
  0
LINE
  8
CSLAYER1
  6
CONTINUOUS
 62
     6
 10
185.027327
 20
55.754146
 11
185.027327
 21
56.345250
  0
LINE
  8
CSLAYER1
  6
CONTINUOUS
 62
     6
 10
185.900353
 20
54.008138
 11
185.900353
 21
53.417034
  0
LINE
  8
CSLAYER1
  6
CONTINUOUS
 62
     6
 10
185.900353
 20
55.754146
 11
185.900353
 21
56.345250
  0
ARC
  8
CSLAYER1
  6
CONTINUOUS
 62
     6
 10
186.336867
 20
54.008138
 40
0.436508
 50
90.000001
 51
179.942691
  0
ARC
  8
CSLAYER1
  6
CONTINUOUS
 62
     6
 10
186.336867
 20
55.754146
 40
0.436508
 50
180.000010
 51
270.000016
  0
ARC
  8
CSLAYER1
  6
CONTINUOUS
 62
     6
 10
184.590814
 20
55.754146
 40
0.436508
 50
-89.999984
 51
0.000005
  0
ARC
  8
CSLAYER1
  6
CONTINUOUS
 62
     6
 10
184.590814
 20
54.008138
 40
0.436508
 50
0.000005
 51
89.942654
  0
LINE
  8
CSLAYER1
  6
CONTINUOUS
 62
     6
 10
182.808698
 20
85.544913
 11
188.119031
 21
85.544913
  0
ARC
  8
CSLAYER1
  6
CONTINUOUS
 62
     6
 10
185.463865
 20
80.803523
 40
6.637945
 50
73.742994
 51
106.257016
  0
LINE
  8
CSLAYER1
  6
CONTINUOUS
 62
     6
 10
188.053585
 20
85.751133
 11
188.001336
 21
86.348379
  0
ARC
  8
CSLAYER1
  6
CONTINUOUS
 62
     6
 10
187.056661
 20
86.265729
 40
0.948278
 50
5.000111
 51
73.742611
  0
ARC
  8
CSLAYER1
  6
CONTINUOUS
 62
     6
 10
187.864656
 20
85.734580
 40
0.189656
 50
-90.000000
 51
5.000152
  0
LINE
  8
CSLAYER1
  6
CONTINUOUS
 62
     6
 10
188.213865
 20
85.450108
 11
188.213865
 21
84.975969
  0
ARC
  8
CSLAYER1
  6
CONTINUOUS
 62
     6
 10
188.119031
 20
85.450108
 40
0.094828
 50
0.000003
 51
90.000005
  0
ARC
  8
CSLAYER1
  6
CONTINUOUS
 62
     6
 10
188.119031
 20
84.975969
 40
0.094828
 50
-90.000000
 51
0.000003
  0
LINE
  8
CSLAYER1
  6
CONTINUOUS
 62
     6
 10
182.874144
 20
85.751133
 11
182.926394
 21
86.348379
  0
ARC
  8
CSLAYER1
  6
CONTINUOUS
 62
     6
 10
183.871069
 20
86.265729
 40
0.948278
 50
106.257399
 51
174.999892
  0
ARC
  8
CSLAYER1
  6
CONTINUOUS
 62
     6
 10
183.063073
 20
85.734580
 40
0.189656
 50
174.999865
 51
269.942691
  0
ARC
  8
CSLAYER1
  6
CONTINUOUS
 62
     6
 10
182.808698
 20
85.450108
 40
0.094828
 50
90.000005
 51
180.000001
  0
LINE
  8
CSLAYER1
  6
CONTINUOUS
 62
     6
 10
182.713865
 20
85.450108
 11
182.713865
 21
84.975969
  0
ARC
  8
CSLAYER1
  6
CONTINUOUS
 62
     6
 10
182.808698
 20
84.975969
 40
0.094828
 50
180.000001
 51
269.942691
  0
LINE
  8
CSLAYER1
  6
CONTINUOUS
 62
     6
 10
184.898756
 20
85.544913
 11
185.319661
 21
84.881136
  0
LINE
  8
CSLAYER1
  6
CONTINUOUS
 62
     6
 10
185.372894
 20
85.544913
 11
185.793800
 21
84.881136
  0
LINE
  8
CSLAYER1
  6
CONTINUOUS
 62
     6
 10
188.119002
 20
24.217370
 11
182.808669
 21
24.217370
  0
ARC
  8
CSLAYER1
  6
CONTINUOUS
 62
     6
 10
185.463836
 20
28.958759
 40
6.637945
 50
253.742994
 51
286.257016
  0
LINE
  8
CSLAYER1
  6
CONTINUOUS
 62
     6
 10
182.874115
 20
24.011150
 11
182.926365
 21
23.413904
  0
ARC
  8
CSLAYER1
  6
CONTINUOUS
 62
     6
 10
183.871040
 20
23.496554
 40
0.948278
 50
185.000111
 51
253.742611
  0
ARC
  8
CSLAYER1
  6
CONTINUOUS
 62
     6
 10
183.063044
 20
24.027703
 40
0.189656
 50
90.000000
 51
185.000152
  0
LINE
  8
CSLAYER1
  6
CONTINUOUS
 62
     6
 10
182.713836
 20
24.312175
 11
182.713836
 21
24.786314
  0
ARC
  8
CSLAYER1
  6
CONTINUOUS
 62
     6
 10
182.808669
 20
24.312175
 40
0.094828
 50
180.000003
 51
270.000005
  0
ARC
  8
CSLAYER1
  6
CONTINUOUS
 62
     6
 10
182.808669
 20
24.786314
 40
0.094828
 50
90.000000
 51
180.000003
  0
LINE
  8
CSLAYER1
  6
CONTINUOUS
 62
     6
 10
188.053556
 20
24.011150
 11
188.001307
 21
23.413904
  0
ARC
  8
CSLAYER1
  6
CONTINUOUS
 62
     6
 10
187.056632
 20
23.496554
 40
0.948278
 50
286.257399
 51
354.999892
  0
ARC
  8
CSLAYER1
  6
CONTINUOUS
 62
     6
 10
187.864627
 20
24.027703
 40
0.189656
 50
-5.000135
 51
89.942691
  0
ARC
  8
CSLAYER1
  6
CONTINUOUS
 62
     6
 10
188.119002
 20
24.312175
 40
0.094828
 50
-89.999995
 51
0.000001
  0
LINE
  8
CSLAYER1
  6
CONTINUOUS
 62
     6
 10
188.213836
 20
24.312175
 11
188.213836
 21
24.786314
  0
ARC
  8
CSLAYER1
  6
CONTINUOUS
 62
     6
 10
188.119002
 20
24.786314
 40
0.094828
 50
0.000001
 51
89.942691
  0
LINE
  8
CSLAYER1
  6
CONTINUOUS
 62
     6
 10
186.028945
 20
24.217370
 11
185.608040
 21
24.881147
  0
LINE
  8
CSLAYER1
  6
CONTINUOUS
 62
     6
 10
185.554806
 20
24.217370
 11
185.133901
 21
24.881147
  0
LINE
  8
CSLAYER1
  6
CONTINUOUS
 62
     6
 10
120.127665
 20
156.536309
 11
120.127665
 21
151.225976
  0
ARC
  8
CSLAYER1
  6
CONTINUOUS
 62
     6
 10
115.386276
 20
153.881142
 40
6.637945
 50
-16.257006
 51
16.257016
  0
LINE
  8
CSLAYER1
  6
CONTINUOUS
 62
     6
 10
120.333886
 20
151.291422
 11
120.931132
 21
151.343671
  0
ARC
  8
CSLAYER1
  6
CONTINUOUS
 62
     6
 10
120.848482
 20
152.288346
 40
0.948278
 50
275.000111
 51
343.742611
  0
ARC
  8
CSLAYER1
  6
CONTINUOUS
 62
     6
 10
120.317333
 20
151.480351
 40
0.189656
 50
180.000000
 51
275.000152
  0
LINE
  8
CSLAYER1
  6
CONTINUOUS
 62
     6
 10
120.032861
 20
151.131142
 11
119.558722
 21
151.131142
  0
ARC
  8
CSLAYER1
  6
CONTINUOUS
 62
     6
 10
120.032861
 20
151.225976
 40
0.094828
 50
-89.999997
 51
0.000005
  0
ARC
  8
CSLAYER1
  6
CONTINUOUS
 62
     6
 10
119.558722
 20
151.225976
 40
0.094828
 50
180.000000
 51
270.000003
  0
LINE
  8
CSLAYER1
  6
CONTINUOUS
 62
     6
 10
120.333886
 20
156.470863
 11
120.931132
 21
156.418613
  0
ARC
  8
CSLAYER1
  6
CONTINUOUS
 62
     6
 10
120.848482
 20
155.473938
 40
0.948278
 50
16.257399
 51
84.999892
  0
ARC
  8
CSLAYER1
  6
CONTINUOUS
 62
     6
 10
120.317333
 20
156.281934
 40
0.189656
 50
84.999865
 51
179.942691
  0
ARC
  8
CSLAYER1
  6
CONTINUOUS
 62
     6
 10
120.032861
 20
156.536309
 40
0.094828
 50
0.000005
 51
90.000001
  0
LINE
  8
CSLAYER1
  6
CONTINUOUS
 62
     6
 10
120.032861
 20
156.631142
 11
119.558722
 21
156.631142
  0
ARC
  8
CSLAYER1
  6
CONTINUOUS
 62
     6
 10
119.558722
 20
156.536309
 40
0.094828
 50
90.000001
 51
179.942691
  0
LINE
  8
CSLAYER1
  6
CONTINUOUS
 62
     6
 10
120.127665
 20
154.446251
 11
119.463888
 21
154.025346
  0
LINE
  8
CSLAYER1
  6
CONTINUOUS
 62
     6
 10
120.127665
 20
153.972112
 11
119.463888
 21
153.551207
  0
LINE
  8
CSLAYER1
  6
CONTINUOUS
 62
     6
 10
119.463894
 20
156.536403
 11
119.463894
 21
151.225976
  0
LINE
  8
CSLAYER1
  6
CONTINUOUS
 62
     6
 10
86.808742
 20
184.544928
 11
92.119075
 21
184.544928
  0
ARC
  8
CSLAYER1
  6
CONTINUOUS
 62
     6
 10
89.463909
 20
179.803539
 40
6.637945
 50
73.742994
 51
106.257016
  0
LINE
  8
CSLAYER1
  6
CONTINUOUS
 62
     6
 10
92.053629
 20
184.751148
 11
92.001380
 21
185.348394
  0
ARC
  8
CSLAYER1
  6
CONTINUOUS
 62
     6
 10
91.056705
 20
185.265744
 40
0.948278
 50
5.000111
 51
73.742611
  0
ARC
  8
CSLAYER1
  6
CONTINUOUS
 62
     6
 10
91.864700
 20
184.734595
 40
0.189656
 50
-90.000000
 51
5.000152
  0
LINE
  8
CSLAYER1
  6
CONTINUOUS
 62
     6
 10
92.213909
 20
184.450123
 11
92.213909
 21
183.975984
  0
ARC
  8
CSLAYER1
  6
CONTINUOUS
 62
     6
 10
92.119075
 20
184.450123
 40
0.094828
 50
0.000003
 51
90.000005
  0
ARC
  8
CSLAYER1
  6
CONTINUOUS
 62
     6
 10
92.119075
 20
183.975984
 40
0.094828
 50
-90.000000
 51
0.000003
  0
LINE
  8
CSLAYER1
  6
CONTINUOUS
 62
     6
 10
86.874188
 20
184.751148
 11
86.926438
 21
185.348394
  0
ARC
  8
CSLAYER1
  6
CONTINUOUS
 62
     6
 10
87.871113
 20
185.265744
 40
0.948278
 50
106.257399
 51
174.999892
  0
ARC
  8
CSLAYER1
  6
CONTINUOUS
 62
     6
 10
87.063117
 20
184.734595
 40
0.189656
 50
174.999865
 51
269.942691
  0
ARC
  8
CSLAYER1
  6
CONTINUOUS
 62
     6
 10
86.808742
 20
184.450123
 40
0.094828
 50
90.000005
 51
180.000001
  0
LINE
  8
CSLAYER1
  6
CONTINUOUS
 62
     6
 10
86.713909
 20
184.450123
 11
86.713909
 21
183.975984
  0
ARC
  8
CSLAYER1
  6
CONTINUOUS
 62
     6
 10
86.808742
 20
183.975984
 40
0.094828
 50
180.000001
 51
269.942691
  0
LINE
  8
CSLAYER1
  6
CONTINUOUS
 62
     6
 10
88.898799
 20
184.544928
 11
89.319705
 21
183.881151
  0
LINE
  8
CSLAYER1
  6
CONTINUOUS
 62
     6
 10
89.372938
 20
184.544928
 11
89.793844
 21
183.881151
  0
LINE
  8
CSLAYER1
  6
CONTINUOUS
 62
     6
 10
86.808647
 20
183.881157
 11
92.119075
 21
183.881157
  0
LINE
  8
CSLAYER1
  6
CONTINUOUS
 62
     6
 10
58.800123
 20
151.226005
 11
58.800123
 21
156.536338
  0
ARC
  8
CSLAYER1
  6
CONTINUOUS
 62
     6
 10
63.541512
 20
153.881171
 40
6.637945
 50
163.742994
 51
196.257016
  0
LINE
  8
CSLAYER1
  6
CONTINUOUS
 62
     6
 10
58.593902
 20
156.470892
 11
57.996656
 21
156.418642
  0
ARC
  8
CSLAYER1
  6
CONTINUOUS
 62
     6
 10
58.079307
 20
155.473967
 40
0.948278
 50
95.000111
 51
163.742611
  0
ARC
  8
CSLAYER1
  6
CONTINUOUS
 62
     6
 10
58.610456
 20
156.281963
 40
0.189656
 50
0.000000
 51
95.000152
  0
LINE
  8
CSLAYER1
  6
CONTINUOUS
 62
     6
 10
58.894927
 20
156.631171
 11
59.369066
 21
156.631171
  0
ARC
  8
CSLAYER1
  6
CONTINUOUS
 62
     6
 10
58.894927
 20
156.536338
 40
0.094828
 50
90.000003
 51
180.000005
  0
ARC
  8
CSLAYER1
  6
CONTINUOUS
 62
     6
 10
59.369066
 20
156.536338
 40
0.094828
 50
0.000000
 51
90.000003
  0
LINE
  8
CSLAYER1
  6
CONTINUOUS
 62
     6
 10
58.593902
 20
151.291451
 11
57.996656
 21
151.343700
  0
ARC
  8
CSLAYER1
  6
CONTINUOUS
 62
     6
 10
58.079307
 20
152.288375
 40
0.948278
 50
196.257399
 51
264.999892
  0
ARC
  8
CSLAYER1
  6
CONTINUOUS
 62
     6
 10
58.610456
 20
151.480380
 40
0.189656
 50
264.999865
 51
359.942691
  0
ARC
  8
CSLAYER1
  6
CONTINUOUS
 62
     6
 10
58.894927
 20
151.226005
 40
0.094828
 50
180.000005
 51
270.000001
  0
LINE
  8
CSLAYER1
  6
CONTINUOUS
 62
     6
 10
58.894927
 20
151.131171
 11
59.369066
 21
151.131171
  0
ARC
  8
CSLAYER1
  6
CONTINUOUS
 62
     6
 10
59.369066
 20
151.226005
 40
0.094828
 50
270.000001
 51
359.942691
  0
LINE
  8
CSLAYER1
  6
CONTINUOUS
 62
     6
 10
58.800123
 20
153.316062
 11
59.463900
 21
153.736967
  0
LINE
  8
CSLAYER1
  6
CONTINUOUS
 62
     6
 10
58.800123
 20
153.790201
 11
59.463900
 21
154.211106
  0
LINE
  8
CSLAYER1
  6
CONTINUOUS
 62
     6
 10
59.463894
 20
151.225910
 11
59.463894
 21
156.536338
  0
LINE
  8
CSLAYER1
  6
CONTINUOUS
 62
     6
 10
92.563879
 20
121.531157
 11
86.363879
 21
121.531157
  0
ARC
  8
CSLAYER1
  6
CONTINUOUS
 62
     6
 10
86.363879
 20
122.931157
 40
1.400000
 50
180.000000
 51
270.000000
  0
ARC
  8
CSLAYER1
  6
CONTINUOUS
 62
     6
 10
92.563879
 20
122.931157
 40
1.400000
 50
270.000000
 51
360.000000
  0
LINE
  8
CSLAYER1
  6
CONTINUOUS
 62
     6
 10
93.963879
 20
122.931157
 11
93.963879
 21
123.881157
  0
LINE
  8
CSLAYER1
  6
CONTINUOUS
 62
     6
 10
84.963879
 20
122.931157
 11
84.963879
 21
123.881157
  0
LINE
  8
CSLAYER1
  6
CONTINUOUS
 62
     6
 10
93.963879
 20
123.881157
 11
84.963879
 21
123.881157
  0
LINE
  8
CSLAYER1
  6
CONTINUOUS
 62
     6
 10
188.463850
 20
272.453512
 11
213.463881
 21
272.881155
  0
LINE
  8
CSLAYER1
  6
CONTINUOUS
 62
     6
 10
188.463850
 20
213.308828
 11
213.463881
 21
212.881185
  0
LINE
  8
CSLAYER1
  6
CONTINUOUS
 62
     6
 10
147.463850
 20
266.881172
 11
147.463850
 21
218.881172
  0
LINE
  8
CSLAYER1
  6
CONTINUOUS
 62
     6
 10
188.463850
 20
212.881172
 11
188.463850
 21
240.970612
  0
LINE
  8
CSLAYER1
  6
CONTINUOUS
 62
     6
 10
188.463850
 20
244.791789
 11
188.463850
 21
272.881172
  0
LINE
  8
CSLAYER1
  6
CONTINUOUS
 62
     6
 10
188.463850
 20
241.141313
 11
188.463850
 21
244.621058
  0
LINE
  8
CSLAYER1
  6
CENTER
 62
     3
 10
144.463850
 20
242.881172
 11
319.963911
 21
242.881172
  0
LINE
  8
CSLAYER1
  6
CONTINUOUS
 62
     6
 10
316.963927
 20
246.881172
 11
292.463896
 21
246.881172
  0
LINE
  8
CSLAYER1
  6
CONTINUOUS
 62
     6
 10
316.963896
 20
238.881187
 11
292.463927
 21
238.881187
  0
LINE
  8
CSLAYER1
  6
CONTINUOUS
 62
     6
 10
316.963927
 20
246.881172
 11
316.963896
 21
238.881187
  0
LINE
  8
CSLAYER1
  6
CONTINUOUS
 62
     6
 10
281.463896
 20
212.881187
 11
280.463896
 21
212.881187
  0
LINE
  8
CSLAYER1
  6
CONTINUOUS
 62
     6
 10
292.463896
 20
227.881187
 11
292.463896
 21
257.881202
  0
LINE
  8
CSLAYER1
  6
CONTINUOUS
 62
     6
 10
281.463896
 20
272.881202
 11
280.463896
 21
272.881202
  0
ARC
  8
CSLAYER1
  6
CONTINUOUS
 62
     6
 10
283.463896
 20
272.881202
 40
2.000000
 50
90.000003
 51
179.999991
  0
LINE
  8
CSLAYER1
  6
CONTINUOUS
 62
     6
 10
290.463896
 20
210.881187
 11
290.463896
 21
274.881202
  0
LINE
  8
CSLAYER1
  6
CONTINUOUS
 62
     6
 10
292.463896
 20
257.881202
 11
290.463896
 21
257.881202
  0
LINE
  8
CSLAYER1
  6
CONTINUOUS
 62
     6
 10
290.463896
 20
274.881202
 11
283.463896
 21
274.881202
  0
LINE
  8
CSLAYER1
  6
CONTINUOUS
 62
     6
 10
290.463896
 20
227.881187
 11
292.463911
 21
227.881187
  0
ARC
  8
CSLAYER1
  6
CONTINUOUS
 62
     6
 10
283.463896
 20
212.881187
 40
2.000000
 50
180.000005
 51
269.999973
  0
LINE
  8
CSLAYER1
  6
CONTINUOUS
 62
     6
 10
290.463896
 20
210.881187
 11
283.463896
 21
210.881187
  0
LINE
  8
CSLAYER1
  6
CONTINUOUS
 62
     6
 10
281.463896
 20
272.881202
 11
281.463896
 21
212.881187
  0
LINE
  8
CSLAYER1
  6
CENTER
 62
     3
 10
278.804259
 20
216.881187
 11
291.849913
 21
216.881187
  0
LINE
  8
CSLAYER1
  6
CONTINUOUS
 62
     6
 10
292.463911
 20
257.881187
 11
290.463911
 21
257.881187
  0
LINE
  8
CSLAYER1
  6
CENTER
 62
     3
 10
278.463918
 20
268.881182
 11
292.463918
 21
268.881178
  0
LINE
  8
CSLAYER1
  6
CONTINUOUS
 62
     6
 10
280.463896
 20
273.881202
 11
280.463896
 21
211.881187
  0
LINE
  8
CSLAYER1
  6
CONTINUOUS
 62
     6
 10
213.463881
 20
273.881202
 11
213.463881
 21
211.881187
  0
LINE
  8
CSLAYER1
  6
CONTINUOUS
 62
     6
 10
280.463896
 20
273.881202
 11
213.463881
 21
273.881202
  0
LINE
  8
CSLAYER1
  6
CONTINUOUS
 62
     6
 10
280.463896
 20
211.881187
 11
213.463881
 21
211.881187
  0
LINE
  8
CSLAYER1
  6
CONTINUOUS
 62
     3
 10
228.963888
 20
216.034391
 11
264.963888
 21
216.034391
  0
ARC
  8
CSLAYER1
  6
CONTINUOUS
 62
     3
 10
228.963888
 20
217.034391
 40
1.000000
 50
180.000005
 51
270.000001
  0
ARC
  8
CSLAYER1
  6
CONTINUOUS
 62
     3
 10
264.963888
 20
217.034391
 40
1.000000
 50
270.000001
 51
359.942691
  0
LINE
  8
CSLAYER1
  6
CONTINUOUS
 62
     3
 10
227.963888
 20
268.727959
 11
227.963888
 21
217.034391
  0
LINE
  8
CSLAYER1
  6
CONTINUOUS
 62
     3
 10
265.963888
 20
268.727959
 11
265.963888
 21
217.034391
  0
TEXT
  8
CSLAYER1
 62
     3
 10
245.742798
 20
248.379562
 40
3.500000
 41
1.125000
  1
N P
 50
-90.000000
 51
10.000000
  7
JX_FONT
 72
     5
 11
245.742798
 21
237.879562
  0
LINE
  8
CSLAYER1
  6
CONTINUOUS
 62
     3
 10
228.963888
 20
269.727959
 11
264.963888
 21
269.727959
  0
ARC
  8
CSLAYER1
  6
CONTINUOUS
 62
     3
 10
228.963888
 20
268.727959
 40
1.000000
 50
90.000009
 51
180.000005
  0
ARC
  8
CSLAYER1
  6
CONTINUOUS
 62
     3
 10
264.963888
 20
268.727959
 40
1.000000
 50
0.057319
 51
90.000009
  0
LINE
  8
CSLAYER1
  6
CONTINUOUS
 62
     6
 10
153.463850
 20
272.881172
 11
188.463850
 21
272.881172
  0
LINE
  8
CSLAYER1
  6
CONTINUOUS
 62
     6
 10
153.463850
 20
212.881172
 11
188.463850
 21
212.881172
  0
ARC
  8
CSLAYER1
  6
CONTINUOUS
 62
     6
 10
153.463850
 20
218.881172
 40
6.000000
 50
180.000000
 51
270.000000
  0
ARC
  8
CSLAYER1
  6
CONTINUOUS
 62
     6
 10
153.463850
 20
266.881172
 40
6.000000
 50
90.000000
 51
180.000000
  0
LINE
  8
CSLAYER1
  6
CENTER
 62
     3
 10
185.463850
 20
238.131172
 11
185.463850
 21
247.631172
  0
LINE
  8
CSLAYER1
  6
CENTER
 62
     3
 10
185.463850
 20
270.268959
 11
185.463850
 21
278.581184
  0
LINE
  8
CSLAYER1
  6
CENTER
 62
     3
 10
185.463865
 20
215.493379
 11
185.463865
 21
207.181184
  0
CIRCLE
  8
CSLAYER1
  6
CONTINUOUS
 62
     6
 10
185.463850
 20
242.881172
 40
2.750000
  0
ARC
  8
CSLAYER1
  6
CONTINUOUS
 62
     6
 10
185.463840
 20
242.881172
 40
1.527778
 50
163.398416
 51
196.601577
  0
ARC
  8
CSLAYER1
  6
CONTINUOUS
 62
     6
 10
185.463840
 20
242.881172
 40
1.527778
 50
253.398422
 51
286.601583
  0
ARC
  8
CSLAYER1
  6
CONTINUOUS
 62
     6
 10
185.463840
 20
242.881172
 40
1.527778
 50
-16.601562
 51
16.601572
  0
ARC
  8
CSLAYER1
  6
CONTINUOUS
 62
     6
 10
185.463840
 20
242.881172
 40
1.527778
 50
73.398406
 51
106.601595
  0
LINE
  8
CSLAYER1
  6
CONTINUOUS
 62
     6
 10
186.336867
 20
242.444659
 11
186.927925
 21
242.444659
  0
LINE
  8
CSLAYER1
  6
CONTINUOUS
 62
     6
 10
184.590814
 20
242.444659
 11
183.999755
 21
242.444659
  0
LINE
  8
CSLAYER1
  6
CONTINUOUS
 62
     6
 10
186.336867
 20
243.317686
 11
186.927925
 21
243.317686
  0
LINE
  8
CSLAYER1
  6
CONTINUOUS
 62
     6
 10
184.590814
 20
243.317686
 11
183.999755
 21
243.317686
  0
LINE
  8
CSLAYER1
  6
CONTINUOUS
 62
     6
 10
185.027327
 20
242.008169
 11
185.027327
 21
241.417064
  0
LINE
  8
CSLAYER1
  6
CONTINUOUS
 62
     6
 10
185.027327
 20
243.754176
 11
185.027327
 21
244.345281
  0
LINE
  8
CSLAYER1
  6
CONTINUOUS
 62
     6
 10
185.900353
 20
242.008169
 11
185.900353
 21
241.417064
  0
LINE
  8
CSLAYER1
  6
CONTINUOUS
 62
     6
 10
185.900353
 20
243.754176
 11
185.900353
 21
244.345281
  0
ARC
  8
CSLAYER1
  6
CONTINUOUS
 62
     6
 10
186.336867
 20
242.008169
 40
0.436508
 50
90.000001
 51
179.942691
  0
ARC
  8
CSLAYER1
  6
CONTINUOUS
 62
     6
 10
186.336867
 20
243.754176
 40
0.436508
 50
180.000010
 51
270.000016
  0
ARC
  8
CSLAYER1
  6
CONTINUOUS
 62
     6
 10
184.590814
 20
243.754176
 40
0.436508
 50
-89.999984
 51
0.000005
  0
ARC
  8
CSLAYER1
  6
CONTINUOUS
 62
     6
 10
184.590814
 20
242.008169
 40
0.436508
 50
0.000005
 51
89.942654
  0
LINE
  8
CSLAYER1
  6
CONTINUOUS
 62
     6
 10
182.808698
 20
273.544943
 11
188.119031
 21
273.544943
  0
ARC
  8
CSLAYER1
  6
CONTINUOUS
 62
     6
 10
185.463865
 20
268.803554
 40
6.637945
 50
73.742994
 51
106.257016
  0
LINE
  8
CSLAYER1
  6
CONTINUOUS
 62
     6
 10
188.053585
 20
273.751164
 11
188.001336
 21
274.348410
  0
ARC
  8
CSLAYER1
  6
CONTINUOUS
 62
     6
 10
187.056661
 20
274.265759
 40
0.948278
 50
5.000111
 51
73.742611
  0
ARC
  8
CSLAYER1
  6
CONTINUOUS
 62
     6
 10
187.864656
 20
273.734610
 40
0.189656
 50
-90.000000
 51
5.000152
  0
LINE
  8
CSLAYER1
  6
CONTINUOUS
 62
     6
 10
188.213865
 20
273.450139
 11
188.213865
 21
272.976000
  0
ARC
  8
CSLAYER1
  6
CONTINUOUS
 62
     6
 10
188.119031
 20
273.450139
 40
0.094828
 50
0.000003
 51
90.000005
  0
ARC
  8
CSLAYER1
  6
CONTINUOUS
 62
     6
 10
188.119031
 20
272.976000
 40
0.094828
 50
-90.000000
 51
0.000003
  0
LINE
  8
CSLAYER1
  6
CONTINUOUS
 62
     6
 10
182.874144
 20
273.751164
 11
182.926394
 21
274.348410
  0
ARC
  8
CSLAYER1
  6
CONTINUOUS
 62
     6
 10
183.871069
 20
274.265759
 40
0.948278
 50
106.257399
 51
174.999892
  0
ARC
  8
CSLAYER1
  6
CONTINUOUS
 62
     6
 10
183.063073
 20
273.734610
 40
0.189656
 50
174.999865
 51
269.942691
  0
ARC
  8
CSLAYER1
  6
CONTINUOUS
 62
     6
 10
182.808698
 20
273.450139
 40
0.094828
 50
90.000005
 51
180.000001
  0
LINE
  8
CSLAYER1
  6
CONTINUOUS
 62
     6
 10
182.713865
 20
273.450139
 11
182.713865
 21
272.976000
  0
ARC
  8
CSLAYER1
  6
CONTINUOUS
 62
     6
 10
182.808698
 20
272.976000
 40
0.094828
 50
180.000001
 51
269.942691
  0
LINE
  8
CSLAYER1
  6
CONTINUOUS
 62
     6
 10
184.898756
 20
273.544943
 11
185.319661
 21
272.881166
  0
LINE
  8
CSLAYER1
  6
CONTINUOUS
 62
     6
 10
185.372894
 20
273.544943
 11
185.793800
 21
272.881166
  0
LINE
  8
CSLAYER1
  6
CONTINUOUS
 62
     6
 10
188.119002
 20
212.217401
 11
182.808669
 21
212.217401
  0
ARC
  8
CSLAYER1
  6
CONTINUOUS
 62
     6
 10
185.463836
 20
216.958790
 40
6.637945
 50
253.742994
 51
286.257016
  0
LINE
  8
CSLAYER1
  6
CONTINUOUS
 62
     6
 10
182.874115
 20
212.011180
 11
182.926365
 21
211.413934
  0
ARC
  8
CSLAYER1
  6
CONTINUOUS
 62
     6
 10
183.871040
 20
211.496584
 40
0.948278
 50
185.000111
 51
253.742611
  0
ARC
  8
CSLAYER1
  6
CONTINUOUS
 62
     6
 10
183.063044
 20
212.027733
 40
0.189656
 50
90.000000
 51
185.000152
  0
LINE
  8
CSLAYER1
  6
CONTINUOUS
 62
     6
 10
182.713836
 20
212.312205
 11
182.713836
 21
212.786344
  0
ARC
  8
CSLAYER1
  6
CONTINUOUS
 62
     6
 10
182.808669
 20
212.312205
 40
0.094828
 50
180.000003
 51
270.000005
  0
ARC
  8
CSLAYER1
  6
CONTINUOUS
 62
     6
 10
182.808669
 20
212.786344
 40
0.094828
 50
90.000000
 51
180.000003
  0
LINE
  8
CSLAYER1
  6
CONTINUOUS
 62
     6
 10
188.053556
 20
212.011180
 11
188.001307
 21
211.413934
  0
ARC
  8
CSLAYER1
  6
CONTINUOUS
 62
     6
 10
187.056632
 20
211.496584
 40
0.948278
 50
286.257399
 51
354.999892
  0
ARC
  8
CSLAYER1
  6
CONTINUOUS
 62
     6
 10
187.864627
 20
212.027733
 40
0.189656
 50
-5.000135
 51
89.942691
  0
ARC
  8
CSLAYER1
  6
CONTINUOUS
 62
     6
 10
188.119002
 20
212.312205
 40
0.094828
 50
-89.999995
 51
0.000001
  0
LINE
  8
CSLAYER1
  6
CONTINUOUS
 62
     6
 10
188.213836
 20
212.312205
 11
188.213836
 21
212.786344
  0
ARC
  8
CSLAYER1
  6
CONTINUOUS
 62
     6
 10
188.119002
 20
212.786344
 40
0.094828
 50
0.000001
 51
89.942691
  0
LINE
  8
CSLAYER1
  6
CONTINUOUS
 62
     6
 10
186.028945
 20
212.217401
 11
185.608040
 21
212.881178
  0
LINE
  8
CSLAYER1
  6
CONTINUOUS
 62
     6
 10
185.554806
 20
212.217401
 11
185.133901
 21
212.881178
  0
ENDSEC
  0
EOF
