  0
SECTION
  2
HEADER
  9
$ACADVER
  1
AC1006
  9
$INSBASE
 10
0.000000
 20
0.000000
 30
0.0
  9
$EXTMIN
 10
0.000000
 20
0.000000
  9
$EXTMAX
 10
594.000000
 20
420.000000
  9
$LIMMIN
 10
0.000000
 20
0.000000
  9
$LIMMAX
 10
594.000000
 20
420.000000
  9
$VIEWCTR
 10
297.000000
 20
210.000000
  9
$VIEWSIZE
 40
420.000000
  9
$SNAPMODE
 70
     0
  9
$SNAPUNIT
 10
1.0
 20
1.0
  9
$SNAPBASE
 10
0.0
 20
0.0
  9
$SNAPANG
 50
0.0
  9
$SNAPSTYLE
 70
     0
  9
$SNAPISOPAIR
 70
     0
  9
$GRIDMODE
 70
     0
  9
$GRIDUNIT
 10
0.0
 20
0.0
  9
$ORTHOMODE
 70
     0
  9
$REGENMODE
 70
     1
  9
$FILLMODE
 70
     1
  9
$QTEXTMODE
 70
     0
  9
$DRAGMODE
 70
     2
  9
$LTSCALE
 40
15.000000
  9
$OSMODE
 70
     0
  9
$ATTMODE
 70
     1
  9
$TEXTSIZE
 40
0.2
  9
$TRACEWID
 40
0.05
  9
$TEXTSTYLE
  7
STANDARD
  9
$CLAYER
  8
CSLAYER1
  9
$CELTYPE
  6
BYLAYER
  9
$CECOLOR
 62
   256
  9
$DIMSCALE
 40
1.0
  9
$DIMASZ
 40
0.18
  9
$DIMEXO
 40
0.0625
  9
$DIMDLI
 40
0.38
  9
$DIMRND
 40
0.0
  9
$DIMDLE
 40
0.0
  9
$DIMEXE
 40
0.18
  9
$DIMTP
 40
0.0
  9
$DIMTM
 40
0.0
  9
$DIMTXT
 40
0.18
  9
$DIMCEN
 40
0.09
  9
$DIMTSZ
 40
0.0
  9
$DIMTOL
 70
     0
  9
$DIMLIM
 70
     0
  9
$DIMTIH
 70
     1
  9
$DIMTOH
 70
     1
  9
$DIMSE1
 70
     0
  9
$DIMSE2
 70
     0
  9
$DIMTAD
 70
     0
  9
$DIMZIN
 70
     0
  9
$DIMBLK
  1

  9
$LUNITS
 70
     2
  9
$LUPREC
 70
     4
  9
$AXISMODE
 70
     0
  9
$AXISUNIT
 10
0.0
 20
0.0
  9
$SKETCHINC
 40
0.1
  9
$FILLETRAD
 40
0.0
  9
$AUNITS
 70
     0
  9
$AUPREC
 70
     0
  9
$MENU
  1
ACAD
  9
$ELEVATION
 40
0.0
  9
$THICKNESS
 40
0.0
  9
$VIEWDIR
 10
0.0
 20
0.0
 30
1.0
  9
$LIMCHECK
 70
     0
  9
$BLIPMODE
 70
     1
  9
$CHAMFERA
 40
0.0
  9
$CHAMFERB
 40
0.0
  9
$FASTZOOM
 70
     1
  9
$SKPOLY
 70
     0
  9
$TDCREATE
 40
0.000000
  9
$TDUPDATE
 40
0.000000
  9
$TDINDWG
 40
0.0
  9
$TDUSRTIMER
 40
0.0
  9
$USRTIMER
 70
     1
  9
$ANGBASE
 50
0.0
  9
$ANGDIR
 70
     0
  9
$PDMODE
 70
     0
  9
$PDSIZE
 40
0.0
  9
$PLINEWID
 40
0.0
  9
$COORDS
 70
     0
  9
$USERI1
 70
     0
  9
$USERI2
 70
     0
  9
$USERI3
 70
     0
  9
$USERI4
 70
     0
  9
$USERI5
 70
     0
  9
$USERR1
 40
0.0
  9
$USERR2
 40
0.0
  9
$USERR3
 40
0.0
  9
$USERR4
 40
0.0
  9
$USERR5
 40
0.0
  0
ENDSEC
  0
SECTION
  2
TABLES
  0
TABLE
  2
LTYPE
 70
     9
  0
LTYPE
  2
CONTINUOUS
 70
    64
  3
Solid line
 72
    65
 73
     0
 40
0.0
  0
LTYPE
  2
DASHED
 70
    64
  3
__ __ __ __ __ __ __ __ __ __ __ __ __ __ __
 72
    65
 73
     2
 40
0.75
 49
0.5
 49
-0.25
  0
LTYPE
  2
HIDDEN
 70
    64
  3
_ _ _ _ _ _ _ _ _ _ _ _ _ _ _ _ _ _ _ _ _ _ _
 72
    65
 73
     2
 40
0.375
 49
0.25
 49
-0.125
  0
LTYPE
  2
DOT
 70
    64
  3
...............................................
 72
    65
 73
     2
 40
0.25
 49
0.0
 49
-0.25
  0
LTYPE
  2
DASHDOT
 70
    64
  3
__ . __ . __ . __ . __ . __ . __ . __ . __ . __
 72
    65
 73
     4
 40
1.0
 49
0.5
 49
-0.25
 49
0.0
 49
-0.25
  0
LTYPE
  2
DIVIDE
 70
    64
  3
__ . . __ . . __ . . __ . . __ . . __ . . __
 72
    65
 73
     6
 40
1.25
 49
0.5
 49
-0.25
 49
0.0
 49
-0.25
 49
0.0
 49
-0.25
  0
LTYPE
  2
CENTER
 70
    64
  3
____ _ ____ _ ____ _ ____ _ ____ _ ____ _ ____ 
 72
    65
 73
     4
 40
2.0
 49
1.25
 49
-0.25
 49
0.25
 49
-0.25
  0
LTYPE
  2
PHANTOM
 70
    64
  3
______  __  __  ______  __  __  ______  __  __ 
 72
    65
 73
     6
 40
2.5
 49
1.25
 49
-0.25
 49
0.25
 49
-0.25
 49
0.25
 49
-0.25
  0
LTYPE
  2
BORDER
 70
    64
  3
__ __ . __ __ . __ __ . __ __ . __ __ . __ __ .
 72
    65
 73
     6
 40
1.75
 49
0.5
 49
-0.25
 49
0.5
 49
-0.25
 49
0.0
 49
-0.25
  0
ENDTAB
  0
TABLE
  2
LAYER
 70
    16
  0
LAYER
  2
CSLAYER1
 70
    64
 62
     7
  6
CONTINUOUS
  0
LAYER
  2
CSLAYER2
 70
    64
 62
     7
  6
CONTINUOUS
  0
LAYER
  2
CSLAYER3
 70
    64
 62
     7
  6
CONTINUOUS
  0
LAYER
  2
CSLAYER4
 70
    64
 62
     7
  6
CONTINUOUS
  0
LAYER
  2
CSLAYER5
 70
    64
 62
     7
  6
CONTINUOUS
  0
LAYER
  2
CSLAYER6
 70
    64
 62
     7
  6
CONTINUOUS
  0
LAYER
  2
CSLAYER7
 70
    64
 62
     7
  6
CONTINUOUS
  0
LAYER
  2
CSLAYER8
 70
    64
 62
     7
  6
CONTINUOUS
  0
LAYER
  2
CSLAYER9
 70
    64
 62
     7
  6
CONTINUOUS
  0
LAYER
  2
CSLAYER10
 70
    64
 62
     7
  6
CONTINUOUS
  0
LAYER
  2
CSLAYER11
 70
    64
 62
     7
  6
CONTINUOUS
  0
LAYER
  2
CSLAYER12
 70
    64
 62
     7
  6
CONTINUOUS
  0
LAYER
  2
CSLAYER13
 70
    64
 62
     7
  6
CONTINUOUS
  0
LAYER
  2
CSLAYER14
 70
    64
 62
     7
  6
CONTINUOUS
  0
LAYER
  2
CSLAYER15
 70
    64
 62
     7
  6
CONTINUOUS
  0
LAYER
  2
CSLAYER16
 70
    64
 62
     7
  6
CONTINUOUS
  0
ENDTAB
  0
TABLE
  2
STYLE
 70
     1
  0
STYLE
  2
JX_FONT
 70
     0
 40
1.0
 41
1.0
 50
0.0
 71
     0
 42
1.0
  3
monotxt
  4
bigfont
  0
ENDTAB
  0
TABLE
  2
VIEW
 70
     0
  0
ENDTAB
  0
ENDSEC
  0
SECTION
  2
BLOCKS
  0
ENDSEC
  0
SECTION
  2
ENTITIES
  0
LINE
  8
CSLAYER1
  6
CONTINUOUS
 62
     6
 10
294.287881
 20
252.881177
 11
295.287881
 21
252.881177
  0
LINE
  8
CSLAYER1
  6
CENTER
 62
     3
 10
396.287873
 20
222.881177
 11
206.287881
 21
222.881156
  0
LINE
  8
CSLAYER1
  6
CENTER
 62
     3
 10
396.287873
 20
64.357111
 11
206.287881
 21
64.357111
  0
LINE
  8
CSLAYER1
  6
CONTINUOUS
 62
     6
 10
294.287896
 20
94.357131
 11
295.287896
 21
94.357131
  0
LINE
  8
CSLAYER1
  6
CENTER
 62
     3
 10
493.534120
 20
257.881169
 11
493.534097
 21
151.881140
  0
CIRCLE
  8
CSLAYER1
  6
CONTINUOUS
 62
     6
 10
493.534105
 20
222.881154
 40
30.000000
  0
ARC
  8
CSLAYER1
  6
CONTINUOUS
 62
     6
 10
493.534105
 20
222.881154
 40
31.000000
 50
-85.930444
 51
265.930414
  0
LINE
  8
CSLAYER1
  6
CONTINUOUS
 62
     6
 10
495.734085
 20
184.546658
 11
495.734096
 21
192.961933
  0
LINE
  8
CSLAYER1
  6
CONTINUOUS
 62
     6
 10
491.334087
 20
184.546660
 11
491.334099
 21
192.961935
  0
LINE
  8
CSLAYER1
  6
CONTINUOUS
 62
     6
 10
493.534080
 20
184.546659
 11
493.534100
 21
192.961934
  0
ARC
  8
CSLAYER1
  6
CONTINUOUS
 62
     6
 10
509.293108
 20
181.634505
 40
15.759004
 50
180.000210
 51
207.463963
  0
ARC
  8
CSLAYER1
  6
CONTINUOUS
 62
     6
 10
509.293108
 20
181.634505
 40
13.559023
 50
180.000284
 51
207.463982
  0
ARC
  8
CSLAYER1
  6
CONTINUOUS
 62
     6
 10
494.084106
 20
185.499280
 40
1.099999
 50
239.999846
 51
299.999834
  0
ARC
  8
CSLAYER1
  6
CONTINUOUS
 62
     6
 10
495.184105
 20
185.499280
 40
1.099999
 50
239.999846
 51
299.999834
  0
ARC
  8
CSLAYER1
  6
CONTINUOUS
 62
     6
 10
495.184096
 20
183.594037
 40
1.099999
 50
59.999834
 51
119.999829
  0
ARC
  8
CSLAYER1
  6
CONTINUOUS
 62
     6
 10
495.184086
 20
180.681796
 40
1.099999
 50
59.999691
 51
119.999692
  0
ARC
  8
CSLAYER1
  6
CONTINUOUS
 62
     6
 10
494.084087
 20
180.681812
 40
1.099999
 50
59.999691
 51
119.999692
  0
ARC
  8
CSLAYER1
  6
CONTINUOUS
 62
     6
 10
494.084096
 20
182.587070
 40
1.099999
 50
239.999709
 51
299.999697
  0
LINE
  8
CSLAYER1
  6
CONTINUOUS
 62
     6
 10
496.774164
 20
175.127566
 11
498.551007
 21
172.106567
  0
LINE
  8
CSLAYER1
  6
CONTINUOUS
 62
     6
 10
496.286148
 20
174.873919
 11
497.900324
 21
171.768361
  0
LINE
  8
CSLAYER1
  6
CONTINUOUS
 62
     6
 10
495.798135
 20
174.620266
 11
497.249641
 21
171.430155
  0
LINE
  8
CSLAYER1
  6
CONTINUOUS
 62
     6
 10
497.262176
 20
175.381220
 11
495.310127
 21
174.366603
  0
ARC
  8
CSLAYER1
  6
CONTINUOUS
 62
     6
 10
477.775125
 20
181.634346
 40
15.758933
 50
-27.463485
 51
0.000373
  0
ARC
  8
CSLAYER1
  6
CONTINUOUS
 62
     6
 10
477.775125
 20
181.634346
 40
13.558951
 50
-27.463387
 51
0.000393
  0
ARC
  8
CSLAYER1
  6
CONTINUOUS
 62
     6
 10
491.884064
 20
185.499281
 40
1.099999
 50
240.000174
 51
300.000162
  0
ARC
  8
CSLAYER1
  6
CONTINUOUS
 62
     6
 10
492.984062
 20
185.499281
 40
1.099999
 50
240.000174
 51
300.000162
  0
ARC
  8
CSLAYER1
  6
CONTINUOUS
 62
     6
 10
492.984069
 20
183.594038
 40
1.099999
 50
60.000162
 51
120.000157
  0
ARC
  8
CSLAYER1
  6
CONTINUOUS
 62
     6
 10
492.984081
 20
180.681828
 40
1.099999
 50
60.000326
 51
120.000321
  0
ARC
  8
CSLAYER1
  6
CONTINUOUS
 62
     6
 10
491.884083
 20
180.681813
 40
1.099999
 50
60.000326
 51
120.000321
  0
ARC
  8
CSLAYER1
  6
CONTINUOUS
 62
     6
 10
491.884072
 20
182.587071
 40
1.099999
 50
240.000338
 51
300.000326
  0
LINE
  8
CSLAYER1
  6
CENTER
 62
     3
 10
533.534112
 20
222.881152
 11
453.534112
 21
222.881186
  0
CIRCLE
  8
CSLAYER1
  6
CONTINUOUS
 62
     6
 10
493.534097
 20
222.881154
 40
6.818180
  0
CIRCLE
  8
CSLAYER1
  6
CONTINUOUS
 62
     6
 10
493.534097
 20
222.881154
 40
7.909089
  0
LINE
  8
CSLAYER1
  6
CONTINUOUS
 62
     6
 10
486.715917
 20
222.881157
 11
496.943184
 21
219.472065
  0
LINE
  8
CSLAYER1
  6
CONTINUOUS
 62
     6
 10
496.943184
 20
219.472065
 11
496.984880
 21
222.881153
  0
LINE
  8
CSLAYER1
  6
CONTINUOUS
 62
     6
 10
496.984880
 20
222.881153
 11
500.352281
 21
222.881151
  0
LINE
  8
CSLAYER1
  6
CONTINUOUS
 62
     6
 10
490.125010
 20
226.290244
 11
490.148145
 21
222.881156
  0
LINE
  8
CSLAYER1
  6
CONTINUOUS
 62
     6
 10
490.148145
 20
222.881156
 11
486.715917
 21
222.881157
  0
TEXT
  8
CSLAYER1
 62
     6
 10
478.701294
 20
220.913055
 40
3.409090
 41
1.200000
  1
S
 50
281.999969
 51
3.000000
  7
JX_FONT
 72
     5
 11
479.268324
 21
218.245381
  0
TEXT
  8
CSLAYER1
 62
     6
 10
479.434631
 20
217.872162
 40
3.409090
 41
1.200000
  1
A
 50
294.000000
 51
3.000000
  7
JX_FONT
 72
     5
 11
480.543913
 21
215.380675
  0
TEXT
  8
CSLAYER1
 62
     6
 10
480.784180
 20
215.050171
 40
3.409090
 41
1.596000
  1
W
 50
306.000000
 51
3.000000
  7
JX_FONT
 72
     5
 11
482.916237
 21
212.115646
  0
TEXT
  8
CSLAYER1
 62
     6
 10
482.690918
 20
212.570435
 40
3.409090
 41
1.200000
  1
A
 50
317.999969
 51
3.000000
  7
JX_FONT
 72
     5
 11
484.717675
 21
210.745532
  0
TEXT
  8
CSLAYER1
 62
     6
 10
485.071533
 20
210.541336
 40
3.409090
 41
1.200000
  1
M
 50
329.999969
 51
3.000000
  7
JX_FONT
 72
     5
 11
487.433419
 21
209.177699
  0
TEXT
  8
CSLAYER1
 62
     6
 10
487.822083
 20
209.051544
 40
3.409090
 41
1.200000
  1
U
 50
341.999969
 51
3.000000
  7
JX_FONT
 72
     5
 11
490.415872
 21
208.208769
  0
TEXT
  8
CSLAYER1
 62
     6
 10
490.822266
 20
208.166168
 40
3.409090
 41
1.200000
  1
R
 50
353.999939
 51
3.000000
  7
JX_FONT
 72
     5
 11
493.534597
 21
207.881088
  0
TEXT
  8
CSLAYER1
 62
     6
 10
493.940918
 20
207.923889
 40
3.409090
 41
1.200000
  1
A
 50
5.999976
 51
3.000000
  7
JX_FONT
 72
     5
 11
496.653250
 21
208.208966
  0
TEXT
  8
CSLAYER1
 62
     6
 10
506.690796
 20
215.754852
 40
3.409090
 41
1.200000
  1
K
 50
66.000038
 51
3.000000
  7
JX_FONT
 72
     5
 11
507.800076
 21
218.246340
  0
TEXT
  8
CSLAYER1
 62
     6
 10
507.884949
 20
218.646011
 40
3.409090
 41
0.792000
  1
I
 50
77.999977
 51
3.000000
  7
JX_FONT
 72
     5
 11
508.259190
 21
220.406676
  0
TEXT
  8
CSLAYER1
 62
     6
 10
499.989380
 20
209.382477
 40
3.409090
 41
1.200000
  1
D
 50
30.000006
 51
3.000000
  7
JX_FONT
 72
     5
 11
502.351267
 21
210.746113
  0
TEXT
  8
CSLAYER1
 62
     6
 10
502.654907
 20
211.019608
 40
3.409090
 41
1.200000
  1
E
 50
41.999947
 51
3.000000
  7
JX_FONT
 72
     5
 11
504.681667
 21
212.844507
  0
TEXT
  8
CSLAYER1
 62
     6
 10
504.921692
 20
213.175140
 40
3.409090
 41
1.200000
  1
N
 50
54.000038
 51
3.000000
  7
JX_FONT
 72
     5
 11
506.524741
 21
215.381551
  0
TEXT
  8
CSLAYER1
 62
     6
 10
478.616272
 20
224.039886
 40
3.410000
 41
1.200000
  1
*
 50
269.999969
 51
3.000000
  7
JX_FONT
 72
     5
 11
478.616271
 21
221.311886
  0
TEXT
  8
CSLAYER1
 62
     6
 10
499.246155
 20
236.710724
 40
3.409090
 41
1.200000
  1
U
 50
161.999969
 51
3.000000
  7
JX_FONT
 72
     5
 11
496.652365
 21
237.553499
  0
TEXT
  8
CSLAYER1
 62
     6
 10
496.245972
 20
237.596100
 40
3.409090
 41
1.200000
  1
R
 50
173.999954
 51
3.000000
  7
JX_FONT
 72
     5
 11
493.533640
 21
237.881180
  0
TEXT
  8
CSLAYER1
 62
     6
 10
493.127319
 20
237.838379
 40
3.409090
 41
1.200000
  1
A
 50
185.999985
 51
3.000000
  7
JX_FONT
 72
     5
 11
490.414988
 21
237.553302
  0
TEXT
  8
CSLAYER1
 62
     6
 10
480.377380
 20
230.007416
 40
3.409090
 41
1.200000
  1
K
 50
246.000031
 51
3.000000
  7
JX_FONT
 72
     5
 11
479.268100
 21
227.515928
  0
TEXT
  8
CSLAYER1
 62
     6
 10
479.183289
 20
227.116257
 40
3.409090
 41
0.792000
  1
I
 50
257.999969
 51
3.000000
  7
JX_FONT
 72
     5
 11
478.809047
 21
225.355592
  0
TEXT
  8
CSLAYER1
 62
     6
 10
487.078796
 20
236.379791
 40
3.409090
 41
1.200000
  1
D
 50
210.000015
 51
3.000000
  7
JX_FONT
 72
     5
 11
484.716910
 21
235.016155
  0
TEXT
  8
CSLAYER1
 62
     6
 10
484.413391
 20
234.742661
 40
3.409090
 41
1.200000
  1
E
 50
221.999939
 51
3.000000
  7
JX_FONT
 72
     5
 11
482.386631
 21
232.917761
  0
TEXT
  8
CSLAYER1
 62
     6
 10
482.146545
 20
232.587128
 40
3.409090
 41
1.200000
  1
N
 50
234.000031
 51
3.000000
  7
JX_FONT
 72
     5
 11
480.543496
 21
230.380717
  0
TEXT
  8
CSLAYER1
 62
     6
 10
508.366943
 20
224.849213
 40
3.409090
 41
1.200000
  1
S
 50
101.999977
 51
3.000000
  7
JX_FONT
 72
     5
 11
507.799913
 21
227.516887
  0
TEXT
  8
CSLAYER1
 62
     6
 10
507.633606
 20
227.890106
 40
3.409090
 41
1.200000
  1
A
 50
114.000023
 51
3.000000
  7
JX_FONT
 72
     5
 11
506.524323
 21
230.381593
  0
TEXT
  8
CSLAYER1
 62
     6
 10
506.284058
 20
230.712097
 40
3.409090
 41
1.596000
  1
W
 50
126.000008
 51
3.000000
  7
JX_FONT
 72
     5
 11
504.152000
 21
233.646621
  0
TEXT
  8
CSLAYER1
 62
     6
 10
504.377319
 20
233.191833
 40
3.409090
 41
1.200000
  1
A
 50
138.000000
 51
3.000000
  7
JX_FONT
 72
     5
 11
502.350561
 21
235.016735
  0
TEXT
  8
CSLAYER1
 62
     6
 10
501.996643
 20
235.220932
 40
3.409090
 41
1.200000
  1
M
 50
149.999985
 51
3.000000
  7
JX_FONT
 72
     5
 11
499.634757
 21
236.584569
  0
TEXT
  8
CSLAYER1
 62
     6
 10
508.451965
 20
221.722382
 40
3.410000
 41
1.200000
  1
*
 50
89.999977
 51
3.000000
  7
JX_FONT
 72
     5
 11
508.451966
 21
224.450382
  0
CIRCLE
  8
CSLAYER1
  6
CONTINUOUS
 62
     6
 10
493.534097
 20
222.881154
 40
16.000000
  0
CIRCLE
  8
CSLAYER1
  6
CONTINUOUS
 62
     6
 10
493.534097
 20
222.881154
 40
17.000000
  0
LINE
  8
CSLAYER1
  6
CONTINUOUS
 62
     6
 10
500.352273
 20
222.881154
 11
490.125010
 21
226.290244
  0
LINE
  8
CSLAYER1
  6
CONTINUOUS
 62
     6
 10
490.148145
 20
222.881171
 11
490.148145
 21
222.881156
  0
LINE
  8
CSLAYER1
  6
CONTINUOUS
 62
     6
 10
490.294041
 20
175.127567
 11
488.517196
 21
172.106569
  0
LINE
  8
CSLAYER1
  6
CONTINUOUS
 62
     6
 10
490.782057
 20
174.873920
 11
489.167879
 21
171.768363
  0
LINE
  8
CSLAYER1
  6
CONTINUOUS
 62
     6
 10
491.270069
 20
174.620267
 11
489.818562
 21
171.430157
  0
LINE
  8
CSLAYER1
  6
CONTINUOUS
 62
     6
 10
489.806060
 20
175.381206
 11
491.758104
 21
174.366590
  0
LINE
  8
CSLAYER1
  6
CENTER
 62
     3
 10
467.534126
 20
255.381189
 11
467.534121
 21
242.447931
  0
CIRCLE
  8
CSLAYER1
  6
CONTINUOUS
 62
     6
 10
467.534132
 20
248.881195
 40
3.500000
  0
ARC
  8
CSLAYER1
  6
CONTINUOUS
 62
     6
 10
467.534119
 20
248.881196
 40
1.944444
 50
163.398391
 51
196.601553
  0
ARC
  8
CSLAYER1
  6
CONTINUOUS
 62
     6
 10
467.534119
 20
248.881196
 40
1.944444
 50
253.398397
 51
286.601559
  0
ARC
  8
CSLAYER1
  6
CONTINUOUS
 62
     6
 10
467.534119
 20
248.881196
 40
1.944444
 50
-16.601586
 51
16.601548
  0
ARC
  8
CSLAYER1
  6
CONTINUOUS
 62
     6
 10
467.534119
 20
248.881196
 40
1.944444
 50
73.398382
 51
106.601571
  0
LINE
  8
CSLAYER1
  6
CONTINUOUS
 62
     6
 10
468.645244
 20
248.325633
 11
469.397500
 21
248.325633
  0
LINE
  8
CSLAYER1
  6
CONTINUOUS
 62
     6
 10
466.422994
 20
248.325634
 11
465.670737
 21
248.325635
  0
LINE
  8
CSLAYER1
  6
CONTINUOUS
 62
     6
 10
468.645244
 20
249.436758
 11
469.397501
 21
249.436758
  0
LINE
  8
CSLAYER1
  6
CONTINUOUS
 62
     6
 10
466.422994
 20
249.436759
 11
465.670738
 21
249.436759
  0
LINE
  8
CSLAYER1
  6
CONTINUOUS
 62
     6
 10
466.978556
 20
247.770101
 11
466.978556
 21
247.017786
  0
LINE
  8
CSLAYER1
  6
CONTINUOUS
 62
     6
 10
466.978557
 20
249.992292
 11
466.978557
 21
250.744607
  0
LINE
  8
CSLAYER1
  6
CONTINUOUS
 62
     6
 10
468.089681
 20
247.770100
 11
468.089681
 21
247.017786
  0
LINE
  8
CSLAYER1
  6
CONTINUOUS
 62
     6
 10
468.089682
 20
249.992292
 11
468.089682
 21
250.744606
  0
ARC
  8
CSLAYER1
  6
CONTINUOUS
 62
     6
 10
468.645243
 20
247.770100
 40
0.555556
 50
89.999976
 51
179.942667
  0
ARC
  8
CSLAYER1
  6
CONTINUOUS
 62
     6
 10
468.645244
 20
249.992292
 40
0.555556
 50
179.999986
 51
269.999992
  0
ARC
  8
CSLAYER1
  6
CONTINUOUS
 62
     6
 10
466.422995
 20
249.992292
 40
0.555556
 50
269.999992
 51
359.999981
  0
ARC
  8
CSLAYER1
  6
CONTINUOUS
 62
     6
 10
466.422994
 20
247.770101
 40
0.555556
 50
-0.000019
 51
89.942630
  0
LINE
  8
CSLAYER1
  6
CENTER
 62
     3
 10
461.034115
 20
248.881183
 11
474.034132
 21
248.881178
  0
LINE
  8
CSLAYER1
  6
CENTER
 62
     3
 10
519.534112
 20
255.381178
 11
519.534112
 21
242.447920
  0
CIRCLE
  8
CSLAYER1
  6
CONTINUOUS
 62
     6
 10
519.534104
 20
248.881184
 40
3.500000
  0
ARC
  8
CSLAYER1
  6
CONTINUOUS
 62
     6
 10
519.534117
 20
248.881185
 40
1.944444
 50
-16.601577
 51
16.601584
  0
ARC
  8
CSLAYER1
  6
CONTINUOUS
 62
     6
 10
519.534117
 20
248.881185
 40
1.944444
 50
253.398417
 51
286.601578
  0
ARC
  8
CSLAYER1
  6
CONTINUOUS
 62
     6
 10
519.534117
 20
248.881185
 40
1.944444
 50
163.398428
 51
196.601562
  0
ARC
  8
CSLAYER1
  6
CONTINUOUS
 62
     6
 10
519.534117
 20
248.881185
 40
1.944444
 50
73.398405
 51
106.601594
  0
LINE
  8
CSLAYER1
  6
CONTINUOUS
 62
     6
 10
518.422992
 20
248.325623
 11
517.670736
 21
248.325623
  0
LINE
  8
CSLAYER1
  6
CONTINUOUS
 62
     6
 10
520.645242
 20
248.325623
 11
521.397498
 21
248.325623
  0
LINE
  8
CSLAYER1
  6
CONTINUOUS
 62
     6
 10
518.422992
 20
249.436748
 11
517.670736
 21
249.436748
  0
LINE
  8
CSLAYER1
  6
CONTINUOUS
 62
     6
 10
520.645242
 20
249.436748
 11
521.397498
 21
249.436748
  0
LINE
  8
CSLAYER1
  6
CONTINUOUS
 62
     6
 10
520.089679
 20
247.770089
 11
520.089679
 21
247.017775
  0
LINE
  8
CSLAYER1
  6
CONTINUOUS
 62
     6
 10
520.089679
 20
249.992281
 11
520.089679
 21
250.744595
  0
LINE
  8
CSLAYER1
  6
CONTINUOUS
 62
     6
 10
518.978554
 20
247.770089
 11
518.978554
 21
247.017775
  0
LINE
  8
CSLAYER1
  6
CONTINUOUS
 62
     6
 10
518.978554
 20
249.992281
 11
518.978554
 21
250.744595
  0
ARC
  8
CSLAYER1
  6
CONTINUOUS
 62
     6
 10
518.422992
 20
247.770089
 40
0.555556
 50
0.057309
 51
89.999999
  0
ARC
  8
CSLAYER1
  6
CONTINUOUS
 62
     6
 10
518.422992
 20
249.992281
 40
0.555556
 50
269.999984
 51
359.999990
  0
ARC
  8
CSLAYER1
  6
CONTINUOUS
 62
     6
 10
520.645242
 20
249.992281
 40
0.555556
 50
179.999995
 51
269.999984
  0
ARC
  8
CSLAYER1
  6
CONTINUOUS
 62
     6
 10
520.645242
 20
247.770089
 40
0.555556
 50
90.057346
 51
179.999995
  0
LINE
  8
CSLAYER1
  6
CENTER
 62
     3
 10
526.034121
 20
248.881169
 11
513.034104
 21
248.881169
  0
LINE
  8
CSLAYER1
  6
CENTER
 62
     3
 10
467.534099
 20
190.381172
 11
467.534104
 21
203.314430
  0
CIRCLE
  8
CSLAYER1
  6
CONTINUOUS
 62
     6
 10
467.534110
 20
196.881165
 40
3.500000
  0
ARC
  8
CSLAYER1
  6
CONTINUOUS
 62
     6
 10
467.534097
 20
196.881165
 40
1.944444
 50
163.398399
 51
196.601560
  0
ARC
  8
CSLAYER1
  6
CONTINUOUS
 62
     6
 10
467.534097
 20
196.881165
 40
1.944444
 50
73.398392
 51
106.601554
  0
ARC
  8
CSLAYER1
  6
CONTINUOUS
 62
     6
 10
467.534097
 20
196.881165
 40
1.944444
 50
-16.601596
 51
16.601538
  0
ARC
  8
CSLAYER1
  6
CONTINUOUS
 62
     6
 10
467.534097
 20
196.881165
 40
1.944444
 50
253.398381
 51
286.601569
  0
LINE
  8
CSLAYER1
  6
CONTINUOUS
 62
     6
 10
468.645222
 20
197.436727
 11
469.397479
 21
197.436726
  0
LINE
  8
CSLAYER1
  6
CONTINUOUS
 62
     6
 10
466.422972
 20
197.436728
 11
465.670716
 21
197.436728
  0
LINE
  8
CSLAYER1
  6
CONTINUOUS
 62
     6
 10
468.645222
 20
196.325602
 11
469.397478
 21
196.325602
  0
LINE
  8
CSLAYER1
  6
CONTINUOUS
 62
     6
 10
466.422972
 20
196.325603
 11
465.670715
 21
196.325603
  0
LINE
  8
CSLAYER1
  6
CONTINUOUS
 62
     6
 10
466.978535
 20
197.992261
 11
466.978535
 21
198.744575
  0
LINE
  8
CSLAYER1
  6
CONTINUOUS
 62
     6
 10
466.978534
 20
195.770069
 11
466.978534
 21
195.017755
  0
LINE
  8
CSLAYER1
  6
CONTINUOUS
 62
     6
 10
468.089660
 20
197.992260
 11
468.089660
 21
198.744575
  0
LINE
  8
CSLAYER1
  6
CONTINUOUS
 62
     6
 10
468.089659
 20
195.770069
 11
468.089659
 21
195.017754
  0
ARC
  8
CSLAYER1
  6
CONTINUOUS
 62
     6
 10
468.645222
 20
197.992260
 40
0.555556
 50
180.057285
 51
269.999975
  0
ARC
  8
CSLAYER1
  6
CONTINUOUS
 62
     6
 10
468.645221
 20
195.770068
 40
0.555556
 50
89.999960
 51
179.999966
  0
ARC
  8
CSLAYER1
  6
CONTINUOUS
 62
     6
 10
466.422972
 20
195.770069
 40
0.555556
 50
-0.000029
 51
89.999960
  0
ARC
  8
CSLAYER1
  6
CONTINUOUS
 62
     6
 10
466.422973
 20
197.992261
 40
0.555556
 50
270.057321
 51
359.999971
  0
LINE
  8
CSLAYER1
  6
CENTER
 62
     3
 10
461.034093
 20
196.881183
 11
474.034110
 21
196.881178
  0
LINE
  8
CSLAYER1
  6
CENTER
 62
     3
 10
519.534085
 20
190.381139
 11
519.534096
 21
203.314397
  0
CIRCLE
  8
CSLAYER1
  6
CONTINUOUS
 62
     6
 10
519.534082
 20
196.881132
 40
3.500000
  0
ARC
  8
CSLAYER1
  6
CONTINUOUS
 62
     6
 10
519.534095
 20
196.881132
 40
1.944444
 50
-16.601633
 51
16.601529
  0
ARC
  8
CSLAYER1
  6
CONTINUOUS
 62
     6
 10
519.534095
 20
196.881132
 40
1.944444
 50
73.398373
 51
106.601535
  0
ARC
  8
CSLAYER1
  6
CONTINUOUS
 62
     6
 10
519.534095
 20
196.881132
 40
1.944444
 50
163.398389
 51
196.601524
  0
ARC
  8
CSLAYER1
  6
CONTINUOUS
 62
     6
 10
519.534095
 20
196.881132
 40
1.944444
 50
253.398358
 51
286.601547
  0
LINE
  8
CSLAYER1
  6
CONTINUOUS
 62
     6
 10
518.422971
 20
197.436695
 11
517.670714
 21
197.436696
  0
LINE
  8
CSLAYER1
  6
CONTINUOUS
 62
     6
 10
520.645220
 20
197.436693
 11
521.397477
 21
197.436693
  0
LINE
  8
CSLAYER1
  6
CONTINUOUS
 62
     6
 10
518.422970
 20
196.325570
 11
517.670713
 21
196.325571
  0
LINE
  8
CSLAYER1
  6
CONTINUOUS
 62
     6
 10
520.645219
 20
196.325568
 11
521.397476
 21
196.325568
  0
LINE
  8
CSLAYER1
  6
CONTINUOUS
 62
     6
 10
520.089658
 20
197.992227
 11
520.089659
 21
198.744542
  0
LINE
  8
CSLAYER1
  6
CONTINUOUS
 62
     6
 10
520.089656
 20
195.770035
 11
520.089656
 21
195.017721
  0
LINE
  8
CSLAYER1
  6
CONTINUOUS
 62
     6
 10
518.978533
 20
197.992228
 11
518.978534
 21
198.744542
  0
LINE
  8
CSLAYER1
  6
CONTINUOUS
 62
     6
 10
518.978532
 20
195.770036
 11
518.978531
 21
195.017722
  0
ARC
  8
CSLAYER1
  6
CONTINUOUS
 62
     6
 10
518.422971
 20
197.992229
 40
0.555556
 50
269.999952
 51
359.942643
  0
ARC
  8
CSLAYER1
  6
CONTINUOUS
 62
     6
 10
518.422969
 20
195.770037
 40
0.555556
 50
-0.000039
 51
89.999968
  0
ARC
  8
CSLAYER1
  6
CONTINUOUS
 62
     6
 10
520.645219
 20
195.770035
 40
0.555556
 50
89.999968
 51
179.999956
  0
ARC
  8
CSLAYER1
  6
CONTINUOUS
 62
     6
 10
520.645221
 20
197.992227
 40
0.555556
 50
179.999956
 51
269.942606
  0
LINE
  8
CSLAYER1
  6
CENTER
 62
     3
 10
526.034099
 20
196.881142
 11
513.034082
 21
196.881153
  0
LINE
  8
CSLAYER1
  6
CONTINUOUS
 62
     6
 10
461.534101
 20
196.881183
 11
461.534123
 21
248.881183
  0
LINE
  8
CSLAYER1
  6
CONTINUOUS
 62
     6
 10
525.534101
 20
196.881142
 11
525.534123
 21
248.881156
  0
LINE
  8
CSLAYER1
  6
CONTINUOUS
 62
     6
 10
519.534126
 20
254.881158
 11
467.534126
 21
254.881180
  0
LINE
  8
CSLAYER1
  6
CONTINUOUS
 62
     6
 10
519.534099
 20
190.881158
 11
495.734094
 21
190.881169
  0
ARC
  8
CSLAYER1
  6
CONTINUOUS
 62
     6
 10
467.534123
 20
248.881180
 40
6.000000
 50
89.999976
 51
179.999976
  0
LINE
  8
CSLAYER1
  6
CONTINUOUS
 62
     6
 10
491.334096
 20
190.881170
 11
467.534099
 21
190.881180
  0
ARC
  8
CSLAYER1
  6
CONTINUOUS
 62
     6
 10
519.534112
 20
248.881169
 40
6.000000
 50
-0.000000
 51
90.000000
  0
ARC
  8
CSLAYER1
  6
CONTINUOUS
 62
     6
 10
467.534101
 20
196.881180
 40
6.000000
 50
179.999976
 51
269.999976
  0
ARC
  8
CSLAYER1
  6
CONTINUOUS
 62
     6
 10
519.534090
 20
196.881147
 40
6.000000
 50
269.999951
 51
359.999951
  0
LINE
  8
CSLAYER1
  6
CONTINUOUS
 62
     6
 10
456.534112
 20
170.881170
 11
456.534112
 21
248.881169
  0
LINE
  8
CSLAYER1
  6
CONTINUOUS
 62
     6
 10
465.534112
 20
191.224322
 11
465.534112
 21
154.881170
  0
LINE
  8
CSLAYER1
  6
CONTINUOUS
 62
     6
 10
470.534112
 20
190.881169
 11
470.534112
 21
154.881170
  0
LINE
  8
CSLAYER1
  6
CONTINUOUS
 62
     6
 10
510.534112
 20
190.881169
 11
510.534112
 21
161.381155
  0
LINE
  8
CSLAYER1
  6
CONTINUOUS
 62
     6
 10
462.534112
 20
168.881170
 11
458.534112
 21
168.881170
  0
LINE
  8
CSLAYER1
  6
CONTINUOUS
 62
     6
 10
528.534112
 20
167.881170
 11
513.534112
 21
167.881170
  0
LINE
  8
CSLAYER1
  6
CONTINUOUS
 62
     6
 10
507.534112
 20
158.381155
 11
495.534112
 21
158.381155
  0
LINE
  8
CSLAYER1
  6
CONTINUOUS
 62
     6
 10
491.534112
 20
154.881170
 11
465.534112
 21
154.881170
  0
LINE
  8
CSLAYER1
  6
CONTINUOUS
 62
     6
 10
530.534112
 20
169.881170
 11
530.534112
 21
248.881169
  0
ARC
  8
CSLAYER1
  6
CONTINUOUS
 62
     6
 10
513.534112
 20
164.881170
 40
3.000000
 50
90.000000
 51
180.000000
  0
ARC
  8
CSLAYER1
  6
CONTINUOUS
 62
     6
 10
507.534112
 20
161.381155
 40
3.000000
 50
270.000000
 51
360.000000
  0
ARC
  8
CSLAYER1
  6
CONTINUOUS
 62
     6
 10
462.534112
 20
165.881170
 40
3.000000
 50
0.000000
 51
90.000000
  0
ARC
  8
CSLAYER1
  6
CONTINUOUS
 62
     6
 10
458.534112
 20
170.881170
 40
2.000000
 50
180.000000
 51
270.000000
  0
ARC
  8
CSLAYER1
  6
CONTINUOUS
 62
     6
 10
491.534112
 20
156.881170
 40
2.000000
 50
270.000000
 51
352.819036
  0
ARC
  8
CSLAYER1
  6
CONTINUOUS
 62
     6
 10
528.534112
 20
169.881170
 40
2.000000
 50
270.000000
 51
360.000000
  0
LINE
  8
CSLAYER1
  6
CONTINUOUS
 62
     6
 10
528.534112
 20
211.881170
 11
525.534108
 21
211.881170
  0
ARC
  8
CSLAYER1
  6
CONTINUOUS
 62
     6
 10
528.534112
 20
209.881170
 40
2.000000
 50
0.000000
 51
90.000000
  0
LINE
  8
CSLAYER1
  6
CONTINUOUS
 62
     6
 10
461.534107
 20
210.881170
 11
458.534112
 21
210.881170
  0
ARC
  8
CSLAYER1
  6
CONTINUOUS
 62
     6
 10
458.534112
 20
208.881170
 40
2.000000
 50
90.000000
 51
180.000000
  0
ARC
  8
CSLAYER1
  6
CONTINUOUS
 62
     6
 10
464.805960
 20
186.985204
 40
0.104022
 50
179.999995
 51
269.999997
  0
ARC
  8
CSLAYER1
  6
CONTINUOUS
 62
     6
 10
465.430091
 20
186.985204
 40
0.104022
 50
269.999997
 51
360.000000
  0
LINE
  8
CSLAYER1
  6
CONTINUOUS
 62
     6
 10
464.805960
 20
186.881170
 11
465.430091
 21
186.881170
  0
LINE
  8
CSLAYER1
  6
CONTINUOUS
 62
     6
 10
464.701938
 20
189.244636
 11
465.534112
 21
189.706347
  0
LINE
  8
CSLAYER1
  6
CONTINUOUS
 62
     6
 10
464.701938
 20
189.764745
 11
465.534112
 21
190.226456
  0
LINE
  8
CSLAYER1
  6
CONTINUOUS
 62
     6
 10
464.466721
 20
186.985979
 11
463.785361
 21
187.044720
  0
ARC
  8
CSLAYER1
  6
CONTINUOUS
 62
     6
 10
463.879643
 20
188.106892
 40
1.074023
 50
196.257211
 51
264.999882
  0
ARC
  8
CSLAYER1
  6
CONTINUOUS
 62
     6
 10
464.485565
 20
187.198403
 40
0.214808
 50
-94.999718
 51
0.000017
  0
LINE
  8
CSLAYER1
  6
CONTINUOUS
 62
     6
 10
464.701938
 20
186.985204
 11
464.701938
 21
191.591677
  0
ARC
  8
CSLAYER1
  6
CONTINUOUS
 62
     6
 10
463.879643
 20
191.655447
 40
1.074023
 50
119.904783
 51
163.742789
  0
LINE
  8
CSLAYER1
  6
CENTER
 62
     3
 10
473.534112
 20
157.881170
 11
459.448405
 21
157.881170
  0
ARC
  8
CSLAYER1
  6
CONTINUOUS
 62
     6
 10
464.805960
 20
154.985204
 40
0.104022
 50
179.999995
 51
269.999997
  0
ARC
  8
CSLAYER1
  6
CONTINUOUS
 62
     6
 10
465.430091
 20
154.985204
 40
0.104022
 50
269.999997
 51
360.000000
  0
LINE
  8
CSLAYER1
  6
CONTINUOUS
 62
     6
 10
464.805960
 20
154.881170
 11
465.430091
 21
154.881170
  0
LINE
  8
CSLAYER1
  6
CONTINUOUS
 62
     6
 10
464.701938
 20
157.244636
 11
465.534112
 21
157.706347
  0
LINE
  8
CSLAYER1
  6
CONTINUOUS
 62
     6
 10
464.701938
 20
157.764745
 11
465.534112
 21
158.226456
  0
LINE
  8
CSLAYER1
  6
CONTINUOUS
 62
     6
 10
464.466721
 20
154.985979
 11
463.785361
 21
155.044720
  0
ARC
  8
CSLAYER1
  6
CONTINUOUS
 62
     6
 10
463.879643
 20
156.106892
 40
1.074023
 50
196.257211
 51
264.999882
  0
ARC
  8
CSLAYER1
  6
CONTINUOUS
 62
     6
 10
464.485565
 20
155.198403
 40
0.214808
 50
-94.999718
 51
0.000017
  0
LINE
  8
CSLAYER1
  6
CONTINUOUS
 62
     6
 10
464.701938
 20
154.985204
 11
464.701938
 21
160.777135
  0
ARC
  8
CSLAYER1
  6
CONTINUOUS
 62
     6
 10
464.805960
 20
160.777135
 40
0.104022
 50
90.000003
 51
180.000005
  0
ARC
  8
CSLAYER1
  6
CONTINUOUS
 62
     6
 10
465.430091
 20
160.777135
 40
0.104022
 50
0.000000
 51
90.000003
  0
LINE
  8
CSLAYER1
  6
CONTINUOUS
 62
     6
 10
464.805960
 20
160.881170
 11
465.430091
 21
160.881170
  0
LINE
  8
CSLAYER1
  6
CONTINUOUS
 62
     6
 10
464.466721
 20
160.776361
 11
463.785361
 21
160.717620
  0
ARC
  8
CSLAYER1
  6
CONTINUOUS
 62
     6
 10
463.879643
 20
159.655447
 40
1.074023
 50
95.000118
 51
163.742789
  0
ARC
  8
CSLAYER1
  6
CONTINUOUS
 62
     6
 10
464.485565
 20
160.563936
 40
0.214808
 50
-0.000017
 51
94.999718
  0
LINE
  8
CSLAYER1
  6
CENTER
 62
     3
 10
425.431157
 20
189.881199
 11
533.534098
 21
189.881153
  0
LINE
  8
CSLAYER1
  6
CONTINUOUS
 62
     6
 10
429.034101
 20
194.881197
 11
448.534101
 21
194.881189
  0
LINE
  8
CSLAYER1
  6
CONTINUOUS
 62
     6
 10
448.534101
 20
195.881189
 11
456.534101
 21
195.881185
  0
LINE
  8
CSLAYER1
  6
CONTINUOUS
 62
     6
 10
448.534101
 20
195.881189
 11
448.534096
 21
183.881189
  0
LINE
  8
CSLAYER1
  6
CONTINUOUS
 62
     6
 10
429.034096
 20
184.881197
 11
448.534096
 21
184.881189
  0
LINE
  8
CSLAYER1
  6
CONTINUOUS
 62
     6
 10
448.534096
 20
183.881189
 11
456.534096
 21
183.881185
  0
LINE
  8
CSLAYER1
  6
CONTINUOUS
 62
     6
 10
428.534100
 20
194.381197
 11
428.534097
 21
185.381197
  0
LINE
  8
CSLAYER1
  6
CONTINUOUS
 62
     6
 10
429.034101
 20
194.881197
 11
428.534100
 21
194.381197
  0
LINE
  8
CSLAYER1
  6
CONTINUOUS
 62
     6
 10
429.034096
 20
184.881197
 11
428.534097
 21
185.381197
  0
LINE
  8
CSLAYER1
  6
CONTINUOUS
 62
     6
 10
429.034101
 20
194.881197
 11
429.034096
 21
184.881197
  0
LINE
  8
CSLAYER1
  6
CONTINUOUS
 62
     6
 10
524.534112
 20
254.881169
 11
462.534112
 21
254.881169
  0
ARC
  8
CSLAYER1
  6
CONTINUOUS
 62
     6
 10
524.534112
 20
248.881169
 40
6.000000
 50
0.000000
 51
90.000000
  0
ARC
  8
CSLAYER1
  6
CONTINUOUS
 62
     6
 10
462.534112
 20
248.881169
 40
6.000000
 50
90.000000
 51
180.000000
  0
ARC
  8
CSLAYER1
  6
CONTINUOUS
 62
     6
 10
470.111071
 20
189.897801
 40
7.572785
 50
164.176363
 51
196.066256
  0
ARC
  8
CSLAYER1
  6
CONTINUOUS
 62
     6
 10
470.111071
 20
157.897801
 40
7.572785
 50
164.176363
 51
196.066256
  0
ARC
  8
CSLAYER1
  6
CONTINUOUS
 62
     3
 10
463.534112
 20
210.881169
 40
3.000000
 50
131.810421
 51
179.999994
  0
ARC
  8
CSLAYER1
  6
CONTINUOUS
 62
     6
 10
463.534112
 20
210.881169
 40
2.400000
 50
146.442886
 51
179.999992
  0
ARC
  8
CSLAYER1
  6
CONTINUOUS
 62
     3
 10
463.534112
 20
248.881169
 40
3.000000
 50
117.279452
 51
228.189943
  0
ARC
  8
CSLAYER1
  6
CONTINUOUS
 62
     6
 10
463.534112
 20
248.881169
 40
2.400000
 50
137.873175
 51
213.557761
  0
ARC
  8
CSLAYER1
  6
CONTINUOUS
 62
     3
 10
523.534112
 20
210.881169
 40
3.000000
 50
19.471227
 51
48.189791
  0
ARC
  8
CSLAYER1
  6
CONTINUOUS
 62
     6
 10
523.534112
 20
210.881169
 40
2.400000
 50
24.624327
 51
33.557505
  0
ARC
  8
CSLAYER1
  6
CONTINUOUS
 62
     3
 10
523.534112
 20
248.881169
 40
3.000000
 50
-48.189427
 51
62.720387
  0
ARC
  8
CSLAYER1
  6
CONTINUOUS
 62
     6
 10
523.534112
 20
248.881169
 40
2.400000
 50
-33.556858
 51
42.126416
  0
LINE
  8
CSLAYER1
  6
CENTER
 62
     3
 10
396.287881
 20
344.545356
 11
206.287881
 21
344.545356
  0
LINE
  8
CSLAYER1
  6
CONTINUOUS
 62
     6
 10
295.287881
 20
313.545352
 11
362.287881
 21
313.545352
  0
LINE
  8
CSLAYER1
  6
CONTINUOUS
 62
     6
 10
295.287881
 20
375.545352
 11
362.287881
 21
375.545352
  0
LINE
  8
CSLAYER1
  6
CONTINUOUS
 62
     3
 10
310.420495
 20
317.698576
 11
346.420495
 21
317.698576
  0
ARC
  8
CSLAYER1
  6
CONTINUOUS
 62
     3
 10
310.420495
 20
318.698576
 40
1.000000
 50
180.000005
 51
270.000001
  0
ARC
  8
CSLAYER1
  6
CONTINUOUS
 62
     3
 10
346.420495
 20
318.698576
 40
1.000000
 50
270.000001
 51
359.942691
  0
LINE
  8
CSLAYER1
  6
CONTINUOUS
 62
     3
 10
309.420495
 20
370.392143
 11
309.420495
 21
318.698576
  0
LINE
  8
CSLAYER1
  6
CONTINUOUS
 62
     3
 10
347.420495
 20
370.392143
 11
347.420495
 21
318.698576
  0
TEXT
  8
CSLAYER1
 62
     3
 10
327.199432
 20
350.043732
 40
3.500000
 41
1.125000
  1
N P
 50
270.000000
 51
10.000000
  7
JX_FONT
 72
     5
 11
327.199432
 21
339.543732
  0
LINE
  8
CSLAYER1
  6
CONTINUOUS
 62
     3
 10
310.420495
 20
371.392143
 11
346.420495
 21
371.392143
  0
ARC
  8
CSLAYER1
  6
CONTINUOUS
 62
     3
 10
310.420495
 20
370.392143
 40
1.000000
 50
90.000009
 51
180.000005
  0
ARC
  8
CSLAYER1
  6
CONTINUOUS
 62
     3
 10
346.420495
 20
370.392143
 40
1.000000
 50
0.057319
 51
90.000009
  0
LINE
  8
CSLAYER1
  6
CONTINUOUS
 62
     6
 10
362.287881
 20
313.545352
 11
362.287881
 21
375.545352
  0
LINE
  8
CSLAYER1
  6
CONTINUOUS
 62
     6
 10
393.287881
 20
373.004224
 11
393.287881
 21
316.086467
  0
LINE
  8
CSLAYER1
  6
CONTINUOUS
 62
     6
 10
392.287881
 20
374.021679
 11
392.287881
 21
315.069012
  0
LINE
  8
CSLAYER1
  6
CONTINUOUS
 62
     6
 10
392.288033
 20
315.069015
 11
362.287866
 21
314.545361
  0
LINE
  8
CSLAYER1
  6
CONTINUOUS
 62
     6
 10
362.287881
 20
374.545338
 11
392.288033
 21
374.021677
  0
LINE
  8
CSLAYER1
  6
CONTINUOUS
 62
     6
 10
393.287881
 20
373.004224
 11
392.288033
 21
374.021677
  0
LINE
  8
CSLAYER1
  6
CONTINUOUS
 62
     6
 10
392.288033
 20
315.069015
 11
393.287881
 21
316.086467
  0
LINE
  8
CSLAYER1
  6
CONTINUOUS
 62
     6
 10
295.287881
 20
313.545352
 11
295.287881
 21
375.545352
  0
LINE
  8
CSLAYER1
  6
CONTINUOUS
 62
     6
 10
295.287881
 20
314.545362
 11
294.287881
 21
314.545363
  0
LINE
  8
CSLAYER1
  6
CONTINUOUS
 62
     6
 10
295.287881
 20
374.545362
 11
294.287881
 21
374.545363
  0
LINE
  8
CSLAYER1
  6
CENTER
 62
     3
 10
300.877666
 20
318.545356
 11
272.287894
 21
318.545359
  0
LINE
  8
CSLAYER1
  6
CENTER
 62
     3
 10
300.877672
 20
370.545356
 11
272.287894
 21
370.545359
  0
ARC
  8
CSLAYER1
  6
CONTINUOUS
 62
     6
 10
295.162883
 20
367.045356
 40
0.125000
 50
269.999932
 51
359.999983
  0
ARC
  8
CSLAYER1
  6
CONTINUOUS
 62
     6
 10
295.162885
 20
374.045356
 40
0.125000
 50
-0.000004
 51
89.999978
  0
ARC
  8
CSLAYER1
  6
CONTINUOUS
 62
     6
 10
294.412883
 20
367.045356
 40
0.125000
 50
179.999978
 51
269.999932
  0
ARC
  8
CSLAYER1
  6
CONTINUOUS
 62
     6
 10
294.412885
 20
374.045356
 40
0.125000
 50
89.999978
 51
179.942641
  0
LINE
  8
CSLAYER1
  6
CONTINUOUS
 62
     6
 10
295.162883
 20
366.920356
 11
294.412883
 21
366.920356
  0
LINE
  8
CSLAYER1
  6
CONTINUOUS
 62
     6
 10
295.162885
 20
374.170356
 11
294.412885
 21
374.170356
  0
LINE
  8
CSLAYER1
  6
CONTINUOUS
 62
     6
 10
295.570537
 20
367.046333
 11
296.389293
 21
367.116889
  0
ARC
  8
CSLAYER1
  6
CONTINUOUS
 62
     6
 10
296.276012
 20
368.393256
 40
1.290623
 50
275.000068
 51
343.742766
  0
ARC
  8
CSLAYER1
  6
CONTINUOUS
 62
     6
 10
295.547893
 20
367.301582
 40
0.258129
 50
179.999978
 51
274.999685
  0
LINE
  8
CSLAYER1
  6
CONTINUOUS
 62
     6
 10
295.570539
 20
374.044379
 11
296.389295
 21
373.973823
  0
ARC
  8
CSLAYER1
  6
CONTINUOUS
 62
     6
 10
296.276013
 20
372.697455
 40
1.290623
 50
16.257158
 51
84.999897
  0
ARC
  8
CSLAYER1
  6
CONTINUOUS
 62
     6
 10
295.547895
 20
373.789130
 40
0.258129
 50
85.000225
 51
179.942641
  0
ARC
  8
CSLAYER1
  6
CONTINUOUS
 62
     6
 10
288.787884
 20
370.545357
 40
9.089782
 50
-16.034611
 51
16.029030
  0
LINE
  8
CSLAYER1
  6
CONTINUOUS
 62
     6
 10
294.287915
 20
369.800483
 11
295.287915
 21
370.355293
  0
LINE
  8
CSLAYER1
  6
CONTINUOUS
 62
     6
 10
294.287915
 20
370.425483
 11
295.287915
 21
370.980293
  0
ARC
  8
CSLAYER1
  6
CONTINUOUS
 62
     6
 10
295.162883
 20
315.045356
 40
0.125000
 50
269.999932
 51
359.999983
  0
ARC
  8
CSLAYER1
  6
CONTINUOUS
 62
     6
 10
295.162885
 20
322.045356
 40
0.125000
 50
-0.000004
 51
89.999978
  0
ARC
  8
CSLAYER1
  6
CONTINUOUS
 62
     6
 10
294.412883
 20
315.045356
 40
0.125000
 50
179.999978
 51
269.999932
  0
ARC
  8
CSLAYER1
  6
CONTINUOUS
 62
     6
 10
294.412885
 20
322.045356
 40
0.125000
 50
89.999978
 51
179.942641
  0
LINE
  8
CSLAYER1
  6
CONTINUOUS
 62
     6
 10
295.162883
 20
314.920356
 11
294.412883
 21
314.920356
  0
LINE
  8
CSLAYER1
  6
CONTINUOUS
 62
     6
 10
295.162885
 20
322.170356
 11
294.412885
 21
322.170356
  0
LINE
  8
CSLAYER1
  6
CONTINUOUS
 62
     6
 10
295.570537
 20
315.046333
 11
296.389293
 21
315.116889
  0
ARC
  8
CSLAYER1
  6
CONTINUOUS
 62
     6
 10
296.276012
 20
316.393256
 40
1.290623
 50
275.000068
 51
343.742766
  0
ARC
  8
CSLAYER1
  6
CONTINUOUS
 62
     6
 10
295.547893
 20
315.301582
 40
0.258129
 50
179.999978
 51
274.999685
  0
LINE
  8
CSLAYER1
  6
CONTINUOUS
 62
     6
 10
295.570539
 20
322.044379
 11
296.389295
 21
321.973823
  0
ARC
  8
CSLAYER1
  6
CONTINUOUS
 62
     6
 10
296.276013
 20
320.697455
 40
1.290623
 50
16.257158
 51
84.999897
  0
ARC
  8
CSLAYER1
  6
CONTINUOUS
 62
     6
 10
295.547895
 20
321.789130
 40
0.258129
 50
85.000225
 51
179.942641
  0
ARC
  8
CSLAYER1
  6
CONTINUOUS
 62
     6
 10
288.787884
 20
318.545357
 40
9.089782
 50
-16.034611
 51
16.029030
  0
LINE
  8
CSLAYER1
  6
CONTINUOUS
 62
     6
 10
294.287915
 20
317.800483
 11
295.287915
 21
318.355293
  0
LINE
  8
CSLAYER1
  6
CONTINUOUS
 62
     6
 10
294.287915
 20
318.425483
 11
295.287915
 21
318.980293
  0
LINE
  8
CSLAYER1
  6
CONTINUOUS
 62
     6
 10
285.287881
 20
312.545337
 11
285.287881
 21
376.545367
  0
LINE
  8
CSLAYER1
  6
CONTINUOUS
 62
     6
 10
294.287884
 20
314.545345
 11
295.287884
 21
314.545345
  0
ARC
  8
CSLAYER1
  6
CONTINUOUS
 62
     6
 10
292.287884
 20
314.545345
 40
2.000000
 50
270.000003
 51
359.999991
  0
LINE
  8
CSLAYER1
  6
CONTINUOUS
 62
     6
 10
292.287884
 20
312.545345
 11
277.287881
 21
312.545345
  0
ARC
  8
CSLAYER1
  6
CONTINUOUS
 62
     6
 10
292.287884
 20
374.545376
 40
2.000000
 50
0.000005
 51
89.999973
  0
LINE
  8
CSLAYER1
  6
CONTINUOUS
 62
     6
 10
292.287884
 20
376.545376
 11
277.287881
 21
376.545376
  0
LINE
  8
CSLAYER1
  6
CONTINUOUS
 62
     6
 10
294.287884
 20
314.545345
 11
294.287884
 21
374.545376
  0
ARC
  8
CSLAYER1
  6
CONTINUOUS
 62
     6
 10
140.083648
 20
186.985190
 40
0.104022
 50
-89.999997
 51
0.000005
  0
ARC
  8
CSLAYER1
  6
CONTINUOUS
 62
     6
 10
139.459517
 20
186.985190
 40
0.104022
 50
180.000000
 51
270.000003
  0
LINE
  8
CSLAYER1
  6
CONTINUOUS
 62
     6
 10
140.083648
 20
186.881155
 11
139.459517
 21
186.881155
  0
LINE
  8
CSLAYER1
  6
CONTINUOUS
 62
     6
 10
140.187669
 20
190.517689
 11
139.355495
 21
190.055978
  0
LINE
  8
CSLAYER1
  6
CONTINUOUS
 62
     6
 10
140.187669
 20
189.997580
 11
139.355495
 21
189.535869
  0
LINE
  8
CSLAYER1
  6
CONTINUOUS
 62
     6
 10
140.422887
 20
186.985964
 11
141.104247
 21
187.044705
  0
ARC
  8
CSLAYER1
  6
CONTINUOUS
 62
     6
 10
141.009965
 20
188.106878
 40
1.074023
 50
275.000118
 51
343.742789
  0
ARC
  8
CSLAYER1
  6
CONTINUOUS
 62
     6
 10
140.404043
 20
187.198389
 40
0.214808
 50
179.999983
 51
274.999718
  0
LINE
  8
CSLAYER1
  6
CONTINUOUS
 62
     6
 10
140.187669
 20
186.985190
 11
140.187669
 21
190.881155
  0
LINE
  8
CSLAYER1
  6
CENTER
 62
     3
 10
131.355495
 20
157.881155
 11
145.441203
 21
157.881155
  0
ARC
  8
CSLAYER1
  6
CONTINUOUS
 62
     6
 10
140.083648
 20
154.985190
 40
0.104022
 50
-89.999997
 51
0.000005
  0
ARC
  8
CSLAYER1
  6
CONTINUOUS
 62
     6
 10
139.459517
 20
154.985190
 40
0.104022
 50
180.000000
 51
270.000003
  0
LINE
  8
CSLAYER1
  6
CONTINUOUS
 62
     6
 10
140.083648
 20
154.881155
 11
139.459517
 21
154.881155
  0
LINE
  8
CSLAYER1
  6
CONTINUOUS
 62
     6
 10
140.187669
 20
158.517689
 11
139.355495
 21
158.055978
  0
LINE
  8
CSLAYER1
  6
CONTINUOUS
 62
     6
 10
140.187669
 20
157.997580
 11
139.355495
 21
157.535869
  0
LINE
  8
CSLAYER1
  6
CONTINUOUS
 62
     6
 10
140.422887
 20
154.985964
 11
141.104247
 21
155.044705
  0
ARC
  8
CSLAYER1
  6
CONTINUOUS
 62
     6
 10
141.009965
 20
156.106878
 40
1.074023
 50
275.000118
 51
343.742789
  0
ARC
  8
CSLAYER1
  6
CONTINUOUS
 62
     6
 10
140.404043
 20
155.198389
 40
0.214808
 50
179.999983
 51
274.999718
  0
LINE
  8
CSLAYER1
  6
CONTINUOUS
 62
     6
 10
140.187669
 20
154.985190
 11
140.187669
 21
160.777121
  0
ARC
  8
CSLAYER1
  6
CONTINUOUS
 62
     6
 10
140.083648
 20
160.777121
 40
0.104022
 50
-0.000005
 51
89.999997
  0
ARC
  8
CSLAYER1
  6
CONTINUOUS
 62
     6
 10
139.459517
 20
160.777121
 40
0.104022
 50
89.999997
 51
180.000000
  0
LINE
  8
CSLAYER1
  6
CONTINUOUS
 62
     6
 10
140.083648
 20
160.881155
 11
139.459517
 21
160.881155
  0
LINE
  8
CSLAYER1
  6
CONTINUOUS
 62
     6
 10
140.422887
 20
160.776346
 11
141.104247
 21
160.717605
  0
ARC
  8
CSLAYER1
  6
CONTINUOUS
 62
     6
 10
141.009965
 20
159.655433
 40
1.074023
 50
16.257211
 51
84.999882
  0
ARC
  8
CSLAYER1
  6
CONTINUOUS
 62
     6
 10
140.404043
 20
160.563922
 40
0.214808
 50
85.000282
 51
180.000017
  0
LINE
  8
CSLAYER1
  6
CENTER
 62
     3
 10
179.458436
 20
189.881155
 11
71.355495
 21
189.881155
  0
LINE
  8
CSLAYER1
  6
CONTINUOUS
 62
     6
 10
175.855495
 20
194.881155
 11
156.355495
 21
194.881155
  0
LINE
  8
CSLAYER1
  6
CONTINUOUS
 62
     6
 10
156.355495
 20
195.881155
 11
148.355495
 21
195.881155
  0
LINE
  8
CSLAYER1
  6
CONTINUOUS
 62
     6
 10
156.355495
 20
195.881155
 11
156.355495
 21
183.881155
  0
LINE
  8
CSLAYER1
  6
CONTINUOUS
 62
     6
 10
175.855495
 20
184.881155
 11
156.355495
 21
184.881155
  0
LINE
  8
CSLAYER1
  6
CONTINUOUS
 62
     6
 10
156.355495
 20
183.881155
 11
148.355495
 21
183.881155
  0
LINE
  8
CSLAYER1
  6
CONTINUOUS
 62
     6
 10
176.355495
 20
194.381155
 11
176.355495
 21
185.381155
  0
LINE
  8
CSLAYER1
  6
CONTINUOUS
 62
     6
 10
176.355495
 20
192.060609
 11
161.355495
 21
192.060609
  0
LINE
  8
CSLAYER1
  6
CONTINUOUS
 62
     6
 10
176.355495
 20
187.701702
 11
161.355495
 21
187.701702
  0
LINE
  8
CSLAYER1
  6
CONTINUOUS
 62
     6
 10
161.355495
 20
192.060609
 11
161.355495
 21
187.701702
  0
LINE
  8
CSLAYER1
  6
CONTINUOUS
 62
     3
 10
176.355495
 20
192.060609
 11
161.355495
 21
187.701702
  0
LINE
  8
CSLAYER1
  6
CONTINUOUS
 62
     3
 10
161.355495
 20
192.060609
 11
176.355495
 21
187.701702
  0
LINE
  8
CSLAYER1
  6
CONTINUOUS
 62
     6
 10
175.855495
 20
194.881155
 11
176.355495
 21
194.381155
  0
LINE
  8
CSLAYER1
  6
CONTINUOUS
 62
     6
 10
175.855495
 20
184.881155
 11
176.355495
 21
185.381155
  0
LINE
  8
CSLAYER1
  6
CONTINUOUS
 62
     6
 10
175.855495
 20
194.881155
 11
175.855495
 21
192.060609
  0
LINE
  8
CSLAYER1
  6
CONTINUOUS
 62
     6
 10
175.855495
 20
187.701702
 11
175.855495
 21
184.881155
  0
LINE
  8
CSLAYER1
  6
CENTER
 62
     3
 10
71.355495
 20
222.881155
 11
151.355495
 21
222.881155
  0
LINE
  8
CSLAYER1
  6
CENTER
 62
     3
 10
111.355495
 20
257.881155
 11
111.355495
 21
151.881176
  0
LINE
  8
CSLAYER1
  6
CONTINUOUS
 62
     6
 10
80.355495
 20
254.881155
 11
142.355495
 21
254.881155
  0
LINE
  8
CSLAYER1
  6
CONTINUOUS
 62
     6
 10
80.355495
 20
190.881155
 11
142.355495
 21
190.881155
  0
LINE
  8
CSLAYER1
  6
CONTINUOUS
 62
     6
 10
74.355495
 20
248.881155
 11
74.355495
 21
169.881155
  0
LINE
  8
CSLAYER1
  6
CONTINUOUS
 62
     6
 10
148.355495
 20
248.881155
 11
148.355495
 21
170.881155
  0
LINE
  8
CSLAYER1
  6
CONTINUOUS
 62
     6
 10
103.355495
 20
248.881155
 11
119.355495
 21
248.881155
  0
LINE
  8
CSLAYER1
  6
CONTINUOUS
 62
     6
 10
93.355495
 20
196.881155
 11
129.355495
 21
196.881155
  0
ARC
  8
CSLAYER1
  6
CONTINUOUS
 62
     6
 10
80.355495
 20
248.881155
 40
6.000000
 50
90.000000
 51
180.000000
  0
ARC
  8
CSLAYER1
  6
CONTINUOUS
 62
     6
 10
142.355495
 20
248.881155
 40
6.000000
 50
0.000000
 51
90.000000
  0
ARC
  8
CSLAYER1
  6
CONTINUOUS
 62
     6
 10
80.355495
 20
196.881155
 40
6.000000
 50
180.000000
 51
270.000000
  0
ARC
  8
CSLAYER1
  6
CONTINUOUS
 62
     6
 10
142.355495
 20
196.881155
 40
6.000000
 50
270.000000
 51
360.000000
  0
LINE
  8
CSLAYER1
  6
CONTINUOUS
 62
     6
 10
85.315743
 20
236.881155
 11
91.355495
 21
236.881155
  0
ARC
  8
CSLAYER1
  6
CONTINUOUS
 62
     6
 10
119.355495
 20
244.881155
 40
4.000000
 50
0.000000
 51
90.000000
  0
ARC
  8
CSLAYER1
  6
CONTINUOUS
 62
     6
 10
103.355495
 20
244.881155
 40
4.000000
 50
90.000000
 51
180.000000
  0
ARC
  8
CSLAYER1
  6
CONTINUOUS
 62
     6
 10
131.355495
 20
244.881155
 40
8.000000
 50
180.000000
 51
270.000000
  0
ARC
  8
CSLAYER1
  6
CONTINUOUS
 62
     6
 10
91.355495
 20
244.881155
 40
8.000000
 50
-90.000000
 51
0.000000
  0
LINE
  8
CSLAYER1
  6
CONTINUOUS
 62
     6
 10
131.355495
 20
236.881155
 11
137.395248
 21
236.881155
  0
LINE
  8
CSLAYER1
  6
CONTINUOUS
 62
     6
 10
133.355495
 20
211.469644
 11
133.355495
 21
200.881155
  0
LINE
  8
CSLAYER1
  6
CONTINUOUS
 62
     6
 10
89.355495
 20
211.567447
 11
89.355495
 21
200.881155
  0
ARC
  8
CSLAYER1
  6
CONTINUOUS
 62
     6
 10
93.355495
 20
200.881155
 40
4.000000
 50
180.000000
 51
270.000000
  0
ARC
  8
CSLAYER1
  6
CONTINUOUS
 62
     6
 10
129.355495
 20
200.881155
 40
4.000000
 50
270.000000
 51
360.000000
  0
LINE
  8
CSLAYER1
  6
CONTINUOUS
 62
     6
 10
142.355495
 20
231.920907
 11
142.355495
 21
223.810003
  0
ARC
  8
CSLAYER1
  6
CONTINUOUS
 62
     6
 10
141.355495
 20
211.469644
 40
8.000000
 50
107.792389
 51
180.000000
  0
LINE
  8
CSLAYER1
  6
CONTINUOUS
 62
     6
 10
80.355495
 20
231.920907
 11
80.355495
 21
223.810003
  0
ARC
  8
CSLAYER1
  6
CONTINUOUS
 62
     6
 10
81.355495
 20
211.469644
 40
8.000000
 50
0.000000
 51
72.207611
  0
LINE
  8
CSLAYER1
  6
CONTINUOUS
 62
     6
 10
139.355495
 20
190.881155
 11
139.355495
 21
154.881155
  0
LINE
  8
CSLAYER1
  6
CONTINUOUS
 62
     6
 10
134.355495
 20
190.881155
 11
134.355495
 21
154.881155
  0
LINE
  8
CSLAYER1
  6
CONTINUOUS
 62
     6
 10
94.355495
 20
190.881155
 11
94.355495
 21
161.381155
  0
LINE
  8
CSLAYER1
  6
CONTINUOUS
 62
     6
 10
142.355495
 20
168.881155
 11
146.355495
 21
168.881155
  0
LINE
  8
CSLAYER1
  6
CONTINUOUS
 62
     6
 10
76.355495
 20
167.881155
 11
91.355495
 21
167.881155
  0
LINE
  8
CSLAYER1
  6
CONTINUOUS
 62
     6
 10
97.355495
 20
158.381155
 11
109.454393
 21
158.381155
  0
LINE
  8
CSLAYER1
  6
CONTINUOUS
 62
     6
 10
113.355495
 20
154.881155
 11
139.355495
 21
154.881155
  0
ARC
  8
CSLAYER1
  6
CONTINUOUS
 62
     6
 10
91.355495
 20
164.881155
 40
3.000000
 50
0.000000
 51
90.000000
  0
ARC
  8
CSLAYER1
  6
CONTINUOUS
 62
     6
 10
142.355495
 20
165.881155
 40
3.000000
 50
90.000000
 51
180.000000
  0
ARC
  8
CSLAYER1
  6
CONTINUOUS
 62
     6
 10
146.355495
 20
170.881155
 40
2.000000
 50
270.000000
 51
360.000000
  0
ARC
  8
CSLAYER1
  6
CONTINUOUS
 62
     6
 10
113.355495
 20
156.881155
 40
2.000000
 50
187.180756
 51
270.000000
  0
ARC
  8
CSLAYER1
  6
CONTINUOUS
 62
     6
 10
76.355495
 20
169.881155
 40
2.000000
 50
180.000000
 51
270.000000
  0
ARC
  8
CSLAYER1
  6
CONTINUOUS
 62
     6
 10
134.778537
 20
189.897787
 40
7.572785
 50
-16.066256
 51
7.394741
  0
ARC
  8
CSLAYER1
  6
CONTINUOUS
 62
     6
 10
134.778537
 20
157.897787
 40
7.572785
 50
-16.066256
 51
15.823637
  0
CIRCLE
  8
CSLAYER1
  6
CONTINUOUS
 62
     3
 10
141.355495
 20
210.881155
 40
3.000000
  0
CIRCLE
  8
CSLAYER1
  6
CONTINUOUS
 62
     6
 10
141.355495
 20
210.881155
 40
2.400000
  0
LINE
  8
CSLAYER1
  6
CENTER
 62
     3
 10
136.355495
 20
210.881155
 11
146.355495
 21
210.881155
  0
LINE
  8
CSLAYER1
  6
CENTER
 62
     3
 10
141.355495
 20
215.881155
 11
141.355495
 21
205.881155
  0
CIRCLE
  8
CSLAYER1
  6
CONTINUOUS
 62
     3
 10
141.355495
 20
248.881155
 40
3.000000
  0
CIRCLE
  8
CSLAYER1
  6
CONTINUOUS
 62
     6
 10
141.355495
 20
248.881155
 40
2.400000
  0
LINE
  8
CSLAYER1
  6
CENTER
 62
     3
 10
136.355495
 20
248.881155
 11
146.355495
 21
248.881155
  0
LINE
  8
CSLAYER1
  6
CENTER
 62
     3
 10
141.355495
 20
253.881155
 11
141.355495
 21
243.881155
  0
CIRCLE
  8
CSLAYER1
  6
CONTINUOUS
 62
     3
 10
81.355495
 20
210.881155
 40
3.000000
  0
CIRCLE
  8
CSLAYER1
  6
CONTINUOUS
 62
     6
 10
81.355495
 20
210.881155
 40
2.400000
  0
LINE
  8
CSLAYER1
  6
CENTER
 62
     3
 10
86.355495
 20
210.881155
 11
76.355495
 21
210.881155
  0
LINE
  8
CSLAYER1
  6
CENTER
 62
     3
 10
81.355495
 20
215.881155
 11
81.355495
 21
205.881155
  0
CIRCLE
  8
CSLAYER1
  6
CONTINUOUS
 62
     3
 10
81.355495
 20
248.881155
 40
3.000000
  0
CIRCLE
  8
CSLAYER1
  6
CONTINUOUS
 62
     6
 10
81.355495
 20
248.881155
 40
2.400000
  0
LINE
  8
CSLAYER1
  6
CENTER
 62
     3
 10
86.355495
 20
248.881155
 11
76.355495
 21
248.881155
  0
LINE
  8
CSLAYER1
  6
CENTER
 62
     3
 10
81.355495
 20
253.881155
 11
81.355495
 21
243.881155
  0
LINE
  8
CSLAYER1
  6
CONTINUOUS
 62
     6
 10
275.287881
 20
374.545367
 11
275.287881
 21
314.545337
  0
LINE
  8
CSLAYER1
  6
CONTINUOUS
 62
     6
 10
219.287881
 20
379.545356
 11
219.287881
 21
309.545356
  0
LINE
  8
CSLAYER1
  6
CONTINUOUS
 62
     6
 10
209.287881
 20
381.545356
 11
209.287881
 21
307.545356
  0
LINE
  8
CSLAYER1
  6
CONTINUOUS
 62
     6
 10
217.287881
 20
307.545356
 11
209.287881
 21
307.545356
  0
LINE
  8
CSLAYER1
  6
CONTINUOUS
 62
     6
 10
217.287881
 20
381.545356
 11
209.287881
 21
381.545356
  0
ARC
  8
CSLAYER1
  6
CONTINUOUS
 62
     6
 10
217.287881
 20
309.545356
 40
2.000000
 50
270.000000
 51
360.000000
  0
ARC
  8
CSLAYER1
  6
CONTINUOUS
 62
     6
 10
217.287881
 20
379.545356
 40
2.000000
 50
0.000000
 51
90.000000
  0
ARC
  8
CSLAYER1
  6
CONTINUOUS
 62
     6
 10
277.287881
 20
374.545367
 40
2.000000
 50
90.000000
 51
180.000000
  0
ARC
  8
CSLAYER1
  6
CONTINUOUS
 62
     6
 10
277.287881
 20
314.545337
 40
2.000000
 50
180.000000
 51
270.000000
  0
LINE
  8
CSLAYER1
  6
CONTINUOUS
 62
     6
 10
273.287881
 20
323.545356
 11
221.287881
 21
323.545356
  0
LINE
  8
CSLAYER1
  6
CONTINUOUS
 62
     6
 10
267.287881
 20
381.545356
 11
227.287881
 21
381.545356
  0
LINE
  8
CSLAYER1
  6
CONTINUOUS
 62
     6
 10
269.287881
 20
379.545356
 11
269.287881
 21
365.545356
  0
LINE
  8
CSLAYER1
  6
CONTINUOUS
 62
     6
 10
225.287881
 20
379.545356
 11
225.287881
 21
365.545356
  0
ARC
  8
CSLAYER1
  6
CONTINUOUS
 62
     6
 10
267.287881
 20
379.545356
 40
2.000000
 50
0.000000
 51
90.000000
  0
ARC
  8
CSLAYER1
  6
CONTINUOUS
 62
     6
 10
227.287881
 20
379.545356
 40
2.000000
 50
90.000000
 51
180.000000
  0
LINE
  8
CSLAYER1
  6
CONTINUOUS
 62
     6
 10
273.287881
 20
365.545356
 11
221.287881
 21
365.545356
  0
ARC
  8
CSLAYER1
  6
CONTINUOUS
 62
     6
 10
221.287881
 20
367.545356
 40
2.000000
 50
180.000000
 51
270.000000
  0
ARC
  8
CSLAYER1
  6
CONTINUOUS
 62
     6
 10
273.287881
 20
367.545356
 40
2.000000
 50
270.000000
 51
360.000000
  0
LINE
  8
CSLAYER1
  6
CONTINUOUS
 62
     6
 10
253.287881
 20
299.545356
 11
241.287881
 21
299.545356
  0
LINE
  8
CSLAYER1
  6
CONTINUOUS
 62
     6
 10
251.787881
 20
279.545356
 11
243.287881
 21
279.545356
  0
LINE
  8
CSLAYER1
  6
CONTINUOUS
 62
     6
 10
253.287881
 20
307.545356
 11
253.287881
 21
299.545356
  0
LINE
  8
CSLAYER1
  6
CONTINUOUS
 62
     6
 10
252.287881
 20
299.545356
 11
252.287881
 21
280.045356
  0
LINE
  8
CSLAYER1
  6
CONTINUOUS
 62
     6
 10
242.787881
 20
280.045356
 11
242.787881
 21
294.545356
  0
LINE
  8
CSLAYER1
  6
CONTINUOUS
 62
     6
 10
242.787881
 20
294.545356
 11
242.287881
 21
294.545356
  0
LINE
  8
CSLAYER1
  6
CONTINUOUS
 62
     6
 10
242.287881
 20
294.545356
 11
242.287881
 21
299.545356
  0
LINE
  8
CSLAYER1
  6
CONTINUOUS
 62
     6
 10
241.287881
 20
299.545356
 11
241.287881
 21
307.545356
  0
LINE
  8
CSLAYER1
  6
CONTINUOUS
 62
     6
 10
252.287881
 20
280.045356
 11
251.787881
 21
279.545356
  0
LINE
  8
CSLAYER1
  6
CONTINUOUS
 62
     6
 10
243.287881
 20
279.545356
 11
242.787881
 21
280.045356
  0
LINE
  8
CSLAYER1
  6
CONTINUOUS
 62
     6
 10
267.287881
 20
307.545356
 11
227.287881
 21
307.545356
  0
LINE
  8
CSLAYER1
  6
CONTINUOUS
 62
     6
 10
275.287881
 20
316.545356
 11
219.287881
 21
316.545356
  0
LINE
  8
CSLAYER1
  6
CONTINUOUS
 62
     6
 10
241.849471
 20
316.545356
 11
241.849471
 21
323.545356
  0
LINE
  8
CSLAYER1
  6
CONTINUOUS
 62
     6
 10
252.726291
 20
323.545356
 11
252.726291
 21
316.545356
  0
LINE
  8
CSLAYER1
  6
CONTINUOUS
 62
     6
 10
269.287881
 20
313.545356
 11
269.287881
 21
309.545356
  0
LINE
  8
CSLAYER1
  6
CONTINUOUS
 62
     6
 10
225.287881
 20
313.545356
 11
225.287881
 21
309.545356
  0
ARC
  8
CSLAYER1
  6
CONTINUOUS
 62
     6
 10
227.287881
 20
309.545356
 40
2.000000
 50
180.000000
 51
270.000000
  0
ARC
  8
CSLAYER1
  6
CONTINUOUS
 62
     6
 10
267.287881
 20
309.545356
 40
2.000000
 50
270.000000
 51
360.000000
  0
ARC
  8
CSLAYER1
  6
CONTINUOUS
 62
     6
 10
222.287881
 20
313.545356
 40
3.000000
 50
0.000000
 51
90.000000
  0
ARC
  8
CSLAYER1
  6
CONTINUOUS
 62
     6
 10
272.287881
 20
313.545356
 40
3.000000
 50
90.000000
 51
180.000000
  0
ARC
  8
CSLAYER1
  6
CONTINUOUS
 62
     6
 10
250.183847
 20
315.817204
 40
0.104022
 50
269.999995
 51
359.999997
  0
ARC
  8
CSLAYER1
  6
CONTINUOUS
 62
     6
 10
250.183847
 20
316.441334
 40
0.104022
 50
-0.000003
 51
90.000000
  0
LINE
  8
CSLAYER1
  6
CONTINUOUS
 62
     6
 10
250.287881
 20
315.817204
 11
250.287881
 21
316.441334
  0
LINE
  8
CSLAYER1
  6
CONTINUOUS
 62
     6
 10
247.924415
 20
315.713182
 11
247.462704
 21
316.545356
  0
LINE
  8
CSLAYER1
  6
CONTINUOUS
 62
     6
 10
247.404306
 20
315.713182
 11
246.942595
 21
316.545356
  0
LINE
  8
CSLAYER1
  6
CONTINUOUS
 62
     6
 10
250.183072
 20
315.477965
 11
250.124331
 21
314.796604
  0
ARC
  8
CSLAYER1
  6
CONTINUOUS
 62
     6
 10
249.062159
 20
314.890887
 40
1.074023
 50
286.257211
 51
354.999882
  0
ARC
  8
CSLAYER1
  6
CONTINUOUS
 62
     6
 10
249.970648
 20
315.496808
 40
0.214808
 50
-4.999718
 51
90.000017
  0
LINE
  8
CSLAYER1
  6
CONTINUOUS
 62
     6
 10
250.183847
 20
315.713182
 11
244.391915
 21
315.713182
  0
ARC
  8
CSLAYER1
  6
CONTINUOUS
 62
     6
 10
244.391915
 20
315.817204
 40
0.104022
 50
180.000003
 51
270.000005
  0
ARC
  8
CSLAYER1
  6
CONTINUOUS
 62
     6
 10
244.391915
 20
316.441334
 40
0.104022
 50
90.000000
 51
180.000003
  0
LINE
  8
CSLAYER1
  6
CONTINUOUS
 62
     6
 10
244.287881
 20
315.817204
 11
244.287881
 21
316.441334
  0
LINE
  8
CSLAYER1
  6
CONTINUOUS
 62
     6
 10
244.392690
 20
315.477965
 11
244.451431
 21
314.796604
  0
ARC
  8
CSLAYER1
  6
CONTINUOUS
 62
     6
 10
245.513604
 20
314.890887
 40
1.074023
 50
185.000118
 51
253.742789
  0
ARC
  8
CSLAYER1
  6
CONTINUOUS
 62
     6
 10
244.605114
 20
315.496808
 40
0.214808
 50
89.999983
 51
184.999718
  0
ARC
  8
CSLAYER1
  6
CONTINUOUS
 62
     6
 10
247.271249
 20
321.122315
 40
7.572785
 50
254.176363
 51
286.066256
  0
LINE
  8
CSLAYER1
  6
CENTER
 62
     3
 10
247.287881
 20
384.545356
 11
247.287881
 21
276.545356
  0
LINE
  8
CSLAYER1
  6
CONTINUOUS
 62
     6
 10
275.287881
 20
321.045356
 11
219.287881
 21
321.045356
  0
LINE
  8
CSLAYER1
  6
CENTER
 62
     3
 10
222.287881
 20
314.545356
 11
206.287881
 21
314.545356
  0
LINE
  8
CSLAYER1
  6
CENTER
 62
     3
 10
222.287881
 20
374.545356
 11
206.287881
 21
374.545356
  0
LINE
  8
CSLAYER1
  6
CONTINUOUS
 62
     3
 10
347.420480
 20
253.881177
 11
347.420480
 21
239.381146
  0
LINE
  8
CSLAYER1
  6
CONTINUOUS
 62
     3
 10
346.420480
 20
238.381146
 11
310.420495
 21
238.381146
  0
LINE
  8
CSLAYER1
  6
CONTINUOUS
 62
     3
 10
309.420495
 20
239.381146
 11
309.420495
 21
253.881177
  0
ARC
  8
CSLAYER1
  6
CONTINUOUS
 62
     3
 10
346.420480
 20
239.381146
 40
1.000000
 50
269.999999
 51
359.999995
  0
ARC
  8
CSLAYER1
  6
CONTINUOUS
 62
     3
 10
310.420495
 20
239.381146
 40
1.000000
 50
180.057309
 51
269.999999
  0
TEXT
  8
CSLAYER1
 62
     3
 10
327.463196
 20
252.267105
 40
3.500000
 41
1.125000
  1
N P
 50
270.000000
 51
10.000000
  7
JX_FONT
 72
     5
 11
327.463196
 21
241.767105
  0
LINE
  8
CSLAYER1
  6
CENTER
 62
     3
 10
300.763749
 20
248.881172
 11
272.287881
 21
248.881165
  0
ARC
  8
CSLAYER1
  6
CONTINUOUS
 62
     6
 10
295.132710
 20
252.260474
 40
0.120690
 50
-0.000005
 51
89.999997
  0
ARC
  8
CSLAYER1
  6
CONTINUOUS
 62
     6
 10
295.132710
 20
245.501868
 40
0.120690
 50
269.999999
 51
359.999995
  0
ARC
  8
CSLAYER1
  6
CONTINUOUS
 62
     6
 10
294.408571
 20
252.260474
 40
0.120690
 50
89.999997
 51
180.000000
  0
ARC
  8
CSLAYER1
  6
CONTINUOUS
 62
     6
 10
294.408571
 20
245.501868
 40
0.120690
 50
180.057309
 51
269.999999
  0
LINE
  8
CSLAYER1
  6
CONTINUOUS
 62
     6
 10
295.132710
 20
252.381178
 11
294.408571
 21
252.381178
  0
LINE
  8
CSLAYER1
  6
CONTINUOUS
 62
     6
 10
295.132710
 20
245.381163
 11
294.408571
 21
245.381163
  0
LINE
  8
CSLAYER1
  6
CONTINUOUS
 62
     6
 10
295.253400
 20
249.600405
 11
294.287881
 21
249.064710
  0
LINE
  8
CSLAYER1
  6
CONTINUOUS
 62
     6
 10
295.253400
 20
248.996955
 11
294.287881
 21
248.461261
  0
LINE
  8
CSLAYER1
  6
CONTINUOUS
 62
     6
 10
295.526308
 20
252.259575
 11
296.316847
 21
252.191422
  0
ARC
  8
CSLAYER1
  6
CONTINUOUS
 62
     6
 10
296.207458
 20
250.959050
 40
1.246121
 50
16.257211
 51
84.999882
  0
ARC
  8
CSLAYER1
  6
CONTINUOUS
 62
     6
 10
295.504445
 20
252.013112
 40
0.249229
 50
85.000282
 51
180.000017
  0
LINE
  8
CSLAYER1
  6
CONTINUOUS
 62
     6
 10
295.526308
 20
245.502767
 11
296.316847
 21
245.570920
  0
ARC
  8
CSLAYER1
  6
CONTINUOUS
 62
     6
 10
296.207458
 20
246.803292
 40
1.246121
 50
275.000108
 51
343.742792
  0
ARC
  8
CSLAYER1
  6
CONTINUOUS
 62
     6
 10
295.504445
 20
245.749229
 40
0.249229
 50
180.057309
 51
274.999725
  0
LINE
  8
CSLAYER1
  6
CONTINUOUS
 62
     6
 10
295.253400
 20
252.260474
 11
295.253400
 21
245.501868
  0
LINE
  8
CSLAYER1
  6
CENTER
 62
     3
 10
300.763749
 20
196.881161
 11
272.287881
 21
196.881161
  0
ARC
  8
CSLAYER1
  6
CONTINUOUS
 62
     6
 10
295.132710
 20
200.260464
 40
0.120690
 50
-0.000005
 51
89.999997
  0
ARC
  8
CSLAYER1
  6
CONTINUOUS
 62
     6
 10
295.132710
 20
193.501859
 40
0.120690
 50
269.999999
 51
359.999995
  0
ARC
  8
CSLAYER1
  6
CONTINUOUS
 62
     6
 10
294.408571
 20
200.260464
 40
0.120690
 50
89.999997
 51
180.000000
  0
ARC
  8
CSLAYER1
  6
CONTINUOUS
 62
     6
 10
294.408571
 20
193.501859
 40
0.120690
 50
180.057309
 51
269.999999
  0
LINE
  8
CSLAYER1
  6
CONTINUOUS
 62
     6
 10
295.132710
 20
200.381169
 11
294.408571
 21
200.381169
  0
LINE
  8
CSLAYER1
  6
CONTINUOUS
 62
     6
 10
295.132710
 20
193.381154
 11
294.408571
 21
193.381154
  0
LINE
  8
CSLAYER1
  6
CONTINUOUS
 62
     6
 10
295.253400
 20
197.600395
 11
294.287881
 21
197.064701
  0
LINE
  8
CSLAYER1
  6
CONTINUOUS
 62
     6
 10
295.253400
 20
196.996945
 11
294.287881
 21
196.461251
  0
LINE
  8
CSLAYER1
  6
CONTINUOUS
 62
     6
 10
295.526308
 20
200.259565
 11
296.316847
 21
200.191412
  0
ARC
  8
CSLAYER1
  6
CONTINUOUS
 62
     6
 10
296.207458
 20
198.959040
 40
1.246121
 50
16.257211
 51
84.999882
  0
ARC
  8
CSLAYER1
  6
CONTINUOUS
 62
     6
 10
295.504445
 20
200.013103
 40
0.249229
 50
85.000282
 51
180.000017
  0
LINE
  8
CSLAYER1
  6
CONTINUOUS
 62
     6
 10
295.526308
 20
193.502757
 11
296.316847
 21
193.570911
  0
ARC
  8
CSLAYER1
  6
CONTINUOUS
 62
     6
 10
296.207458
 20
194.803283
 40
1.246121
 50
275.000108
 51
343.742792
  0
ARC
  8
CSLAYER1
  6
CONTINUOUS
 62
     6
 10
295.504445
 20
193.749220
 40
0.249229
 50
180.057309
 51
274.999725
  0
LINE
  8
CSLAYER1
  6
CONTINUOUS
 62
     6
 10
295.253400
 20
200.260464
 11
295.253400
 21
193.501859
  0
LINE
  8
CSLAYER1
  6
CONTINUOUS
 62
     6
 10
294.287881
 20
192.881177
 11
295.287881
 21
192.881177
  0
ARC
  8
CSLAYER1
  6
CONTINUOUS
 62
     6
 10
292.287881
 20
252.881177
 40
2.000000
 50
0.000009
 51
89.999997
  0
ARC
  8
CSLAYER1
  6
CONTINUOUS
 62
     6
 10
292.287881
 20
192.881146
 40
2.000000
 50
270.000027
 51
359.999995
  0
LINE
  8
CSLAYER1
  6
CONTINUOUS
 62
     6
 10
294.287881
 20
252.881177
 11
294.287881
 21
192.881146
  0
LINE
  8
CSLAYER1
  6
CONTINUOUS
 62
     6
 10
294.287896
 20
252.881192
 11
295.287896
 21
252.881192
  0
LINE
  8
CSLAYER1
  6
CONTINUOUS
 62
     6
 10
292.287881
 20
254.881177
 11
277.287881
 21
254.881177
  0
LINE
  8
CSLAYER1
  6
CONTINUOUS
 62
     6
 10
285.287881
 20
254.881177
 11
285.287881
 21
190.881146
  0
LINE
  8
CSLAYER1
  6
CONTINUOUS
 62
     6
 10
292.287882
 20
190.881146
 11
282.203947
 21
190.881146
  0
LINE
  8
CSLAYER1
  6
CONTINUOUS
 62
     6
 10
295.287881
 20
253.881177
 11
295.287881
 21
252.136462
  0
LINE
  8
CSLAYER1
  6
CONTINUOUS
 62
     6
 10
362.287881
 20
253.881177
 11
362.287881
 21
191.881177
  0
LINE
  8
CSLAYER1
  6
CONTINUOUS
 62
     6
 10
295.287881
 20
253.881177
 11
362.287881
 21
253.881177
  0
LINE
  8
CSLAYER1
  6
CONTINUOUS
 62
     6
 10
295.287881
 20
191.881177
 11
362.287881
 21
191.881177
  0
LINE
  8
CSLAYER1
  6
CONTINUOUS
 62
     6
 10
295.287881
 20
245.625880
 11
295.287881
 21
200.136452
  0
LINE
  8
CSLAYER1
  6
CONTINUOUS
 62
     6
 10
295.287881
 20
193.625871
 11
295.287881
 21
191.881177
  0
LINE
  8
CSLAYER1
  6
CENTER
 62
     3
 10
373.287881
 20
235.881177
 11
373.287881
 21
171.498564
  0
CIRCLE
  8
CSLAYER1
  6
CONTINUOUS
 62
     6
 10
373.287881
 20
222.881177
 40
8.000000
  0
CIRCLE
  8
CSLAYER1
  6
CONTINUOUS
 62
     6
 10
373.287881
 20
222.881177
 40
6.000000
  0
CIRCLE
  8
CSLAYER1
  6
CONTINUOUS
 62
     3
 10
373.287881
 20
222.881177
 40
5.500000
  0
LINE
  8
CSLAYER1
  6
CONTINUOUS
 62
     6
 10
370.537881
 20
223.681180
 11
376.037881
 21
223.681180
  0
LINE
  8
CSLAYER1
  6
CONTINUOUS
 62
     6
 10
370.537881
 20
222.081174
 11
376.037881
 21
222.081174
  0
LINE
  8
CSLAYER1
  6
CONTINUOUS
 62
     6
 10
376.037881
 20
223.681180
 11
376.037881
 21
222.081174
  0
LINE
  8
CSLAYER1
  6
CONTINUOUS
 62
     6
 10
370.537881
 20
223.681180
 11
370.537881
 21
222.081174
  0
LINE
  8
CSLAYER1
  6
CONTINUOUS
 62
     6
 10
393.287881
 20
194.404843
 11
393.287881
 21
251.357510
  0
LINE
  8
CSLAYER1
  6
CONTINUOUS
 62
     6
 10
392.287881
 20
193.404843
 11
392.287881
 21
252.357510
  0
LINE
  8
CSLAYER1
  6
CONTINUOUS
 62
     6
 10
392.287881
 20
252.357510
 11
362.287866
 21
252.881161
  0
LINE
  8
CSLAYER1
  6
CONTINUOUS
 62
     6
 10
392.287881
 20
252.357510
 11
393.287881
 21
251.357510
  0
LINE
  8
CSLAYER1
  6
CONTINUOUS
 62
     6
 10
392.287881
 20
193.404843
 11
362.287866
 21
192.881192
  0
LINE
  8
CSLAYER1
  6
CONTINUOUS
 62
     6
 10
392.287881
 20
193.404843
 11
393.287881
 21
194.404843
  0
ARC
  8
CSLAYER1
  6
CONTINUOUS
 62
     6
 10
295.132710
 20
93.736412
 40
0.120690
 50
-0.000005
 51
89.999997
  0
ARC
  8
CSLAYER1
  6
CONTINUOUS
 62
     6
 10
295.132710
 20
86.977807
 40
0.120690
 50
269.999999
 51
359.999995
  0
ARC
  8
CSLAYER1
  6
CONTINUOUS
 62
     6
 10
294.408571
 20
93.736412
 40
0.120690
 50
89.999997
 51
180.000000
  0
ARC
  8
CSLAYER1
  6
CONTINUOUS
 62
     6
 10
294.408571
 20
86.977807
 40
0.120690
 50
180.057309
 51
269.999999
  0
LINE
  8
CSLAYER1
  6
CONTINUOUS
 62
     6
 10
295.132710
 20
93.857117
 11
294.408571
 21
93.857117
  0
LINE
  8
CSLAYER1
  6
CONTINUOUS
 62
     6
 10
295.132710
 20
86.857102
 11
294.408571
 21
86.857102
  0
LINE
  8
CSLAYER1
  6
CONTINUOUS
 62
     6
 10
295.253400
 20
91.076360
 11
294.287881
 21
90.540665
  0
LINE
  8
CSLAYER1
  6
CONTINUOUS
 62
     6
 10
295.253400
 20
90.472910
 11
294.287881
 21
89.937216
  0
LINE
  8
CSLAYER1
  6
CONTINUOUS
 62
     6
 10
295.526308
 20
93.735513
 11
296.316847
 21
93.667360
  0
ARC
  8
CSLAYER1
  6
CONTINUOUS
 62
     6
 10
296.207458
 20
92.434988
 40
1.246121
 50
16.257211
 51
84.999882
  0
ARC
  8
CSLAYER1
  6
CONTINUOUS
 62
     6
 10
295.504445
 20
93.489051
 40
0.249229
 50
85.000282
 51
180.000017
  0
LINE
  8
CSLAYER1
  6
CONTINUOUS
 62
     6
 10
295.526308
 20
86.978705
 11
296.316847
 21
87.046858
  0
ARC
  8
CSLAYER1
  6
CONTINUOUS
 62
     6
 10
296.207458
 20
88.279230
 40
1.246121
 50
275.000108
 51
343.742792
  0
ARC
  8
CSLAYER1
  6
CONTINUOUS
 62
     6
 10
295.504445
 20
87.225168
 40
0.249229
 50
180.057309
 51
274.999725
  0
LINE
  8
CSLAYER1
  6
CONTINUOUS
 62
     6
 10
295.253400
 20
93.736412
 11
295.253400
 21
86.977807
  0
LINE
  8
CSLAYER1
  6
CENTER
 62
     3
 10
300.763749
 20
90.357119
 11
272.287881
 21
90.357112
  0
ARC
  8
CSLAYER1
  6
CONTINUOUS
 62
     6
 10
295.132710
 20
41.736403
 40
0.120690
 50
-0.000005
 51
89.999997
  0
ARC
  8
CSLAYER1
  6
CONTINUOUS
 62
     6
 10
295.132710
 20
34.977797
 40
0.120690
 50
269.999999
 51
359.999995
  0
ARC
  8
CSLAYER1
  6
CONTINUOUS
 62
     6
 10
294.408571
 20
41.736403
 40
0.120690
 50
89.999997
 51
180.000000
  0
ARC
  8
CSLAYER1
  6
CONTINUOUS
 62
     6
 10
294.408571
 20
34.977797
 40
0.120690
 50
180.057309
 51
269.999999
  0
LINE
  8
CSLAYER1
  6
CONTINUOUS
 62
     6
 10
295.132710
 20
41.857107
 11
294.408571
 21
41.857107
  0
LINE
  8
CSLAYER1
  6
CONTINUOUS
 62
     6
 10
295.132710
 20
34.857093
 11
294.408571
 21
34.857093
  0
LINE
  8
CSLAYER1
  6
CONTINUOUS
 62
     6
 10
295.253400
 20
39.076350
 11
294.287881
 21
38.540656
  0
LINE
  8
CSLAYER1
  6
CONTINUOUS
 62
     6
 10
295.253400
 20
38.472901
 11
294.287881
 21
37.937206
  0
LINE
  8
CSLAYER1
  6
CONTINUOUS
 62
     6
 10
295.526308
 20
41.735504
 11
296.316847
 21
41.667351
  0
ARC
  8
CSLAYER1
  6
CONTINUOUS
 62
     6
 10
296.207458
 20
40.434979
 40
1.246121
 50
16.257211
 51
84.999882
  0
ARC
  8
CSLAYER1
  6
CONTINUOUS
 62
     6
 10
295.504445
 20
41.489041
 40
0.249229
 50
85.000282
 51
180.000017
  0
LINE
  8
CSLAYER1
  6
CONTINUOUS
 62
     6
 10
295.526308
 20
34.978696
 11
296.316847
 21
35.046849
  0
ARC
  8
CSLAYER1
  6
CONTINUOUS
 62
     6
 10
296.207458
 20
36.279221
 40
1.246121
 50
275.000108
 51
343.742792
  0
ARC
  8
CSLAYER1
  6
CONTINUOUS
 62
     6
 10
295.504445
 20
35.225158
 40
0.249229
 50
180.057309
 51
274.999725
  0
LINE
  8
CSLAYER1
  6
CONTINUOUS
 62
     6
 10
295.253400
 20
41.736403
 11
295.253400
 21
34.977797
  0
LINE
  8
CSLAYER1
  6
CENTER
 62
     3
 10
300.763749
 20
38.357108
 11
272.287881
 21
38.357108
  0
LINE
  8
CSLAYER1
  6
CONTINUOUS
 62
     6
 10
294.287881
 20
34.357115
 11
295.287881
 21
34.357115
  0
LINE
  8
CSLAYER1
  6
CONTINUOUS
 62
     6
 10
294.287881
 20
94.357115
 11
295.287881
 21
94.357115
  0
ARC
  8
CSLAYER1
  6
CONTINUOUS
 62
     6
 10
292.287881
 20
94.357115
 40
2.000000
 50
0.000009
 51
89.999997
  0
ARC
  8
CSLAYER1
  6
CONTINUOUS
 62
     6
 10
292.287881
 20
34.357085
 40
2.000000
 50
270.000027
 51
359.999995
  0
LINE
  8
CSLAYER1
  6
CONTINUOUS
 62
     6
 10
294.287881
 20
94.357115
 11
294.287881
 21
34.357085
  0
LINE
  8
CSLAYER1
  6
CONTINUOUS
 62
     6
 10
292.287881
 20
96.357115
 11
277.287881
 21
96.357115
  0
LINE
  8
CSLAYER1
  6
CONTINUOUS
 62
     6
 10
285.287881
 20
32.357108
 11
285.287881
 21
96.357138
  0
LINE
  8
CSLAYER1
  6
CONTINUOUS
 62
     6
 10
292.287882
 20
32.357085
 11
277.287881
 21
32.357085
  0
LINE
  8
CSLAYER1
  6
CONTINUOUS
 62
     6
 10
295.287881
 20
95.357115
 11
295.287881
 21
93.612400
  0
LINE
  8
CSLAYER1
  6
CONTINUOUS
 62
     6
 10
295.287881
 20
95.357115
 11
362.287881
 21
95.357115
  0
LINE
  8
CSLAYER1
  6
CONTINUOUS
 62
     6
 10
295.287881
 20
33.357115
 11
362.287881
 21
33.357115
  0
LINE
  8
CSLAYER1
  6
CONTINUOUS
 62
     6
 10
295.287881
 20
87.101818
 11
295.287881
 21
41.612391
  0
LINE
  8
CSLAYER1
  6
CONTINUOUS
 62
     6
 10
295.287881
 20
35.101809
 11
295.287881
 21
33.357115
  0
LINE
  8
CSLAYER1
  6
CENTER
 62
     3
 10
215.287881
 20
84.857111
 11
215.287881
 21
98.352919
  0
ARC
  8
CSLAYER1
  6
CONTINUOUS
 62
     6
 10
218.183847
 20
93.085264
 40
0.104022
 50
0.000003
 51
90.000005
  0
ARC
  8
CSLAYER1
  6
CONTINUOUS
 62
     6
 10
218.183847
 20
92.461133
 40
0.104022
 50
-90.000000
 51
0.000003
  0
LINE
  8
CSLAYER1
  6
CONTINUOUS
 62
     6
 10
218.287881
 20
93.085264
 11
218.287881
 21
92.461133
  0
LINE
  8
CSLAYER1
  6
CONTINUOUS
 62
     6
 10
214.651347
 20
93.189286
 11
215.113058
 21
92.357111
  0
LINE
  8
CSLAYER1
  6
CONTINUOUS
 62
     6
 10
215.171456
 20
93.189286
 11
215.633167
 21
92.357111
  0
LINE
  8
CSLAYER1
  6
CONTINUOUS
 62
     6
 10
218.183072
 20
93.424503
 11
218.124331
 21
94.105863
  0
ARC
  8
CSLAYER1
  6
CONTINUOUS
 62
     6
 10
217.062159
 20
94.011581
 40
1.074023
 50
5.000118
 51
73.742789
  0
ARC
  8
CSLAYER1
  6
CONTINUOUS
 62
     6
 10
217.970648
 20
93.405659
 40
0.214808
 50
-90.000017
 51
4.999718
  0
LINE
  8
CSLAYER1
  6
CONTINUOUS
 62
     6
 10
218.183847
 20
93.189286
 11
212.391915
 21
93.189286
  0
ARC
  8
CSLAYER1
  6
CONTINUOUS
 62
     6
 10
212.391915
 20
93.085264
 40
0.104022
 50
89.999995
 51
179.999997
  0
ARC
  8
CSLAYER1
  6
CONTINUOUS
 62
     6
 10
212.391915
 20
92.461133
 40
0.104022
 50
179.999997
 51
270.000000
  0
LINE
  8
CSLAYER1
  6
CONTINUOUS
 62
     6
 10
212.287881
 20
93.085264
 11
212.287881
 21
92.461133
  0
LINE
  8
CSLAYER1
  6
CONTINUOUS
 62
     6
 10
212.392690
 20
93.424503
 11
212.451431
 21
94.105863
  0
ARC
  8
CSLAYER1
  6
CONTINUOUS
 62
     6
 10
213.513604
 20
94.011581
 40
1.074023
 50
106.257211
 51
174.999882
  0
ARC
  8
CSLAYER1
  6
CONTINUOUS
 62
     6
 10
212.605114
 20
93.405659
 40
0.214808
 50
175.000282
 51
270.000017
  0
ARC
  8
CSLAYER1
  6
CONTINUOUS
 62
     6
 10
250.183847
 20
93.085264
 40
0.104022
 50
0.000003
 51
90.000005
  0
ARC
  8
CSLAYER1
  6
CONTINUOUS
 62
     6
 10
250.183847
 20
92.461133
 40
0.104022
 50
-90.000000
 51
0.000003
  0
LINE
  8
CSLAYER1
  6
CONTINUOUS
 62
     6
 10
250.287881
 20
93.085264
 11
250.287881
 21
92.461133
  0
LINE
  8
CSLAYER1
  6
CONTINUOUS
 62
     6
 10
246.651347
 20
93.189286
 11
247.113058
 21
92.357111
  0
LINE
  8
CSLAYER1
  6
CONTINUOUS
 62
     6
 10
247.171456
 20
93.189286
 11
247.633167
 21
92.357111
  0
LINE
  8
CSLAYER1
  6
CONTINUOUS
 62
     6
 10
250.183072
 20
93.424503
 11
250.124331
 21
94.105863
  0
ARC
  8
CSLAYER1
  6
CONTINUOUS
 62
     6
 10
249.062159
 20
94.011581
 40
1.074023
 50
5.000118
 51
73.742789
  0
ARC
  8
CSLAYER1
  6
CONTINUOUS
 62
     6
 10
249.970648
 20
93.405659
 40
0.214808
 50
-90.000017
 51
4.999718
  0
LINE
  8
CSLAYER1
  6
CONTINUOUS
 62
     6
 10
250.183847
 20
93.189286
 11
244.391915
 21
93.189286
  0
ARC
  8
CSLAYER1
  6
CONTINUOUS
 62
     6
 10
244.391915
 20
93.085264
 40
0.104022
 50
89.999995
 51
179.999997
  0
ARC
  8
CSLAYER1
  6
CONTINUOUS
 62
     6
 10
244.391915
 20
92.461133
 40
0.104022
 50
179.999997
 51
270.000000
  0
LINE
  8
CSLAYER1
  6
CONTINUOUS
 62
     6
 10
244.287881
 20
93.085264
 11
244.287881
 21
92.461133
  0
LINE
  8
CSLAYER1
  6
CONTINUOUS
 62
     6
 10
244.392690
 20
93.424503
 11
244.451431
 21
94.105863
  0
ARC
  8
CSLAYER1
  6
CONTINUOUS
 62
     6
 10
245.513604
 20
94.011581
 40
1.074023
 50
106.257211
 51
174.999882
  0
ARC
  8
CSLAYER1
  6
CONTINUOUS
 62
     6
 10
244.605114
 20
93.405659
 40
0.214808
 50
175.000282
 51
270.000017
  0
LINE
  8
CSLAYER1
  6
CENTER
 62
     3
 10
279.287881
 20
84.857111
 11
279.287881
 21
98.352919
  0
ARC
  8
CSLAYER1
  6
CONTINUOUS
 62
     6
 10
282.183847
 20
93.085264
 40
0.104022
 50
0.000003
 51
90.000005
  0
ARC
  8
CSLAYER1
  6
CONTINUOUS
 62
     6
 10
282.183847
 20
92.461133
 40
0.104022
 50
-90.000000
 51
0.000003
  0
LINE
  8
CSLAYER1
  6
CONTINUOUS
 62
     6
 10
282.287881
 20
93.085264
 11
282.287881
 21
92.461133
  0
LINE
  8
CSLAYER1
  6
CONTINUOUS
 62
     6
 10
278.651347
 20
93.189286
 11
279.113058
 21
92.357111
  0
LINE
  8
CSLAYER1
  6
CONTINUOUS
 62
     6
 10
279.171456
 20
93.189286
 11
279.633167
 21
92.357111
  0
LINE
  8
CSLAYER1
  6
CONTINUOUS
 62
     6
 10
282.183072
 20
93.424503
 11
282.124331
 21
94.105863
  0
ARC
  8
CSLAYER1
  6
CONTINUOUS
 62
     6
 10
281.062159
 20
94.011581
 40
1.074023
 50
5.000118
 51
73.742789
  0
ARC
  8
CSLAYER1
  6
CONTINUOUS
 62
     6
 10
281.970648
 20
93.405659
 40
0.214808
 50
-90.000017
 51
4.999718
  0
LINE
  8
CSLAYER1
  6
CONTINUOUS
 62
     6
 10
282.183847
 20
93.189286
 11
276.391915
 21
93.189286
  0
ARC
  8
CSLAYER1
  6
CONTINUOUS
 62
     6
 10
276.391915
 20
93.085264
 40
0.104022
 50
89.999995
 51
179.999997
  0
ARC
  8
CSLAYER1
  6
CONTINUOUS
 62
     6
 10
276.391915
 20
92.461133
 40
0.104022
 50
179.999997
 51
270.000000
  0
LINE
  8
CSLAYER1
  6
CONTINUOUS
 62
     6
 10
276.287881
 20
93.085264
 11
276.287881
 21
92.461133
  0
LINE
  8
CSLAYER1
  6
CONTINUOUS
 62
     6
 10
276.392690
 20
93.424503
 11
276.451431
 21
94.105863
  0
ARC
  8
CSLAYER1
  6
CONTINUOUS
 62
     6
 10
277.513604
 20
94.011581
 40
1.074023
 50
106.257211
 51
174.999882
  0
ARC
  8
CSLAYER1
  6
CONTINUOUS
 62
     6
 10
276.605114
 20
93.405659
 40
0.214808
 50
175.000282
 51
270.000017
  0
LINE
  8
CSLAYER1
  6
CONTINUOUS
 62
     6
 10
275.287881
 20
94.357138
 11
275.287881
 21
92.357111
  0
ARC
  8
CSLAYER1
  6
CONTINUOUS
 62
     6
 10
277.287881
 20
34.357108
 40
2.000000
 50
180.000000
 51
270.000000
  0
ARC
  8
CSLAYER1
  6
CONTINUOUS
 62
     6
 10
277.287881
 20
94.357138
 40
2.000000
 50
90.000000
 51
180.000000
  0
LINE
  8
CSLAYER1
  6
CONTINUOUS
 62
     6
 10
275.187989
 20
47.357111
 11
219.310273
 21
47.357111
  0
LINE
  8
CSLAYER1
  6
CONTINUOUS
 62
     6
 10
267.287881
 20
27.357111
 11
227.287881
 21
27.357111
  0
LINE
  8
CSLAYER1
  6
CONTINUOUS
 62
     6
 10
269.287881
 20
29.357111
 11
269.287881
 21
44.357111
  0
LINE
  8
CSLAYER1
  6
CONTINUOUS
 62
     6
 10
225.287881
 20
29.357111
 11
225.287881
 21
44.357111
  0
ARC
  8
CSLAYER1
  6
CONTINUOUS
 62
     6
 10
267.287881
 20
29.357111
 40
2.000000
 50
270.000000
 51
360.000000
  0
ARC
  8
CSLAYER1
  6
CONTINUOUS
 62
     6
 10
227.287881
 20
29.357111
 40
2.000000
 50
180.000000
 51
270.000000
  0
LINE
  8
CSLAYER1
  6
CONTINUOUS
 62
     6
 10
278.787886
 20
50.956174
 11
278.787886
 21
62.388485
  0
ARC
  8
CSLAYER1
  6
CONTINUOUS
 62
     6
 10
275.187989
 20
50.956174
 40
3.599897
 50
270.000000
 51
360.000000
  0
LINE
  8
CSLAYER1
  6
CONTINUOUS
 62
     6
 10
215.787876
 20
50.956174
 11
215.787876
 21
62.388485
  0
ARC
  8
CSLAYER1
  6
CONTINUOUS
 62
     6
 10
219.387773
 20
50.956174
 40
3.599897
 50
180.000000
 51
268.766418
  0
LINE
  8
CSLAYER1
  6
CONTINUOUS
 62
     6
 10
275.287881
 20
44.357111
 11
275.287881
 21
34.357108
  0
ARC
  8
CSLAYER1
  6
CONTINUOUS
 62
     6
 10
272.287881
 20
44.357111
 40
3.000000
 50
-0.000000
 51
180.000000
  0
LINE
  8
CSLAYER1
  6
CONTINUOUS
 62
     6
 10
217.287881
 20
27.357111
 11
209.287881
 21
27.357111
  0
ARC
  8
CSLAYER1
  6
CONTINUOUS
 62
     6
 10
217.287881
 20
29.357111
 40
2.000000
 50
270.000000
 51
360.000000
  0
LINE
  8
CSLAYER1
  6
CONTINUOUS
 62
     6
 10
219.287881
 20
44.389357
 11
219.287881
 21
29.357111
  0
ARC
  8
CSLAYER1
  6
CONTINUOUS
 62
     6
 10
222.287881
 20
44.357111
 40
3.000000
 50
-0.000000
 51
180.000000
  0
LINE
  8
CSLAYER1
  6
CONTINUOUS
 62
     6
 10
209.287881
 20
101.357111
 11
209.287881
 21
27.357111
  0
LINE
  8
CSLAYER1
  6
CONTINUOUS
 62
     6
 10
267.287881
 20
101.357111
 11
227.287881
 21
101.357111
  0
LINE
  8
CSLAYER1
  6
CONTINUOUS
 62
     6
 10
282.787865
 20
87.857111
 11
211.787881
 21
87.857111
  0
LINE
  8
CSLAYER1
  6
CONTINUOUS
 62
     6
 10
282.287881
 20
92.357111
 11
212.287881
 21
92.357111
  0
LINE
  8
CSLAYER1
  6
CONTINUOUS
 62
     6
 10
282.287881
 20
66.357111
 11
282.287881
 21
92.357111
  0
LINE
  8
CSLAYER1
  6
CONTINUOUS
 62
     6
 10
212.287881
 20
66.357111
 11
212.287881
 21
92.357111
  0
ARC
  8
CSLAYER1
  6
CONTINUOUS
 62
     6
 10
280.287881
 20
66.357111
 40
2.000000
 50
277.180831
 51
360.000000
  0
ARC
  8
CSLAYER1
  6
CONTINUOUS
 62
     6
 10
214.287881
 20
66.357111
 40
2.000000
 50
180.000000
 51
262.819169
  0
LINE
  8
CSLAYER1
  6
CONTINUOUS
 62
     6
 10
241.626480
 20
92.357111
 11
241.626480
 21
66.857111
  0
LINE
  8
CSLAYER1
  6
CONTINUOUS
 62
     6
 10
252.949282
 20
66.857111
 11
252.949282
 21
92.357111
  0
LINE
  8
CSLAYER1
  6
CONTINUOUS
 62
     6
 10
282.787865
 20
94.357138
 11
282.787865
 21
87.857111
  0
ARC
  8
CSLAYER1
  6
CONTINUOUS
 62
     6
 10
284.787865
 20
94.357138
 40
2.000000
 50
90.000000
 51
180.000000
  0
LINE
  8
CSLAYER1
  6
CONTINUOUS
 62
     6
 10
269.287881
 20
95.357111
 11
269.287881
 21
99.357111
  0
LINE
  8
CSLAYER1
  6
CONTINUOUS
 62
     6
 10
225.287881
 20
95.357111
 11
225.287881
 21
99.357111
  0
LINE
  8
CSLAYER1
  6
CONTINUOUS
 62
     6
 10
219.287881
 20
99.357111
 11
219.287881
 21
92.357111
  0
LINE
  8
CSLAYER1
  6
CONTINUOUS
 62
     6
 10
217.287881
 20
101.357111
 11
209.287881
 21
101.357111
  0
ARC
  8
CSLAYER1
  6
CONTINUOUS
 62
     6
 10
217.287881
 20
99.357111
 40
2.000000
 50
0.000000
 51
90.000000
  0
ARC
  8
CSLAYER1
  6
CONTINUOUS
 62
     6
 10
227.287881
 20
99.357111
 40
2.000000
 50
90.000000
 51
180.000000
  0
ARC
  8
CSLAYER1
  6
CONTINUOUS
 62
     6
 10
267.287881
 20
99.357111
 40
2.000000
 50
0.000000
 51
90.000000
  0
ARC
  8
CSLAYER1
  6
CONTINUOUS
 62
     6
 10
222.287881
 20
95.357111
 40
3.000000
 50
-90.000000
 51
0.000000
  0
ARC
  8
CSLAYER1
  6
CONTINUOUS
 62
     6
 10
272.287881
 20
95.357111
 40
3.000000
 50
180.000000
 51
270.000000
  0
LINE
  8
CSLAYER1
  6
CONTINUOUS
 62
     6
 10
211.787881
 20
87.857111
 11
211.787881
 21
101.357111
  0
LINE
  8
CSLAYER1
  6
CONTINUOUS
 62
     6
 10
215.753397
 20
66.857111
 11
215.753397
 21
92.357111
  0
LINE
  8
CSLAYER1
  6
CONTINUOUS
 62
     6
 10
278.822365
 20
66.857111
 11
278.822365
 21
92.357111
  0
LINE
  8
CSLAYER1
  6
CONTINUOUS
 62
     6
 10
273.287881
 20
43.357111
 11
269.287881
 21
43.357111
  0
LINE
  8
CSLAYER1
  6
CONTINUOUS
 62
     6
 10
225.287881
 20
43.357111
 11
221.287881
 21
43.357111
  0
ARC
  8
CSLAYER1
  6
CONTINUOUS
 62
     6
 10
221.287881
 20
41.357111
 40
2.000000
 50
90.000000
 51
180.000000
  0
ARC
  8
CSLAYER1
  6
CONTINUOUS
 62
     6
 10
273.287881
 20
41.357111
 40
2.000000
 50
0.000000
 51
90.000000
  0
LINE
  8
CSLAYER1
  6
CENTER
 62
     3
 10
247.287881
 20
130.881176
 11
247.287881
 21
24.357111
  0
LINE
  8
CSLAYER1
  6
CONTINUOUS
 62
     6
 10
253.287881
 20
109.357111
 11
241.287881
 21
109.357111
  0
LINE
  8
CSLAYER1
  6
CONTINUOUS
 62
     6
 10
251.787881
 20
129.357111
 11
243.287881
 21
129.357111
  0
LINE
  8
CSLAYER1
  6
CONTINUOUS
 62
     6
 10
253.287881
 20
101.357111
 11
253.287881
 21
109.357111
  0
LINE
  8
CSLAYER1
  6
CONTINUOUS
 62
     6
 10
252.287881
 20
109.357111
 11
252.287881
 21
128.857111
  0
LINE
  8
CSLAYER1
  6
CONTINUOUS
 62
     6
 10
242.787881
 20
128.857111
 11
242.787881
 21
114.357111
  0
LINE
  8
CSLAYER1
  6
CONTINUOUS
 62
     6
 10
242.787881
 20
114.357111
 11
242.287881
 21
114.357111
  0
LINE
  8
CSLAYER1
  6
CONTINUOUS
 62
     6
 10
242.287881
 20
114.357111
 11
242.287881
 21
109.357111
  0
LINE
  8
CSLAYER1
  6
CONTINUOUS
 62
     6
 10
241.287881
 20
109.357111
 11
241.287881
 21
101.357111
  0
LINE
  8
CSLAYER1
  6
CONTINUOUS
 62
     6
 10
252.287881
 20
128.857111
 11
251.787881
 21
129.357111
  0
LINE
  8
CSLAYER1
  6
CONTINUOUS
 62
     6
 10
243.287881
 20
129.357111
 11
242.787881
 21
128.857111
  0
LINE
  8
CSLAYER1
  6
CONTINUOUS
 62
     6
 10
275.287881
 20
210.514880
 11
275.287881
 21
252.881177
  0
ARC
  8
CSLAYER1
  6
CONTINUOUS
 62
     6
 10
277.287881
 20
252.881177
 40
2.000000
 50
90.000000
 51
180.000000
  0
LINE
  8
CSLAYER1
  6
CENTER
 62
     3
 10
247.287881
 20
151.881177
 11
247.287881
 21
242.881161
  0
LINE
  8
CSLAYER1
  6
CONTINUOUS
 62
     6
 10
219.287881
 20
210.514880
 11
219.287881
 21
252.881177
  0
LINE
  8
CSLAYER1
  6
CONTINUOUS
 62
     6
 10
209.287881
 20
190.881146
 11
209.287881
 21
254.881177
  0
ARC
  8
CSLAYER1
  6
CONTINUOUS
 62
     6
 10
217.287881
 20
252.881177
 40
2.000000
 50
0.000000
 51
90.000000
  0
LINE
  8
CSLAYER1
  6
CONTINUOUS
 62
     6
 10
217.287881
 20
254.881177
 11
209.287881
 21
254.881177
  0
LINE
  8
CSLAYER1
  6
CONTINUOUS
 62
     6
 10
212.371815
 20
190.881146
 11
209.287881
 21
190.881146
  0
LINE
  8
CSLAYER1
  6
CONTINUOUS
 62
     6
 10
272.287881
 20
239.881163
 11
222.287881
 21
239.881158
  0
ARC
  8
CSLAYER1
  6
CONTINUOUS
 62
     6
 10
272.287881
 20
242.881163
 40
3.000000
 50
270.000006
 51
360.000000
  0
ARC
  8
CSLAYER1
  6
CONTINUOUS
 62
     6
 10
222.287881
 20
242.881158
 40
3.000000
 50
180.000000
 51
270.000006
  0
LINE
  8
CSLAYER1
  6
CENTER
 62
     3
 10
285.287881
 20
189.881165
 11
209.287897
 21
189.881156
  0
CIRCLE
  8
CSLAYER1
  6
CONTINUOUS
 62
     6
 10
247.287881
 20
189.881161
 40
16.000000
  0
CIRCLE
  8
CSLAYER1
  6
CONTINUOUS
 62
     6
 10
247.287881
 20
189.881161
 40
21.000005
  0
ARC
  8
CSLAYER1
  6
CONTINUOUS
 62
     6
 10
247.287881
 20
160.881177
 40
6.000000
 50
199.340533
 51
340.659467
  0
ARC
  8
CSLAYER1
  6
CONTINUOUS
 62
     6
 10
218.287897
 20
189.881161
 40
6.000000
 50
109.340533
 51
250.659467
  0
ARC
  8
CSLAYER1
  6
CONTINUOUS
 62
     6
 10
276.287865
 20
189.881161
 40
6.000000
 50
-70.659467
 51
70.659467
  0
LINE
  8
CSLAYER1
  6
CENTER
 62
     3
 10
206.287881
 20
248.881156
 11
222.287881
 21
248.881156
  0
LINE
  8
CSLAYER1
  6
CENTER
 62
     3
 10
206.287881
 20
210.881156
 11
222.287881
 21
210.881156
  0
LINE
  8
CSLAYER1
  6
CONTINUOUS
 62
     6
 10
272.287882
 20
237.881163
 11
222.287882
 21
237.881158
  0
CIRCLE
  8
CSLAYER1
  6
CONTINUOUS
 62
     6
 10
247.287881
 20
189.881161
 40
5.000000
  0
CIRCLE
  8
CSLAYER1
  6
CONTINUOUS
 62
     6
 10
247.287881
 20
189.881161
 40
6.000000
  0
LINE
  8
CSLAYER1
  6
CONTINUOUS
 62
     6
 10
242.787881
 20
192.060610
 11
242.787881
 21
187.701711
  0
CIRCLE
  8
CSLAYER1
  6
CONTINUOUS
 62
     6
 10
240.362953
 20
177.852642
 40
1.454544
  0
ARC
  8
CSLAYER1
  6
CONTINUOUS
 62
     6
 10
240.362953
 20
177.852642
 40
3.117293
 50
-23.481549
 51
129.764149
  0
LINE
  8
CSLAYER1
  6
CONTINUOUS
 62
     6
 10
243.222099
 20
176.610553
 11
242.600931
 21
174.583065
  0
CIRCLE
  8
CSLAYER1
  6
CONTINUOUS
 62
     6
 10
254.212819
 20
177.852642
 40
1.454544
  0
ARC
  8
CSLAYER1
  6
CONTINUOUS
 62
     6
 10
254.212819
 20
177.852642
 40
3.117293
 50
50.235849
 51
203.481547
  0
LINE
  8
CSLAYER1
  6
CONTINUOUS
 62
     6
 10
251.353676
 20
176.610553
 11
251.974844
 21
174.583065
  0
ARC
  8
CSLAYER1
  6
CONTINUOUS
 62
     6
 10
247.287881
 20
189.035164
 40
13.936877
 50
-37.903051
 51
217.903067
  0
ARC
  8
CSLAYER1
  6
CONTINUOUS
 62
     6
 10
237.438687
 20
181.366949
 40
1.454544
 50
217.903410
 51
309.763671
  0
ARC
  8
CSLAYER1
  6
CONTINUOUS
 62
     6
 10
257.137087
 20
181.366949
 40
1.454544
 50
230.236270
 51
322.096587
  0
ARC
  8
CSLAYER1
  6
CONTINUOUS
 62
     6
 10
288.977525
 20
248.881171
 40
8.786224
 50
-16.066255
 51
16.066256
  0
ARC
  8
CSLAYER1
  6
CONTINUOUS
 62
     6
 10
288.977525
 20
196.881161
 40
8.786224
 50
-16.066255
 51
16.066256
  0
ARC
  8
CSLAYER1
  6
CONTINUOUS
 62
     6
 10
387.946725
 20
181.634429
 40
15.758816
 50
180.057309
 51
207.463798
  0
ARC
  8
CSLAYER1
  6
CONTINUOUS
 62
     6
 10
387.946725
 20
181.634429
 40
13.558834
 50
180.057309
 51
207.463798
  0
ARC
  8
CSLAYER1
  6
CONTINUOUS
 62
     6
 10
372.737893
 20
180.681838
 40
1.099999
 50
59.999655
 51
119.999650
  0
ARC
  8
CSLAYER1
  6
CONTINUOUS
 62
     6
 10
373.837892
 20
180.681822
 40
1.099999
 50
59.999655
 51
119.999650
  0
ARC
  8
CSLAYER1
  6
CONTINUOUS
 62
     6
 10
373.837899
 20
182.587081
 40
1.099999
 50
239.999650
 51
299.999638
  0
LINE
  8
CSLAYER1
  6
CONTINUOUS
 62
     6
 10
375.258325
 20
175.039473
 11
376.875482
 21
172.101401
  0
LINE
  8
CSLAYER1
  6
CONTINUOUS
 62
     6
 10
374.769403
 20
174.785338
 11
376.346185
 21
171.777922
  0
LINE
  8
CSLAYER1
  6
CONTINUOUS
 62
     6
 10
374.371270
 20
174.578383
 11
375.772760
 21
171.498580
  0
LINE
  8
CSLAYER1
  6
CONTINUOUS
 62
     6
 10
375.915948
 20
175.381270
 11
373.963891
 21
174.366652
  0
ARC
  8
CSLAYER1
  6
CONTINUOUS
 62
     6
 10
358.629037
 20
181.634429
 40
15.758816
 50
332.536132
 51
337.577932
  0
ARC
  8
CSLAYER1
  6
CONTINUOUS
 62
     6
 10
358.629037
 20
181.634429
 40
13.558834
 50
-27.463868
 51
0.000022
  0
LINE
  8
CSLAYER1
  6
CONTINUOUS
 62
     6
 10
371.317437
 20
175.039443
 11
369.700265
 21
172.101386
  0
LINE
  8
CSLAYER1
  6
CONTINUOUS
 62
     6
 10
371.806359
 20
174.785323
 11
370.229577
 21
171.777922
  0
LINE
  8
CSLAYER1
  6
CONTINUOUS
 62
     6
 10
372.204492
 20
174.578383
 11
370.802987
 21
171.498564
  0
LINE
  8
CSLAYER1
  6
CONTINUOUS
 62
     6
 10
370.659814
 20
175.381255
 11
372.611871
 21
174.366637
  0
ARC
  8
CSLAYER1
  6
CONTINUOUS
 62
     6
 10
373.837869
 20
185.499297
 40
1.100006
 50
240.000005
 51
299.999993
  0
ARC
  8
CSLAYER1
  6
CONTINUOUS
 62
     6
 10
372.737863
 20
185.499297
 40
1.100006
 50
240.000005
 51
299.999993
  0
ARC
  8
CSLAYER1
  6
CONTINUOUS
 62
     6
 10
372.737863
 20
183.594023
 40
1.100006
 50
59.999997
 51
119.999998
  0
LINE
  8
CSLAYER1
  6
CONTINUOUS
 62
     6
 10
372.187875
 20
193.053983
 11
372.187875
 21
184.546660
  0
LINE
  8
CSLAYER1
  6
CONTINUOUS
 62
     6
 10
374.387872
 20
193.092389
 11
374.387872
 21
184.546660
  0
ARC
  8
CSLAYER1
  6
CONTINUOUS
 62
     6
 10
288.977525
 20
90.357109
 40
8.786224
 50
-16.066255
 51
16.066256
  0
ARC
  8
CSLAYER1
  6
CONTINUOUS
 62
     6
 10
288.977525
 20
38.357100
 40
8.786224
 50
-16.066255
 51
16.066256
  0
ARC
  8
CSLAYER1
  6
CONTINUOUS
 62
     6
 10
215.271249
 20
87.780153
 40
7.572785
 50
73.933744
 51
105.823637
  0
ARC
  8
CSLAYER1
  6
CONTINUOUS
 62
     6
 10
247.271249
 20
87.780153
 40
7.572785
 50
73.933744
 51
105.823637
  0
ARC
  8
CSLAYER1
  6
CONTINUOUS
 62
     6
 10
279.271249
 20
87.780153
 40
7.572785
 50
73.933744
 51
105.823637
  0
LINE
  8
CSLAYER1
  6
CONTINUOUS
 62
     6
 10
252.287881
 20
280.045356
 11
242.787881
 21
280.045356
  0
LINE
  8
CSLAYER1
  6
CONTINUOUS
 62
     6
 10
252.287881
 20
128.857111
 11
242.787881
 21
128.857111
  0
ARC
  8
CSLAYER1
  6
CONTINUOUS
 62
     6
 10
109.386868
 20
156.381155
 40
2.000000
 50
7.180756
 51
90.000000
  0
ARC
  8
CSLAYER1
  6
CONTINUOUS
 62
     6
 10
97.355495
 20
161.381155
 40
3.000000
 50
180.000000
 51
270.000000
  0
ARC
  8
CSLAYER1
  6
CONTINUOUS
 62
     6
 10
247.287881
 20
189.881161
 40
31.500005
 50
280.353859
 51
349.646141
  0
ARC
  8
CSLAYER1
  6
CONTINUOUS
 62
     6
 10
495.502738
 20
156.381155
 40
2.000000
 50
90.000000
 51
172.819036
  0
ARC
  8
CSLAYER1
  6
CONTINUOUS
 62
     6
 10
280.787886
 20
62.388485
 40
2.000000
 50
97.180831
 51
180.000000
  0
ARC
  8
CSLAYER1
  6
CONTINUOUS
 62
     6
 10
213.787876
 20
62.388485
 40
2.000000
 50
0.000000
 51
82.819169
  0
ARC
  8
CSLAYER1
  6
CONTINUOUS
 62
     6
 10
247.287881
 20
189.881161
 40
31.500005
 50
190.353859
 51
259.646141
  0
ARC
  8
CSLAYER1
  6
CONTINUOUS
 62
     6
 10
247.287875
 20
218.881144
 40
6.000000
 50
19.340545
 51
160.659479
  0
ARC
  8
CSLAYER1
  6
CONTINUOUS
 62
     6
 10
247.287881
 20
189.881161
 40
31.500005
 50
100.353871
 51
169.646141
  0
ARC
  8
CSLAYER1
  6
CONTINUOUS
 62
     6
 10
247.287881
 20
189.881161
 40
31.500005
 50
10.353859
 51
79.646154
  0
ARC
  8
CSLAYER1
  6
CONTINUOUS
 62
     6
 10
247.287881
 20
189.881161
 40
34.500005
 50
145.029207
 51
173.128143
  0
ARC
  8
CSLAYER1
  6
CONTINUOUS
 62
     6
 10
217.787881
 20
210.514880
 40
1.500000
 50
325.029207
 51
360.000000
  0
ARC
  8
CSLAYER1
  6
CONTINUOUS
 62
     6
 10
218.287897
 20
189.881161
 40
6.500000
 50
147.423757
 51
161.790151
  0
ARC
  8
CSLAYER1
  6
CONTINUOUS
 62
     6
 10
211.546491
 20
194.188532
 40
1.500000
 50
327.423757
 51
353.128143
  0
ARC
  8
CSLAYER1
  6
CONTINUOUS
 62
     6
 10
210.688550
 20
192.381146
 40
1.500000
 50
270.000000
 51
341.790151
  0
CIRCLE
  8
CSLAYER1
  6
CONTINUOUS
 62
     6
 10
215.287882
 20
189.881169
 40
2.750000
  0
ARC
  8
CSLAYER1
  6
CONTINUOUS
 62
     6
 10
215.287872
 20
189.881169
 40
1.527778
 50
163.398391
 51
196.601553
  0
ARC
  8
CSLAYER1
  6
CONTINUOUS
 62
     6
 10
215.287872
 20
189.881169
 40
1.527778
 50
253.398397
 51
286.601559
  0
ARC
  8
CSLAYER1
  6
CONTINUOUS
 62
     6
 10
215.287872
 20
189.881169
 40
1.527778
 50
-16.601586
 51
16.601548
  0
ARC
  8
CSLAYER1
  6
CONTINUOUS
 62
     6
 10
215.287872
 20
189.881169
 40
1.527778
 50
73.398382
 51
106.601571
  0
LINE
  8
CSLAYER1
  6
CONTINUOUS
 62
     6
 10
216.160899
 20
189.444656
 11
216.751957
 21
189.444655
  0
LINE
  8
CSLAYER1
  6
CONTINUOUS
 62
     6
 10
214.414845
 20
189.444656
 11
213.823787
 21
189.444657
  0
LINE
  8
CSLAYER1
  6
CONTINUOUS
 62
     6
 10
216.160899
 20
190.317682
 11
216.751958
 21
190.317682
  0
LINE
  8
CSLAYER1
  6
CONTINUOUS
 62
     6
 10
214.414846
 20
190.317683
 11
213.823787
 21
190.317683
  0
LINE
  8
CSLAYER1
  6
CONTINUOUS
 62
     6
 10
214.851359
 20
189.008166
 11
214.851358
 21
188.417061
  0
LINE
  8
CSLAYER1
  6
CONTINUOUS
 62
     6
 10
214.851359
 20
190.754173
 11
214.851360
 21
191.345278
  0
LINE
  8
CSLAYER1
  6
CONTINUOUS
 62
     6
 10
215.724385
 20
189.008165
 11
215.724385
 21
188.417061
  0
LINE
  8
CSLAYER1
  6
CONTINUOUS
 62
     6
 10
215.724386
 20
190.754173
 11
215.724386
 21
191.345277
  0
ARC
  8
CSLAYER1
  6
CONTINUOUS
 62
     6
 10
216.160899
 20
189.008165
 40
0.436508
 50
89.999976
 51
179.942667
  0
ARC
  8
CSLAYER1
  6
CONTINUOUS
 62
     6
 10
216.160899
 20
190.754173
 40
0.436508
 50
179.999986
 51
269.999992
  0
ARC
  8
CSLAYER1
  6
CONTINUOUS
 62
     6
 10
214.414846
 20
190.754174
 40
0.436508
 50
269.999992
 51
359.999981
  0
ARC
  8
CSLAYER1
  6
CONTINUOUS
 62
     6
 10
214.414845
 20
189.008166
 40
0.436508
 50
-0.000019
 51
89.942630
  0
ARC
  8
CSLAYER1
  6
CENTER
 62
     3
 10
247.287881
 20
189.881161
 40
32.000005
 50
171.493044
 51
188.506926
  0
CIRCLE
  8
CSLAYER1
  6
CONTINUOUS
 62
     6
 10
247.287873
 20
157.881162
 40
2.750000
  0
ARC
  8
CSLAYER1
  6
CONTINUOUS
 62
     6
 10
247.287872
 20
157.881152
 40
1.527778
 50
253.398391
 51
286.601553
  0
ARC
  8
CSLAYER1
  6
CONTINUOUS
 62
     6
 10
247.287872
 20
157.881152
 40
1.527778
 50
-16.601603
 51
16.601559
  0
ARC
  8
CSLAYER1
  6
CONTINUOUS
 62
     6
 10
247.287872
 20
157.881152
 40
1.527778
 50
73.398414
 51
106.601548
  0
ARC
  8
CSLAYER1
  6
CONTINUOUS
 62
     6
 10
247.287872
 20
157.881152
 40
1.527778
 50
163.398382
 51
196.601571
  0
LINE
  8
CSLAYER1
  6
CONTINUOUS
 62
     6
 10
247.724386
 20
158.754178
 11
247.724386
 21
159.345237
  0
LINE
  8
CSLAYER1
  6
CONTINUOUS
 62
     6
 10
247.724385
 20
157.008125
 11
247.724385
 21
156.417066
  0
LINE
  8
CSLAYER1
  6
CONTINUOUS
 62
     6
 10
246.851359
 20
158.754179
 11
246.851359
 21
159.345237
  0
LINE
  8
CSLAYER1
  6
CONTINUOUS
 62
     6
 10
246.851358
 20
157.008125
 11
246.851358
 21
156.417067
  0
LINE
  8
CSLAYER1
  6
CONTINUOUS
 62
     6
 10
248.160876
 20
157.444638
 11
248.751980
 21
157.444638
  0
LINE
  8
CSLAYER1
  6
CONTINUOUS
 62
     6
 10
246.414868
 20
157.444639
 11
245.823764
 21
157.444639
  0
LINE
  8
CSLAYER1
  6
CONTINUOUS
 62
     6
 10
248.160876
 20
158.317665
 11
248.751980
 21
158.317665
  0
LINE
  8
CSLAYER1
  6
CONTINUOUS
 62
     6
 10
246.414868
 20
158.317666
 11
245.823764
 21
158.317666
  0
ARC
  8
CSLAYER1
  6
CONTINUOUS
 62
     6
 10
248.160876
 20
158.754178
 40
0.436508
 50
179.999976
 51
269.942667
  0
ARC
  8
CSLAYER1
  6
CONTINUOUS
 62
     6
 10
246.414869
 20
158.754179
 40
0.436508
 50
269.999986
 51
359.999992
  0
ARC
  8
CSLAYER1
  6
CONTINUOUS
 62
     6
 10
246.414868
 20
157.008126
 40
0.436508
 50
-0.000008
 51
89.999981
  0
ARC
  8
CSLAYER1
  6
CONTINUOUS
 62
     6
 10
248.160876
 20
157.008125
 40
0.436508
 50
89.999981
 51
179.942630
  0
ARC
  8
CSLAYER1
  6
CENTER
 62
     3
 10
247.287881
 20
189.881161
 40
32.000005
 50
261.493044
 51
278.506926
  0
CIRCLE
  8
CSLAYER1
  6
CONTINUOUS
 62
     6
 10
279.287880
 20
189.881152
 40
2.750000
  0
ARC
  8
CSLAYER1
  6
CONTINUOUS
 62
     6
 10
279.287890
 20
189.881152
 40
1.527778
 50
-16.601609
 51
16.601553
  0
ARC
  8
CSLAYER1
  6
CONTINUOUS
 62
     6
 10
279.287890
 20
189.881152
 40
1.527778
 50
73.398397
 51
106.601559
  0
ARC
  8
CSLAYER1
  6
CONTINUOUS
 62
     6
 10
279.287890
 20
189.881152
 40
1.527778
 50
163.398414
 51
196.601548
  0
ARC
  8
CSLAYER1
  6
CONTINUOUS
 62
     6
 10
279.287890
 20
189.881152
 40
1.527778
 50
253.398382
 51
286.601571
  0
LINE
  8
CSLAYER1
  6
CONTINUOUS
 62
     6
 10
278.414863
 20
190.317665
 11
277.823805
 21
190.317666
  0
LINE
  8
CSLAYER1
  6
CONTINUOUS
 62
     6
 10
280.160917
 20
190.317665
 11
280.751975
 21
190.317664
  0
LINE
  8
CSLAYER1
  6
CONTINUOUS
 62
     6
 10
278.414863
 20
189.444639
 11
277.823804
 21
189.444639
  0
LINE
  8
CSLAYER1
  6
CONTINUOUS
 62
     6
 10
280.160916
 20
189.444638
 11
280.751975
 21
189.444638
  0
LINE
  8
CSLAYER1
  6
CONTINUOUS
 62
     6
 10
279.724403
 20
190.754155
 11
279.724404
 21
191.345260
  0
LINE
  8
CSLAYER1
  6
CONTINUOUS
 62
     6
 10
279.724403
 20
189.008148
 11
279.724402
 21
188.417043
  0
LINE
  8
CSLAYER1
  6
CONTINUOUS
 62
     6
 10
278.851377
 20
190.754156
 11
278.851377
 21
191.345260
  0
LINE
  8
CSLAYER1
  6
CONTINUOUS
 62
     6
 10
278.851376
 20
189.008148
 11
278.851376
 21
188.417044
  0
ARC
  8
CSLAYER1
  6
CONTINUOUS
 62
     6
 10
278.414863
 20
190.754156
 40
0.436508
 50
269.999976
 51
359.942667
  0
ARC
  8
CSLAYER1
  6
CONTINUOUS
 62
     6
 10
278.414863
 20
189.008148
 40
0.436508
 50
-0.000014
 51
89.999992
  0
ARC
  8
CSLAYER1
  6
CONTINUOUS
 62
     6
 10
280.160916
 20
189.008147
 40
0.436508
 50
89.999992
 51
179.999981
  0
ARC
  8
CSLAYER1
  6
CONTINUOUS
 62
     6
 10
280.160917
 20
190.754155
 40
0.436508
 50
179.999981
 51
269.942630
  0
ARC
  8
CSLAYER1
  6
CENTER
 62
     3
 10
247.287881
 20
189.881161
 40
32.000005
 50
-8.506956
 51
8.506926
  0
CIRCLE
  8
CSLAYER1
  6
CONTINUOUS
 62
     6
 10
247.287889
 20
221.881159
 40
2.750000
  0
ARC
  8
CSLAYER1
  6
CONTINUOUS
 62
     6
 10
247.287890
 20
221.881169
 40
1.527778
 50
73.398391
 51
106.601553
  0
ARC
  8
CSLAYER1
  6
CONTINUOUS
 62
     6
 10
247.287890
 20
221.881169
 40
1.527778
 50
163.398397
 51
196.601559
  0
ARC
  8
CSLAYER1
  6
CONTINUOUS
 62
     6
 10
247.287890
 20
221.881169
 40
1.527778
 50
253.398414
 51
286.601548
  0
ARC
  8
CSLAYER1
  6
CONTINUOUS
 62
     6
 10
247.287890
 20
221.881169
 40
1.527778
 50
-16.601618
 51
16.601571
  0
LINE
  8
CSLAYER1
  6
CONTINUOUS
 62
     6
 10
246.851376
 20
221.008143
 11
246.851376
 21
220.417084
  0
LINE
  8
CSLAYER1
  6
CONTINUOUS
 62
     6
 10
246.851377
 20
222.754196
 11
246.851377
 21
223.345255
  0
LINE
  8
CSLAYER1
  6
CONTINUOUS
 62
     6
 10
247.724403
 20
221.008142
 11
247.724403
 21
220.417084
  0
LINE
  8
CSLAYER1
  6
CONTINUOUS
 62
     6
 10
247.724404
 20
222.754196
 11
247.724404
 21
223.345254
  0
LINE
  8
CSLAYER1
  6
CONTINUOUS
 62
     6
 10
246.414886
 20
222.317683
 11
245.823782
 21
222.317683
  0
LINE
  8
CSLAYER1
  6
CONTINUOUS
 62
     6
 10
248.160894
 20
222.317682
 11
248.751998
 21
222.317682
  0
LINE
  8
CSLAYER1
  6
CONTINUOUS
 62
     6
 10
246.414886
 20
221.444656
 11
245.823782
 21
221.444657
  0
LINE
  8
CSLAYER1
  6
CONTINUOUS
 62
     6
 10
248.160894
 20
221.444656
 11
248.751998
 21
221.444655
  0
ARC
  8
CSLAYER1
  6
CONTINUOUS
 62
     6
 10
246.414886
 20
221.008143
 40
0.436508
 50
-0.000024
 51
89.942667
  0
ARC
  8
CSLAYER1
  6
CONTINUOUS
 62
     6
 10
248.160893
 20
221.008142
 40
0.436508
 50
89.999986
 51
179.999992
  0
ARC
  8
CSLAYER1
  6
CONTINUOUS
 62
     6
 10
248.160894
 20
222.754196
 40
0.436508
 50
179.999992
 51
269.999981
  0
ARC
  8
CSLAYER1
  6
CONTINUOUS
 62
     6
 10
246.414886
 20
222.754196
 40
0.436508
 50
269.999981
 51
359.942630
  0
ARC
  8
CSLAYER1
  6
CENTER
 62
     3
 10
247.287881
 20
189.881161
 40
32.000005
 50
81.493044
 51
98.506926
  0
ARC
  8
CSLAYER1
  6
CONTINUOUS
 62
     6
 10
247.287881
 20
189.881161
 40
34.500005
 50
6.871857
 51
34.970793
  0
ARC
  8
CSLAYER1
  6
CONTINUOUS
 62
     6
 10
276.787881
 20
210.514880
 40
1.500000
 50
180.000000
 51
214.970793
  0
ARC
  8
CSLAYER1
  6
CONTINUOUS
 62
     6
 10
276.287865
 20
189.881161
 40
6.500000
 50
18.209849
 51
32.576243
  0
ARC
  8
CSLAYER1
  6
CONTINUOUS
 62
     6
 10
283.029271
 20
194.188532
 40
1.500000
 50
186.871857
 51
212.576243
  0
ARC
  8
CSLAYER1
  6
CONTINUOUS
 62
     6
 10
283.887212
 20
192.381146
 40
1.500000
 50
198.209849
 51
270.000000
  0
LINE
  8
CSLAYER1
  6
CONTINUOUS
 62
     3
 10
226.848836
 20
172.489989
 11
227.610804
 21
171.728021
  0
LINE
  8
CSLAYER1
  6
CONTINUOUS
 62
     3
 10
227.610804
 20
171.728021
 11
228.372773
 21
172.489989
  0
LINE
  8
CSLAYER1
  6
CONTINUOUS
 62
     3
 10
228.372773
 20
172.489989
 11
229.896710
 21
169.442115
  0
LINE
  8
CSLAYER1
  6
CONTINUOUS
 62
     3
 10
229.896710
 20
169.442115
 11
229.134741
 21
170.204084
  0
LINE
  8
CSLAYER1
  6
CONTINUOUS
 62
     3
 10
229.134741
 20
170.204084
 11
228.372773
 21
169.442115
  0
LINE
  8
CSLAYER1
  6
CONTINUOUS
 62
     3
 10
228.372773
 20
169.442115
 11
226.848836
 21
172.489989
  0
CIRCLE
  8
CSLAYER1
  6
CONTINUOUS
 62
     3
 10
228.372773
 20
170.966052
 40
2.155172
  0
CIRCLE
  8
CSLAYER1
  6
CONTINUOUS
 62
     3
 10
228.372773
 20
170.966052
 40
2.500000
  0
LINE
  8
CSLAYER1
  6
CONTINUOUS
 62
     6
 10
113.855495
 20
184.219754
 11
139.355495
 21
184.219754
  0
LINE
  8
CSLAYER1
  6
CONTINUOUS
 62
     6
 10
113.855495
 20
163.542557
 11
139.355495
 21
163.542557
  0
LINE
  8
CSLAYER1
  6
CONTINUOUS
 62
     6
 10
491.034112
 20
161.542586
 11
465.534112
 21
161.542586
  0
LINE
  8
CSLAYER1
  6
CONTINUOUS
 62
     6
 10
491.034112
 20
182.219784
 11
465.534112
 21
182.219784
  0
ARC
  8
CSLAYER1
  6
CONTINUOUS
 62
     6
 10
221.287881
 20
321.545356
 40
2.000000
 50
90.000000
 51
180.000000
  0
ARC
  8
CSLAYER1
  6
CONTINUOUS
 62
     6
 10
273.287881
 20
321.545356
 40
2.000000
 50
0.000000
 51
90.000000
  0
LINE
  8
CSLAYER1
  6
CENTER
 62
     3
 10
373.287881
 20
53.357111
 11
373.287881
 21
75.357111
  0
LINE
  8
CSLAYER1
  6
CONTINUOUS
 62
     6
 10
373.287881
 20
64.357111
 11
378.721353
 21
64.357111
  0
LINE
  8
CSLAYER1
  6
CONTINUOUS
 62
     6
 10
373.287881
 20
66.557108
 11
378.721353
 21
66.557108
  0
ARC
  8
CSLAYER1
  6
CONTINUOUS
 62
     6
 10
381.633584
 20
80.115962
 40
15.758816
 50
270.057318
 51
297.463807
  0
ARC
  8
CSLAYER1
  6
CONTINUOUS
 62
     6
 10
381.633584
 20
80.115962
 40
13.558834
 50
270.057318
 51
297.463807
  0
ARC
  8
CSLAYER1
  6
CONTINUOUS
 62
     6
 10
377.768716
 20
66.007105
 40
1.100006
 50
-29.999999
 51
30.000003
  0
ARC
  8
CSLAYER1
  6
CONTINUOUS
 62
     6
 10
377.768716
 20
64.907099
 40
1.100006
 50
-29.999999
 51
30.000003
  0
ARC
  8
CSLAYER1
  6
CONTINUOUS
 62
     6
 10
379.673989
 20
64.907099
 40
1.100006
 50
150.000023
 51
210.000011
  0
ARC
  8
CSLAYER1
  6
CONTINUOUS
 62
     6
 10
381.633584
 20
48.598261
 40
13.558834
 50
62.536128
 51
90.000025
  0
ARC
  8
CSLAYER1
  6
CONTINUOUS
 62
     6
 10
381.633554
 20
48.598277
 40
15.758816
 50
62.536128
 51
89.999997
  0
ARC
  8
CSLAYER1
  6
CONTINUOUS
 62
     6
 10
377.768716
 20
63.807093
 40
1.100006
 50
-29.999999
 51
30.000003
  0
ARC
  8
CSLAYER1
  6
CONTINUOUS
 62
     6
 10
377.768716
 20
62.707087
 40
1.100006
 50
-29.999999
 51
30.000003
  0
ARC
  8
CSLAYER1
  6
CONTINUOUS
 62
     6
 10
379.673989
 20
62.707087
 40
1.100006
 50
150.000023
 51
210.000011
  0
ARC
  8
CSLAYER1
  6
CONTINUOUS
 62
     6
 10
373.287881
 20
65.457118
 40
1.100006
 50
89.999981
 51
269.999999
  0
ARC
  8
CSLAYER1
  6
CONTINUOUS
 62
     6
 10
373.287881
 20
63.257105
 40
1.100006
 50
90.000008
 51
270.000027
  0
LINE
  8
CSLAYER1
  6
CONTINUOUS
 62
     6
 10
373.287881
 20
62.157115
 11
378.721353
 21
62.157115
  0
LINE
  8
CSLAYER1
  6
CONTINUOUS
 62
     6
 10
372.187844
 20
65.457118
 11
372.187844
 21
63.257105
  0
ARC
  8
CSLAYER1
  6
CONTINUOUS
 62
     6
 10
381.312951
 20
64.907145
 40
1.099999
 50
149.999668
 51
209.999656
  0
ARC
  8
CSLAYER1
  6
CONTINUOUS
 62
     6
 10
381.312959
 20
66.007136
 40
1.099999
 50
149.999668
 51
209.999656
  0
ARC
  8
CSLAYER1
  6
CONTINUOUS
 62
     6
 10
379.407708
 20
66.007151
 40
1.099999
 50
-30.000354
 51
29.999647
  0
ARC
  8
CSLAYER1
  6
CONTINUOUS
 62
     6
 10
381.312951
 20
62.707133
 40
1.099999
 50
149.999668
 51
209.999656
  0
ARC
  8
CSLAYER1
  6
CONTINUOUS
 62
     6
 10
381.312959
 20
63.807124
 40
1.099999
 50
149.999668
 51
209.999656
  0
ARC
  8
CSLAYER1
  6
CONTINUOUS
 62
     6
 10
379.407708
 20
63.807139
 40
1.099999
 50
-30.000354
 51
29.999647
  0
LINE
  8
CSLAYER1
  6
CONTINUOUS
 62
     6
 10
381.633523
 20
66.557124
 11
380.360330
 21
66.557124
  0
LINE
  8
CSLAYER1
  6
CONTINUOUS
 62
     6
 10
381.633554
 20
64.357096
 11
380.360330
 21
64.357096
  0
LINE
  8
CSLAYER1
  6
CONTINUOUS
 62
     6
 10
381.633523
 20
62.157130
 11
380.360330
 21
62.157130
  0
ARC
  8
CSLAYER1
  6
CONTINUOUS
 62
     6
 10
373.287881
 20
64.357111
 40
8.000000
 50
15.962096
 51
344.038116
  0
LINE
  8
CSLAYER1
  6
CONTINUOUS
 62
     6
 10
388.228494
 20
67.427561
 11
391.166604
 21
69.044718
  0
LINE
  8
CSLAYER1
  6
CONTINUOUS
 62
     6
 10
387.886697
 20
68.085185
 11
388.901345
 21
66.133128
  0
LINE
  8
CSLAYER1
  6
CONTINUOUS
 62
     6
 10
388.228555
 20
61.286662
 11
391.166604
 21
59.669489
  0
LINE
  8
CSLAYER1
  6
CONTINUOUS
 62
     6
 10
387.886758
 20
60.629038
 11
388.901345
 21
62.581095
  0
LINE
  8
CSLAYER1
  6
CONTINUOUS
 62
     6
 10
388.482644
 20
66.938639
 11
390.490090
 21
68.515421
  0
LINE
  8
CSLAYER1
  6
CONTINUOUS
 62
     6
 10
388.689614
 20
66.540507
 11
390.769387
 21
67.941996
  0
LINE
  8
CSLAYER1
  6
CONTINUOUS
 62
     6
 10
388.482644
 20
61.775584
 11
390.490090
 21
60.198802
  0
LINE
  8
CSLAYER1
  6
CONTINUOUS
 62
     6
 10
388.689614
 20
62.173716
 11
390.769448
 21
60.772212
  0
LINE
  8
CSLAYER1
  6
CONTINUOUS
 62
     6
 10
362.287881
 20
95.357115
 11
362.287881
 21
33.357115
  0
LINE
  8
CSLAYER1
  6
CONTINUOUS
 62
     6
 10
393.287881
 20
35.898244
 11
393.287881
 21
92.816001
  0
LINE
  8
CSLAYER1
  6
CONTINUOUS
 62
     6
 10
392.287881
 20
34.880788
 11
392.287881
 21
93.833456
  0
LINE
  8
CSLAYER1
  6
CONTINUOUS
 62
     6
 10
392.288033
 20
93.833453
 11
362.287866
 21
94.357107
  0
LINE
  8
CSLAYER1
  6
CONTINUOUS
 62
     6
 10
362.287881
 20
34.357129
 11
392.288033
 21
34.880791
  0
LINE
  8
CSLAYER1
  6
CONTINUOUS
 62
     6
 10
393.287881
 20
35.898244
 11
392.288033
 21
34.880791
  0
LINE
  8
CSLAYER1
  6
CONTINUOUS
 62
     6
 10
392.288033
 20
93.833453
 11
393.287881
 21
92.816001
  0
LINE
  8
CSLAYER1
  6
CENTER
 62
     3
 10
222.287881
 20
34.357111
 11
206.287881
 21
34.357111
  0
LINE
  8
CSLAYER1
  6
CENTER
 62
     3
 10
222.287881
 20
94.357111
 11
206.287881
 21
94.357111
  0
ARC
  8
CSLAYER1
  6
CONTINUOUS
 62
     6
 10
137.395248
 20
231.920907
 40
4.960248
 50
0.000000
 51
90.000000
  0
ARC
  8
CSLAYER1
  6
CONTINUOUS
 62
     6
 10
137.395248
 20
223.810003
 40
4.960248
 50
287.792389
 51
360.000000
  0
ARC
  8
CSLAYER1
  6
CONTINUOUS
 62
     6
 10
85.315743
 20
231.920907
 40
4.960248
 50
90.000000
 51
180.000000
  0
ARC
  8
CSLAYER1
  6
CONTINUOUS
 62
     6
 10
85.315743
 20
223.810003
 40
4.960248
 50
180.000000
 51
252.207611
  0
ENDSEC
  0
EOF
