  0
SECTION
  2
HEADER
  9
$ACADVER
  1
AC1006
  9
$INSBASE
 10
0.000000
 20
0.000000
 30
0.0
  9
$EXTMIN
 10
0.000000
 20
0.000000
  9
$EXTMAX
 10
420.000000
 20
297.000000
  9
$LIMMIN
 10
0.000000
 20
0.000000
  9
$LIMMAX
 10
420.000000
 20
297.000000
  9
$VIEWCTR
 10
210.000000
 20
148.500000
  9
$VIEWSIZE
 40
297.000000
  9
$SNAPMODE
 70
     0
  9
$SNAPUNIT
 10
1.0
 20
1.0
  9
$SNAPBASE
 10
0.0
 20
0.0
  9
$SNAPANG
 50
0.0
  9
$SNAPSTYLE
 70
     0
  9
$SNAPISOPAIR
 70
     0
  9
$GRIDMODE
 70
     0
  9
$GRIDUNIT
 10
0.0
 20
0.0
  9
$ORTHOMODE
 70
     0
  9
$REGENMODE
 70
     1
  9
$FILLMODE
 70
     1
  9
$QTEXTMODE
 70
     0
  9
$DRAGMODE
 70
     2
  9
$LTSCALE
 40
15.000000
  9
$OSMODE
 70
     0
  9
$ATTMODE
 70
     1
  9
$TEXTSIZE
 40
0.2
  9
$TRACEWID
 40
0.05
  9
$TEXTSTYLE
  7
STANDARD
  9
$CLAYER
  8
CSLAYER1
  9
$CELTYPE
  6
BYLAYER
  9
$CECOLOR
 62
   256
  9
$DIMSCALE
 40
1.0
  9
$DIMASZ
 40
0.18
  9
$DIMEXO
 40
0.0625
  9
$DIMDLI
 40
0.38
  9
$DIMRND
 40
0.0
  9
$DIMDLE
 40
0.0
  9
$DIMEXE
 40
0.18
  9
$DIMTP
 40
0.0
  9
$DIMTM
 40
0.0
  9
$DIMTXT
 40
0.18
  9
$DIMCEN
 40
0.09
  9
$DIMTSZ
 40
0.0
  9
$DIMTOL
 70
     0
  9
$DIMLIM
 70
     0
  9
$DIMTIH
 70
     1
  9
$DIMTOH
 70
     1
  9
$DIMSE1
 70
     0
  9
$DIMSE2
 70
     0
  9
$DIMTAD
 70
     0
  9
$DIMZIN
 70
     0
  9
$DIMBLK
  1

  9
$LUNITS
 70
     2
  9
$LUPREC
 70
     4
  9
$AXISMODE
 70
     0
  9
$AXISUNIT
 10
0.0
 20
0.0
  9
$SKETCHINC
 40
0.1
  9
$FILLETRAD
 40
0.0
  9
$AUNITS
 70
     0
  9
$AUPREC
 70
     0
  9
$MENU
  1
ACAD
  9
$ELEVATION
 40
0.0
  9
$THICKNESS
 40
0.0
  9
$VIEWDIR
 10
0.0
 20
0.0
 30
1.0
  9
$LIMCHECK
 70
     0
  9
$BLIPMODE
 70
     1
  9
$CHAMFERA
 40
0.0
  9
$CHAMFERB
 40
0.0
  9
$FASTZOOM
 70
     1
  9
$SKPOLY
 70
     0
  9
$TDCREATE
 40
0.000000
  9
$TDUPDATE
 40
0.000000
  9
$TDINDWG
 40
0.0
  9
$TDUSRTIMER
 40
0.0
  9
$USRTIMER
 70
     1
  9
$ANGBASE
 50
0.0
  9
$ANGDIR
 70
     0
  9
$PDMODE
 70
     0
  9
$PDSIZE
 40
0.0
  9
$PLINEWID
 40
0.0
  9
$COORDS
 70
     0
  9
$USERI1
 70
     0
  9
$USERI2
 70
     0
  9
$USERI3
 70
     0
  9
$USERI4
 70
     0
  9
$USERI5
 70
     0
  9
$USERR1
 40
0.0
  9
$USERR2
 40
0.0
  9
$USERR3
 40
0.0
  9
$USERR4
 40
0.0
  9
$USERR5
 40
0.0
  0
ENDSEC
  0
SECTION
  2
TABLES
  0
TABLE
  2
LTYPE
 70
     9
  0
LTYPE
  2
CONTINUOUS
 70
    64
  3
Solid line
 72
    65
 73
     0
 40
0.0
  0
LTYPE
  2
DASHED
 70
    64
  3
__ __ __ __ __ __ __ __ __ __ __ __ __ __ __
 72
    65
 73
     2
 40
0.75
 49
0.5
 49
-0.25
  0
LTYPE
  2
HIDDEN
 70
    64
  3
_ _ _ _ _ _ _ _ _ _ _ _ _ _ _ _ _ _ _ _ _ _ _
 72
    65
 73
     2
 40
0.375
 49
0.25
 49
-0.125
  0
LTYPE
  2
DOT
 70
    64
  3
...............................................
 72
    65
 73
     2
 40
0.25
 49
0.0
 49
-0.25
  0
LTYPE
  2
DASHDOT
 70
    64
  3
__ . __ . __ . __ . __ . __ . __ . __ . __ . __
 72
    65
 73
     4
 40
1.0
 49
0.5
 49
-0.25
 49
0.0
 49
-0.25
  0
LTYPE
  2
DIVIDE
 70
    64
  3
__ . . __ . . __ . . __ . . __ . . __ . . __
 72
    65
 73
     6
 40
1.25
 49
0.5
 49
-0.25
 49
0.0
 49
-0.25
 49
0.0
 49
-0.25
  0
LTYPE
  2
CENTER
 70
    64
  3
____ _ ____ _ ____ _ ____ _ ____ _ ____ _ ____ 
 72
    65
 73
     4
 40
2.0
 49
1.25
 49
-0.25
 49
0.25
 49
-0.25
  0
LTYPE
  2
PHANTOM
 70
    64
  3
______  __  __  ______  __  __  ______  __  __ 
 72
    65
 73
     6
 40
2.5
 49
1.25
 49
-0.25
 49
0.25
 49
-0.25
 49
0.25
 49
-0.25
  0
LTYPE
  2
BORDER
 70
    64
  3
__ __ . __ __ . __ __ . __ __ . __ __ . __ __ .
 72
    65
 73
     6
 40
1.75
 49
0.5
 49
-0.25
 49
0.5
 49
-0.25
 49
0.0
 49
-0.25
  0
ENDTAB
  0
TABLE
  2
LAYER
 70
    16
  0
LAYER
  2
CSLAYER1
 70
    64
 62
     7
  6
CONTINUOUS
  0
LAYER
  2
CSLAYER2
 70
    64
 62
     7
  6
CONTINUOUS
  0
LAYER
  2
CSLAYER3
 70
    64
 62
     7
  6
CONTINUOUS
  0
LAYER
  2
CSLAYER4
 70
    64
 62
     7
  6
CONTINUOUS
  0
LAYER
  2
CSLAYER5
 70
    64
 62
     7
  6
CONTINUOUS
  0
LAYER
  2
CSLAYER6
 70
    64
 62
     7
  6
CONTINUOUS
  0
LAYER
  2
CSLAYER7
 70
    64
 62
     7
  6
CONTINUOUS
  0
LAYER
  2
CSLAYER8
 70
    64
 62
     7
  6
CONTINUOUS
  0
LAYER
  2
CSLAYER9
 70
    64
 62
     7
  6
CONTINUOUS
  0
LAYER
  2
CSLAYER10
 70
    64
 62
     7
  6
CONTINUOUS
  0
LAYER
  2
CSLAYER11
 70
    64
 62
     7
  6
CONTINUOUS
  0
LAYER
  2
CSLAYER12
 70
    64
 62
     7
  6
CONTINUOUS
  0
LAYER
  2
CSLAYER13
 70
    64
 62
     7
  6
CONTINUOUS
  0
LAYER
  2
CSLAYER14
 70
    64
 62
     7
  6
CONTINUOUS
  0
LAYER
  2
CSLAYER15
 70
    64
 62
     7
  6
CONTINUOUS
  0
LAYER
  2
CSLAYER16
 70
    64
 62
     7
  6
CONTINUOUS
  0
ENDTAB
  0
TABLE
  2
STYLE
 70
     1
  0
STYLE
  2
JX_FONT
 70
     0
 40
1.0
 41
1.0
 50
0.0
 71
     0
 42
1.0
  3
monotxt
  4
bigfont
  0
ENDTAB
  0
TABLE
  2
VIEW
 70
     0
  0
ENDTAB
  0
ENDSEC
  0
SECTION
  2
BLOCKS
  0
ENDSEC
  0
SECTION
  2
ENTITIES
  0
LINE
  8
CSLAYER1
  6
CONTINUOUS
 62
     6
 10
343.599849
 20
172.336135
 11
343.599849
 21
120.336196
  0
LINE
  8
CSLAYER1
  6
CENTER
 62
     3
 10
410.599849
 20
146.336135
 11
340.599849
 21
146.336135
  0
LINE
  8
CSLAYER1
  6
CONTINUOUS
 62
     6
 10
401.599849
 20
178.336135
 11
349.599849
 21
178.336135
  0
ARC
  8
CSLAYER1
  6
CONTINUOUS
 62
     6
 10
349.599849
 20
172.336135
 40
6.000000
 50
90.000000
 51
180.000003
  0
LINE
  8
CSLAYER1
  6
CONTINUOUS
 62
     6
 10
407.599849
 20
172.336135
 11
407.599849
 21
120.336196
  0
CIRCLE
  8
CSLAYER1
  6
CONTINUOUS
 62
     6
 10
375.599834
 20
146.336135
 40
4.000000
  0
CIRCLE
  8
CSLAYER1
  6
CONTINUOUS
 62
     6
 10
375.599834
 20
146.336135
 40
15.000000
  0
CIRCLE
  8
CSLAYER1
  6
CONTINUOUS
 62
     6
 10
375.599834
 20
146.336135
 40
17.500000
  0
LINE
  8
CSLAYER1
  6
CONTINUOUS
 62
     6
 10
401.599849
 20
114.336196
 11
349.599849
 21
114.336196
  0
LINE
  8
CSLAYER1
  6
CENTER
 62
     3
 10
375.599849
 20
181.336104
 11
375.599849
 21
111.336226
  0
CIRCLE
  8
CSLAYER1
  6
CONTINUOUS
 62
     6
 10
375.599849
 20
146.336135
 40
13.000000
  0
ARC
  8
CSLAYER1
  6
CONTINUOUS
 62
     6
 10
349.599849
 20
120.336135
 40
6.000000
 50
180.000000
 51
270.000003
  0
ARC
  8
CSLAYER1
  6
CONTINUOUS
 62
     6
 10
401.599849
 20
120.336135
 40
6.000000
 50
-90.000000
 51
0.000003
  0
ARC
  8
CSLAYER1
  6
CONTINUOUS
 62
     6
 10
401.599849
 20
172.336135
 40
6.000000
 50
-0.000003
 51
90.000000
  0
LINE
  8
CSLAYER1
  6
CENTER
 62
     3
 10
401.599849
 20
177.275405
 11
401.599849
 21
167.336135
  0
LINE
  8
CSLAYER1
  6
CENTER
 62
     3
 10
396.599849
 20
172.336135
 11
406.599849
 21
172.336135
  0
CIRCLE
  8
CSLAYER1
  6
CONTINUOUS
 62
     6
 10
401.599849
 20
172.336135
 40
2.250000
  0
LINE
  8
CSLAYER1
  6
CENTER
 62
     3
 10
401.599849
 20
115.396865
 11
401.599849
 21
125.336135
  0
LINE
  8
CSLAYER1
  6
CENTER
 62
     3
 10
396.599849
 20
120.336135
 11
406.599849
 21
120.336135
  0
CIRCLE
  8
CSLAYER1
  6
CONTINUOUS
 62
     6
 10
401.599849
 20
120.336135
 40
2.250000
  0
LINE
  8
CSLAYER1
  6
CENTER
 62
     3
 10
344.660579
 20
120.336135
 11
354.599849
 21
120.336135
  0
LINE
  8
CSLAYER1
  6
CENTER
 62
     3
 10
349.599849
 20
125.336135
 11
349.599849
 21
115.336135
  0
CIRCLE
  8
CSLAYER1
  6
CONTINUOUS
 62
     6
 10
349.599849
 20
120.336135
 40
2.250000
  0
LINE
  8
CSLAYER1
  6
CENTER
 62
     3
 10
349.599849
 20
177.275405
 11
349.599849
 21
167.336135
  0
LINE
  8
CSLAYER1
  6
CENTER
 62
     3
 10
354.599849
 20
172.336135
 11
344.599849
 21
172.336135
  0
CIRCLE
  8
CSLAYER1
  6
CONTINUOUS
 62
     6
 10
349.599849
 20
172.336135
 40
2.250000
  0
ARC
  8
CSLAYER1
  6
CENTER
 62
     3
 10
375.599849
 20
146.336119
 40
24.000000
 50
114.927254
 51
155.072670
  0
CIRCLE
  8
CSLAYER1
  6
CONTINUOUS
 62
     6
 10
358.629329
 20
163.306685
 40
4.500000
  0
ARC
  8
CSLAYER1
  6
CONTINUOUS
 62
     6
 10
358.629329
 20
163.306685
 40
2.397500
 50
253.398434
 51
286.601595
  0
ARC
  8
CSLAYER1
  6
CONTINUOUS
 62
     6
 10
358.629329
 20
163.306685
 40
2.397500
 50
163.398424
 51
196.601586
  0
ARC
  8
CSLAYER1
  6
CONTINUOUS
 62
     6
 10
358.629329
 20
163.306685
 40
2.397500
 50
73.398442
 51
106.601576
  0
ARC
  8
CSLAYER1
  6
CONTINUOUS
 62
     6
 10
358.629329
 20
163.306685
 40
2.397500
 50
-16.601584
 51
16.601604
  0
LINE
  8
CSLAYER1
  6
CONTINUOUS
 62
     6
 10
357.944332
 20
164.676680
 11
357.944332
 21
165.604247
  0
LINE
  8
CSLAYER1
  6
CONTINUOUS
 62
     6
 10
357.944332
 20
161.936690
 11
357.944332
 21
161.009124
  0
LINE
  8
CSLAYER1
  6
CONTINUOUS
 62
     6
 10
359.314327
 20
164.676680
 11
359.314327
 21
165.604247
  0
LINE
  8
CSLAYER1
  6
CONTINUOUS
 62
     6
 10
359.314327
 20
161.936690
 11
359.314327
 21
161.009124
  0
LINE
  8
CSLAYER1
  6
CONTINUOUS
 62
     6
 10
357.259334
 20
162.621688
 11
356.331783
 21
162.621688
  0
LINE
  8
CSLAYER1
  6
CONTINUOUS
 62
     6
 10
359.999324
 20
162.621688
 11
360.926876
 21
162.621688
  0
LINE
  8
CSLAYER1
  6
CONTINUOUS
 62
     6
 10
357.259334
 20
163.991683
 11
356.331783
 21
163.991683
  0
LINE
  8
CSLAYER1
  6
CONTINUOUS
 62
     6
 10
359.999324
 20
163.991683
 11
360.926876
 21
163.991683
  0
ARC
  8
CSLAYER1
  6
CONTINUOUS
 62
     6
 10
357.259334
 20
164.676680
 40
0.685000
 50
270.000001
 51
359.942691
  0
ARC
  8
CSLAYER1
  6
CONTINUOUS
 62
     6
 10
359.999324
 20
164.676680
 40
0.685000
 50
180.000005
 51
270.000001
  0
ARC
  8
CSLAYER1
  6
CONTINUOUS
 62
     6
 10
359.999324
 20
161.936690
 40
0.685000
 50
90.000009
 51
180.000005
  0
ARC
  8
CSLAYER1
  6
CONTINUOUS
 62
     6
 10
357.259334
 20
161.936690
 40
0.685000
 50
0.000000
 51
90.000009
  0
CIRCLE
  8
CSLAYER1
  6
CONTINUOUS
 62
     6
 10
358.629329
 20
163.306685
 40
5.500000
  0
LINE
  8
CSLAYER1
  6
CENTER
 62
     3
 10
353.649471
 20
168.286513
 11
363.609125
 21
158.326874
  0
ARC
  8
CSLAYER1
  6
CENTER
 62
     3
 10
375.599849
 20
146.336150
 40
24.000000
 50
294.927254
 51
335.072670
  0
CIRCLE
  8
CSLAYER1
  6
CONTINUOUS
 62
     6
 10
392.570369
 20
129.365584
 40
4.500000
  0
ARC
  8
CSLAYER1
  6
CONTINUOUS
 62
     6
 10
392.570369
 20
129.365584
 40
2.397500
 50
73.398434
 51
106.601595
  0
ARC
  8
CSLAYER1
  6
CONTINUOUS
 62
     6
 10
392.570369
 20
129.365584
 40
2.397500
 50
-16.601576
 51
16.601586
  0
ARC
  8
CSLAYER1
  6
CONTINUOUS
 62
     6
 10
392.570369
 20
129.365584
 40
2.397500
 50
253.398442
 51
286.601576
  0
ARC
  8
CSLAYER1
  6
CONTINUOUS
 62
     6
 10
392.570369
 20
129.365584
 40
2.397500
 50
163.398416
 51
196.601604
  0
LINE
  8
CSLAYER1
  6
CONTINUOUS
 62
     6
 10
393.255367
 20
127.995589
 11
393.255367
 21
127.068023
  0
LINE
  8
CSLAYER1
  6
CONTINUOUS
 62
     6
 10
393.255367
 20
130.735579
 11
393.255367
 21
131.663146
  0
LINE
  8
CSLAYER1
  6
CONTINUOUS
 62
     6
 10
391.885372
 20
127.995589
 11
391.885372
 21
127.068023
  0
LINE
  8
CSLAYER1
  6
CONTINUOUS
 62
     6
 10
391.885372
 20
130.735579
 11
391.885372
 21
131.663146
  0
LINE
  8
CSLAYER1
  6
CONTINUOUS
 62
     6
 10
393.940364
 20
130.050582
 11
394.867916
 21
130.050582
  0
LINE
  8
CSLAYER1
  6
CONTINUOUS
 62
     6
 10
391.200374
 20
130.050582
 11
390.272823
 21
130.050582
  0
LINE
  8
CSLAYER1
  6
CONTINUOUS
 62
     6
 10
393.940364
 20
128.680587
 11
394.867916
 21
128.680587
  0
LINE
  8
CSLAYER1
  6
CONTINUOUS
 62
     6
 10
391.200374
 20
128.680587
 11
390.272823
 21
128.680587
  0
ARC
  8
CSLAYER1
  6
CONTINUOUS
 62
     6
 10
393.940364
 20
127.995589
 40
0.685000
 50
90.000001
 51
179.942691
  0
ARC
  8
CSLAYER1
  6
CONTINUOUS
 62
     6
 10
391.200374
 20
127.995589
 40
0.685000
 50
0.000005
 51
90.000001
  0
ARC
  8
CSLAYER1
  6
CONTINUOUS
 62
     6
 10
391.200374
 20
130.735579
 40
0.685000
 50
-89.999991
 51
0.000005
  0
ARC
  8
CSLAYER1
  6
CONTINUOUS
 62
     6
 10
393.940364
 20
130.735579
 40
0.685000
 50
180.000000
 51
270.000009
  0
CIRCLE
  8
CSLAYER1
  6
CONTINUOUS
 62
     6
 10
392.570369
 20
129.365584
 40
5.500000
  0
LINE
  8
CSLAYER1
  6
CENTER
 62
     3
 10
397.550228
 20
124.385756
 11
387.590574
 21
134.345396
  0
CIRCLE
  8
CSLAYER1
  6
CONTINUOUS
 62
     6
 10
381.226361
 20
136.562980
 40
1.181817
  0
ARC
  8
CSLAYER1
  6
CONTINUOUS
 62
     6
 10
381.226361
 20
136.562980
 40
2.532799
 50
50.235874
 51
203.481567
  0
LINE
  8
CSLAYER1
  6
CONTINUOUS
 62
     6
 10
378.903300
 20
135.553793
 11
379.408010
 21
133.906450
  0
CIRCLE
  8
CSLAYER1
  6
CONTINUOUS
 62
     6
 10
369.973337
 20
136.562980
 40
1.181817
  0
ARC
  8
CSLAYER1
  6
CONTINUOUS
 62
     6
 10
369.973337
 20
136.562980
 40
2.532799
 50
-23.481552
 51
129.764124
  0
LINE
  8
CSLAYER1
  6
CONTINUOUS
 62
     6
 10
372.296399
 20
135.553793
 11
371.791688
 21
133.906450
  0
ARC
  8
CSLAYER1
  6
CONTINUOUS
 62
     6
 10
375.599849
 20
145.648784
 40
11.323712
 50
-37.903087
 51
217.903071
  0
ARC
  8
CSLAYER1
  6
CONTINUOUS
 62
     6
 10
383.602332
 20
139.418362
 40
1.181817
 50
230.236306
 51
322.096613
  0
ARC
  8
CSLAYER1
  6
CONTINUOUS
 62
     6
 10
367.597366
 20
139.418362
 40
1.181817
 50
217.903402
 51
309.763723
  0
LINE
  8
CSLAYER1
  6
CENTER
 62
     3
 10
96.599849
 20
49.989024
 11
332.099849
 21
49.989024
  0
LINE
  8
CSLAYER1
  6
CONTINUOUS
 62
     6
 10
302.599849
 20
81.989024
 11
302.599849
 21
17.989024
  0
LINE
  8
CSLAYER1
  6
CONTINUOUS
 62
     6
 10
304.599849
 20
64.989024
 11
304.599849
 21
34.989024
  0
LINE
  8
CSLAYER1
  6
CONTINUOUS
 62
     6
 10
329.099849
 20
53.989024
 11
329.099849
 21
45.989024
  0
LINE
  8
CSLAYER1
  6
CONTINUOUS
 62
     6
 10
210.599849
 20
80.989024
 11
210.599849
 21
18.989024
  0
LINE
  8
CSLAYER1
  6
CONTINUOUS
 62
     6
 10
304.599849
 20
53.989024
 11
329.099849
 21
53.989024
  0
LINE
  8
CSLAYER1
  6
CONTINUOUS
 62
     6
 10
304.599849
 20
45.989024
 11
329.099849
 21
45.989024
  0
LINE
  8
CSLAYER1
  6
CONTINUOUS
 62
     6
 10
293.599849
 20
79.989024
 11
292.599849
 21
79.989024
  0
LINE
  8
CSLAYER1
  6
CONTINUOUS
 62
     6
 10
292.599849
 20
19.989024
 11
293.599849
 21
19.989024
  0
LINE
  8
CSLAYER1
  6
CONTINUOUS
 62
     6
 10
302.599849
 20
64.989024
 11
304.599849
 21
64.989024
  0
LINE
  8
CSLAYER1
  6
CONTINUOUS
 62
     6
 10
302.599849
 20
34.989024
 11
304.599849
 21
34.989024
  0
LINE
  8
CSLAYER1
  6
CONTINUOUS
 62
     6
 10
210.599849
 20
18.989024
 11
292.599849
 21
18.989024
  0
LINE
  8
CSLAYER1
  6
CONTINUOUS
 62
     6
 10
210.599849
 20
80.989024
 11
292.599849
 21
80.989024
  0
LINE
  8
CSLAYER1
  6
CONTINUOUS
 62
     6
 10
293.599849
 20
79.989024
 11
293.599849
 21
19.989024
  0
LINE
  8
CSLAYER1
  6
CONTINUOUS
 62
     6
 10
302.599849
 20
81.989024
 11
295.599849
 21
81.989024
  0
LINE
  8
CSLAYER1
  6
CONTINUOUS
 62
     6
 10
292.599849
 20
80.989024
 11
292.599849
 21
18.989024
  0
LINE
  8
CSLAYER1
  6
CONTINUOUS
 62
     6
 10
302.599849
 20
17.989024
 11
295.599849
 21
17.989024
  0
ARC
  8
CSLAYER1
  6
CONTINUOUS
 62
     6
 10
295.599849
 20
79.989024
 40
2.000000
 50
90.000000
 51
180.000000
  0
ARC
  8
CSLAYER1
  6
CONTINUOUS
 62
     6
 10
295.599849
 20
19.989024
 40
2.000000
 50
180.000000
 51
270.000000
  0
LINE
  8
CSLAYER1
  6
CENTER
 62
     3
 10
290.599849
 20
23.989020
 11
304.599849
 21
23.989020
  0
LINE
  8
CSLAYER1
  6
CENTER
 62
     3
 10
290.599856
 20
75.989030
 11
304.599856
 21
75.989027
  0
LINE
  8
CSLAYER1
  6
CONTINUOUS
 62
     6
 10
292.599849
 20
177.336139
 11
292.599849
 21
115.336139
  0
LINE
  8
CSLAYER1
  6
CONTINUOUS
 62
     6
 10
210.599849
 20
177.336139
 11
210.599849
 21
115.336139
  0
LINE
  8
CSLAYER1
  6
CENTER
 62
     3
 10
199.599849
 20
159.336139
 11
199.599849
 21
99.304531
  0
CIRCLE
  8
CSLAYER1
  6
CONTINUOUS
 62
     6
 10
199.599849
 20
146.336139
 40
8.000000
  0
CIRCLE
  8
CSLAYER1
  6
CONTINUOUS
 62
     6
 10
199.599849
 20
146.336139
 40
6.000000
  0
CIRCLE
  8
CSLAYER1
  6
CONTINUOUS
 62
     3
 10
199.599849
 20
146.336139
 40
5.500000
  0
LINE
  8
CSLAYER1
  6
CONTINUOUS
 62
     6
 10
202.349849
 20
147.136142
 11
196.849849
 21
147.136142
  0
LINE
  8
CSLAYER1
  6
CONTINUOUS
 62
     6
 10
202.349849
 20
145.536136
 11
196.849849
 21
145.536136
  0
LINE
  8
CSLAYER1
  6
CONTINUOUS
 62
     6
 10
196.849849
 20
147.136142
 11
196.849849
 21
145.536136
  0
LINE
  8
CSLAYER1
  6
CONTINUOUS
 62
     6
 10
202.349849
 20
147.136142
 11
202.349849
 21
145.536136
  0
ARC
  8
CSLAYER1
  6
CONTINUOUS
 62
     6
 10
184.941005
 20
107.900486
 40
15.758816
 50
332.536202
 51
359.942691
  0
ARC
  8
CSLAYER1
  6
CONTINUOUS
 62
     6
 10
184.941005
 20
107.900486
 40
13.558834
 50
332.536202
 51
359.942691
  0
ARC
  8
CSLAYER1
  6
CONTINUOUS
 62
     6
 10
200.149837
 20
106.947895
 40
1.099999
 50
60.000350
 51
120.000345
  0
ARC
  8
CSLAYER1
  6
CONTINUOUS
 62
     6
 10
199.049839
 20
106.947879
 40
1.099999
 50
60.000350
 51
120.000345
  0
ARC
  8
CSLAYER1
  6
CONTINUOUS
 62
     6
 10
199.049831
 20
108.853138
 40
1.099999
 50
240.000362
 51
300.000350
  0
LINE
  8
CSLAYER1
  6
CONTINUOUS
 62
     6
 10
197.629406
 20
101.305530
 11
196.012249
 21
98.367458
  0
LINE
  8
CSLAYER1
  6
CONTINUOUS
 62
     6
 10
198.118328
 20
101.051395
 11
196.541546
 21
98.043979
  0
LINE
  8
CSLAYER1
  6
CONTINUOUS
 62
     6
 10
198.516460
 20
100.844440
 11
197.114971
 21
97.764637
  0
LINE
  8
CSLAYER1
  6
CONTINUOUS
 62
     6
 10
196.971782
 20
101.647327
 11
198.923839
 21
100.632709
  0
ARC
  8
CSLAYER1
  6
CONTINUOUS
 62
     6
 10
214.258693
 20
107.900486
 40
15.758816
 50
202.422068
 51
207.463868
  0
ARC
  8
CSLAYER1
  6
CONTINUOUS
 62
     6
 10
214.258693
 20
107.900486
 40
13.558834
 50
179.999978
 51
207.463868
  0
LINE
  8
CSLAYER1
  6
CONTINUOUS
 62
     6
 10
201.570293
 20
101.305500
 11
203.187465
 21
98.367443
  0
LINE
  8
CSLAYER1
  6
CONTINUOUS
 62
     6
 10
201.081371
 20
101.051380
 11
202.658153
 21
98.043979
  0
LINE
  8
CSLAYER1
  6
CONTINUOUS
 62
     6
 10
200.683239
 20
100.844440
 11
202.084743
 21
97.764621
  0
LINE
  8
CSLAYER1
  6
CONTINUOUS
 62
     6
 10
202.227916
 20
101.647312
 11
200.275859
 21
100.632694
  0
ARC
  8
CSLAYER1
  6
CONTINUOUS
 62
     6
 10
199.049862
 20
111.765354
 40
1.100006
 50
240.000007
 51
299.999995
  0
ARC
  8
CSLAYER1
  6
CONTINUOUS
 62
     6
 10
200.149868
 20
111.765354
 40
1.100006
 50
240.000007
 51
299.999995
  0
ARC
  8
CSLAYER1
  6
CONTINUOUS
 62
     6
 10
200.149868
 20
109.860080
 40
1.100006
 50
60.000002
 51
120.000003
  0
LINE
  8
CSLAYER1
  6
CONTINUOUS
 62
     6
 10
200.699855
 20
116.508945
 11
200.699855
 21
110.812717
  0
LINE
  8
CSLAYER1
  6
CONTINUOUS
 62
     6
 10
198.499859
 20
116.547352
 11
198.499859
 21
110.812717
  0
LINE
  8
CSLAYER1
  6
CONTINUOUS
 62
     6
 10
292.599849
 20
177.336139
 11
210.599849
 21
177.336139
  0
LINE
  8
CSLAYER1
  6
CONTINUOUS
 62
     6
 10
292.599849
 20
115.336139
 11
210.599849
 21
115.336139
  0
LINE
  8
CSLAYER1
  6
CENTER
 62
     3
 10
96.599866
 20
146.336144
 11
332.099859
 21
146.336125
  0
LINE
  8
CSLAYER1
  6
CONTINUOUS
 62
     3
 10
240.099865
 20
177.336139
 11
240.099865
 21
162.836109
  0
LINE
  8
CSLAYER1
  6
CONTINUOUS
 62
     3
 10
241.099865
 20
161.836109
 11
277.099849
 21
161.836109
  0
ARC
  8
CSLAYER1
  6
CONTINUOUS
 62
     3
 10
241.099865
 20
162.836109
 40
1.000000
 50
180.000005
 51
270.000001
  0
TEXT
  8
CSLAYER1
 62
     3
 10
256.637573
 20
174.836121
 40
3.500000
 41
1.125000
  1
N P
 50
270.000000
 51
10.000000
  7
JX_FONT
 72
     5
 11
256.637573
 21
164.336121
  0
LINE
  8
CSLAYER1
  6
CONTINUOUS
 62
     3
 10
278.099849
 20
177.336139
 11
278.099849
 21
162.836109
  0
ARC
  8
CSLAYER1
  6
CONTINUOUS
 62
     3
 10
277.099849
 20
162.836109
 40
1.000000
 50
269.999999
 51
359.999995
  0
LINE
  8
CSLAYER1
  6
CONTINUOUS
 62
     6
 10
302.599849
 20
178.336129
 11
302.599849
 21
114.336129
  0
LINE
  8
CSLAYER1
  6
CONTINUOUS
 62
     6
 10
304.599849
 20
161.336129
 11
304.599849
 21
131.336129
  0
LINE
  8
CSLAYER1
  6
CONTINUOUS
 62
     6
 10
329.099849
 20
150.336129
 11
329.099849
 21
142.336129
  0
LINE
  8
CSLAYER1
  6
CONTINUOUS
 62
     6
 10
304.599849
 20
150.336129
 11
329.099849
 21
150.336129
  0
LINE
  8
CSLAYER1
  6
CONTINUOUS
 62
     6
 10
304.599849
 20
142.336129
 11
329.099849
 21
142.336129
  0
LINE
  8
CSLAYER1
  6
CONTINUOUS
 62
     6
 10
293.599849
 20
176.336129
 11
292.599849
 21
176.336129
  0
LINE
  8
CSLAYER1
  6
CONTINUOUS
 62
     6
 10
292.599849
 20
116.336129
 11
293.599849
 21
116.336129
  0
LINE
  8
CSLAYER1
  6
CONTINUOUS
 62
     6
 10
302.599849
 20
161.336129
 11
304.599849
 21
161.336129
  0
LINE
  8
CSLAYER1
  6
CONTINUOUS
 62
     6
 10
302.599849
 20
131.336129
 11
304.599849
 21
131.336129
  0
LINE
  8
CSLAYER1
  6
CONTINUOUS
 62
     6
 10
293.599849
 20
176.336129
 11
293.599849
 21
116.336129
  0
LINE
  8
CSLAYER1
  6
CONTINUOUS
 62
     6
 10
302.599849
 20
178.336129
 11
295.599849
 21
178.336129
  0
LINE
  8
CSLAYER1
  6
CONTINUOUS
 62
     6
 10
302.599849
 20
114.336129
 11
295.599849
 21
114.336129
  0
ARC
  8
CSLAYER1
  6
CONTINUOUS
 62
     6
 10
295.599849
 20
176.336129
 40
2.000000
 50
90.000000
 51
180.000000
  0
ARC
  8
CSLAYER1
  6
CONTINUOUS
 62
     6
 10
295.599849
 20
116.336129
 40
2.000000
 50
180.000000
 51
270.000000
  0
LINE
  8
CSLAYER1
  6
CENTER
 62
     3
 10
290.599849
 20
120.336126
 11
304.599849
 21
120.336126
  0
LINE
  8
CSLAYER1
  6
CENTER
 62
     3
 10
290.599856
 20
172.336136
 11
304.599856
 21
172.336132
  0
LINE
  8
CSLAYER1
  6
CONTINUOUS
 62
     6
 10
182.599849
 20
175.830585
 11
210.599849
 21
176.336135
  0
LINE
  8
CSLAYER1
  6
CONTINUOUS
 62
     6
 10
182.599849
 20
116.841774
 11
210.599849
 21
116.336135
  0
LINE
  8
CSLAYER1
  6
CONTINUOUS
 62
     6
 10
79.099834
 20
120.336119
 11
79.099834
 21
172.336058
  0
LINE
  8
CSLAYER1
  6
CONTINUOUS
 62
     6
 10
21.099834
 20
114.336119
 11
36.419779
 21
114.336119
  0
ARC
  8
CSLAYER1
  6
CONTINUOUS
 62
     6
 10
73.099834
 20
120.336119
 40
6.000000
 50
-90.000000
 51
0.000003
  0
LINE
  8
CSLAYER1
  6
CONTINUOUS
 62
     6
 10
15.099834
 20
120.336119
 11
15.099834
 21
172.336058
  0
LINE
  8
CSLAYER1
  6
CONTINUOUS
 62
     6
 10
21.099834
 20
178.336058
 11
73.099834
 21
178.336058
  0
ARC
  8
CSLAYER1
  6
CONTINUOUS
 62
     6
 10
73.099834
 20
172.336119
 40
6.000000
 50
0.000000
 51
90.000003
  0
ARC
  8
CSLAYER1
  6
CONTINUOUS
 62
     6
 10
21.099834
 20
172.336119
 40
6.000000
 50
90.000000
 51
180.000003
  0
ARC
  8
CSLAYER1
  6
CONTINUOUS
 62
     6
 10
21.099834
 20
120.336119
 40
6.000000
 50
179.999997
 51
270.000000
  0
LINE
  8
CSLAYER1
  6
CENTER
 62
     3
 10
21.099834
 20
115.396849
 11
21.099834
 21
125.336119
  0
LINE
  8
CSLAYER1
  6
CENTER
 62
     3
 10
26.099834
 20
120.336119
 11
16.099834
 21
120.336119
  0
CIRCLE
  8
CSLAYER1
  6
CONTINUOUS
 62
     6
 10
21.099834
 20
120.336119
 40
2.250000
  0
LINE
  8
CSLAYER1
  6
CENTER
 62
     3
 10
21.099834
 20
177.275389
 11
21.099834
 21
167.336119
  0
LINE
  8
CSLAYER1
  6
CENTER
 62
     3
 10
26.099834
 20
172.336119
 11
16.099834
 21
172.336119
  0
CIRCLE
  8
CSLAYER1
  6
CONTINUOUS
 62
     6
 10
21.099834
 20
172.336119
 40
2.250000
  0
LINE
  8
CSLAYER1
  6
CENTER
 62
     3
 10
78.039104
 20
172.336119
 11
68.099834
 21
172.336119
  0
LINE
  8
CSLAYER1
  6
CENTER
 62
     3
 10
73.099834
 20
167.336119
 11
73.099834
 21
177.336119
  0
CIRCLE
  8
CSLAYER1
  6
CONTINUOUS
 62
     6
 10
73.099834
 20
172.336119
 40
2.250000
  0
LINE
  8
CSLAYER1
  6
CENTER
 62
     3
 10
73.099834
 20
115.396849
 11
73.099834
 21
125.336119
  0
LINE
  8
CSLAYER1
  6
CENTER
 62
     3
 10
68.099834
 20
120.336119
 11
78.099834
 21
120.336119
  0
CIRCLE
  8
CSLAYER1
  6
CONTINUOUS
 62
     6
 10
73.099834
 20
120.336119
 40
2.250000
  0
LINE
  8
CSLAYER1
  6
CENTER
 62
     3
 10
66.191717
 20
127.244236
 11
58.374599
 21
135.061361
  0
LINE
  8
CSLAYER1
  6
CONTINUOUS
 62
     3
 10
60.849834
 20
144.570898
 11
60.849834
 21
146.086119
  0
LINE
  8
CSLAYER1
  6
CONTINUOUS
 62
     3
 10
60.849834
 20
146.086119
 11
59.349834
 21
146.086119
  0
ARC
  8
CSLAYER1
  6
CONTINUOUS
 62
     3
 10
59.349834
 20
146.336119
 40
0.250000
 50
101.471877
 51
270.000021
  0
LINE
  8
CSLAYER1
  6
CONTINUOUS
 62
     3
 10
59.300113
 20
146.586119
 11
60.849834
 21
146.586119
  0
LINE
  8
CSLAYER1
  6
CONTINUOUS
 62
     3
 10
60.849834
 20
146.586119
 11
60.849834
 21
148.076086
  0
ARC
  8
CSLAYER1
  6
CONTINUOUS
 62
     3
 10
61.099834
 20
148.086119
 40
0.250000
 50
0.000020
 51
182.300752
  0
LINE
  8
CSLAYER1
  6
CONTINUOUS
 62
     3
 10
61.349834
 20
148.086119
 11
61.349834
 21
146.586119
  0
LINE
  8
CSLAYER1
  6
CONTINUOUS
 62
     3
 10
61.349834
 20
146.586119
 11
62.849834
 21
146.586119
  0
ARC
  8
CSLAYER1
  6
CONTINUOUS
 62
     3
 10
62.849834
 20
146.336119
 40
0.250000
 50
-90.000019
 51
90.000001
  0
LINE
  8
CSLAYER1
  6
CONTINUOUS
 62
     3
 10
62.849834
 20
146.086119
 11
61.349834
 21
146.086119
  0
LINE
  8
CSLAYER1
  6
CONTINUOUS
 62
     3
 10
61.349834
 20
146.086119
 11
61.349834
 21
144.586119
  0
ARC
  8
CSLAYER1
  6
CONTINUOUS
 62
     3
 10
61.099834
 20
144.586119
 40
0.250000
 50
-176.508968
 51
0.000020
  0
ARC
  8
CSLAYER1
  6
CENTER
 62
     3
 10
47.099834
 20
146.336119
 40
14.000000
 50
20.397443
 51
69.602557
  0
LINE
  8
CSLAYER1
  6
CENTER
 62
     3
 10
66.191717
 20
165.428002
 11
47.099834
 21
146.336119
  0
LINE
  8
CSLAYER1
  6
CENTER
 62
     3
 10
47.099834
 20
146.336119
 11
28.007947
 21
127.244240
  0
ARC
  8
CSLAYER1
  6
CENTER
 62
     3
 10
47.099834
 20
146.336119
 40
22.000000
 50
212.622854
 51
237.377146
  0
LINE
  8
CSLAYER1
  6
CENTER
 62
     3
 10
12.099834
 20
146.336119
 11
82.099834
 21
146.336119
  0
LINE
  8
CSLAYER1
  6
CENTER
 62
     3
 10
28.007947
 20
165.427998
 11
35.234828
 21
158.201132
  0
LINE
  8
CSLAYER1
  6
CONTINUOUS
 62
     3
 10
34.849834
 20
146.086119
 11
31.349834
 21
146.086119
  0
ARC
  8
CSLAYER1
  6
CONTINUOUS
 62
     3
 10
31.349834
 20
146.336119
 40
0.250000
 50
90.000001
 51
270.000021
  0
LINE
  8
CSLAYER1
  6
CONTINUOUS
 62
     3
 10
31.349834
 20
146.586119
 11
34.849834
 21
146.586119
  0
ARC
  8
CSLAYER1
  6
CONTINUOUS
 62
     3
 10
34.849834
 20
146.336119
 40
0.250000
 50
-90.000019
 51
90.000001
  0
LINE
  8
CSLAYER1
  6
CENTER
 62
     3
 10
47.099834
 20
97.980078
 11
47.099834
 21
181.336119
  0
LINE
  8
CSLAYER1
  6
CONTINUOUS
 62
     6
 10
69.599834
 20
141.836119
 11
65.599834
 21
141.836119
  0
LINE
  8
CSLAYER1
  6
CONTINUOUS
 62
     6
 10
65.599834
 20
141.836119
 11
65.599834
 21
140.336119
  0
LINE
  8
CSLAYER1
  6
CONTINUOUS
 62
     6
 10
65.599834
 20
140.336119
 11
64.099826
 21
140.336119
  0
ARC
  8
CSLAYER1
  6
CONTINUOUS
 62
     6
 10
47.099834
 20
146.336119
 40
19.000000
 50
198.408504
 51
341.591516
  0
LINE
  8
CSLAYER1
  6
CONTINUOUS
 62
     6
 10
28.599834
 20
140.336119
 11
30.099849
 21
140.336119
  0
LINE
  8
CSLAYER1
  6
CONTINUOUS
 62
     6
 10
28.599834
 20
140.336119
 11
28.599834
 21
141.836119
  0
LINE
  8
CSLAYER1
  6
CONTINUOUS
 62
     6
 10
28.599834
 20
141.836119
 11
24.599834
 21
141.836119
  0
LINE
  8
CSLAYER1
  6
CONTINUOUS
 62
     6
 10
24.599834
 20
141.336119
 11
24.599834
 21
152.336119
  0
LINE
  8
CSLAYER1
  6
CONTINUOUS
 62
     6
 10
24.599834
 20
152.336119
 11
30.099849
 21
152.336119
  0
ARC
  8
CSLAYER1
  6
CONTINUOUS
 62
     6
 10
47.099834
 20
146.336119
 40
19.000000
 50
18.408466
 51
161.591536
  0
LINE
  8
CSLAYER1
  6
CONTINUOUS
 62
     6
 10
64.099826
 20
152.336119
 11
69.599834
 21
152.336119
  0
LINE
  8
CSLAYER1
  6
CONTINUOUS
 62
     6
 10
69.599834
 20
152.336119
 11
69.599834
 21
141.336119
  0
ARC
  8
CSLAYER1
  6
CONTINUOUS
 62
     6
 10
70.249828
 20
141.298719
 40
0.650002
 50
-183.291660
 51
0.000002
  0
LINE
  8
CSLAYER1
  6
CONTINUOUS
 62
     6
 10
70.899829
 20
140.586103
 11
70.899829
 21
152.086103
  0
LINE
  8
CSLAYER1
  6
CONTINUOUS
 62
     6
 10
70.899829
 20
152.086103
 11
72.099834
 21
152.086103
  0
LINE
  8
CSLAYER1
  6
CONTINUOUS
 62
     6
 10
72.099834
 20
152.086103
 11
72.099834
 21
140.586103
  0
LINE
  8
CSLAYER1
  6
CONTINUOUS
 62
     6
 10
72.099834
 20
140.586103
 11
70.899829
 21
140.586103
  0
ARC
  8
CSLAYER1
  6
CONTINUOUS
 62
     6
 10
47.099834
 20
146.336119
 40
25.000000
 50
193.297090
 51
346.702873
  0
LINE
  8
CSLAYER1
  6
CONTINUOUS
 62
     6
 10
23.299831
 20
140.586103
 11
23.299831
 21
152.086103
  0
LINE
  8
CSLAYER1
  6
CONTINUOUS
 62
     6
 10
23.299831
 20
152.086103
 11
22.099834
 21
152.086103
  0
LINE
  8
CSLAYER1
  6
CONTINUOUS
 62
     6
 10
22.099834
 20
152.086103
 11
22.099834
 21
140.586103
  0
LINE
  8
CSLAYER1
  6
CONTINUOUS
 62
     6
 10
22.099834
 20
140.586103
 11
23.299831
 21
140.586103
  0
ARC
  8
CSLAYER1
  6
CONTINUOUS
 62
     6
 10
23.949840
 20
141.298719
 40
0.650002
 50
-179.999943
 51
3.291720
  0
ARC
  8
CSLAYER1
  6
CONTINUOUS
 62
     6
 10
31.543483
 20
161.892462
 40
1.750000
 50
253.398415
 51
286.601605
  0
LINE
  8
CSLAYER1
  6
CONTINUOUS
 62
     6
 10
31.043483
 20
160.215414
 11
31.043483
 21
160.892462
  0
ARC
  8
CSLAYER1
  6
CONTINUOUS
 62
     6
 10
30.543483
 20
160.892462
 40
0.500000
 50
0.000020
 51
90.000001
  0
LINE
  8
CSLAYER1
  6
CONTINUOUS
 62
     6
 10
30.543483
 20
161.392462
 11
29.866435
 21
161.392462
  0
ARC
  8
CSLAYER1
  6
CONTINUOUS
 62
     6
 10
31.543483
 20
161.892462
 40
1.750000
 50
163.398416
 51
196.601606
  0
LINE
  8
CSLAYER1
  6
CONTINUOUS
 62
     6
 10
29.866435
 20
162.392462
 11
30.543483
 21
162.392462
  0
ARC
  8
CSLAYER1
  6
CONTINUOUS
 62
     6
 10
30.543483
 20
162.892462
 40
0.500000
 50
-90.000019
 51
0.000020
  0
LINE
  8
CSLAYER1
  6
CONTINUOUS
 62
     6
 10
31.043483
 20
162.892462
 11
31.043483
 21
163.569510
  0
ARC
  8
CSLAYER1
  6
CONTINUOUS
 62
     6
 10
31.543483
 20
161.892462
 40
1.750000
 50
73.398434
 51
106.601568
  0
LINE
  8
CSLAYER1
  6
CONTINUOUS
 62
     6
 10
32.043483
 20
163.569510
 11
32.043483
 21
162.892462
  0
ARC
  8
CSLAYER1
  6
CONTINUOUS
 62
     6
 10
32.543483
 20
162.892462
 40
0.500000
 50
180.000000
 51
269.999981
  0
LINE
  8
CSLAYER1
  6
CONTINUOUS
 62
     6
 10
32.543483
 20
162.392462
 11
33.220531
 21
162.392462
  0
ARC
  8
CSLAYER1
  6
CONTINUOUS
 62
     6
 10
31.543483
 20
161.892462
 40
1.750000
 50
-16.601547
 51
16.601587
  0
LINE
  8
CSLAYER1
  6
CONTINUOUS
 62
     6
 10
33.220531
 20
161.392462
 11
32.543483
 21
161.392462
  0
ARC
  8
CSLAYER1
  6
CONTINUOUS
 62
     6
 10
32.543483
 20
160.892462
 40
0.500000
 50
90.000001
 51
179.942687
  0
LINE
  8
CSLAYER1
  6
CONTINUOUS
 62
     6
 10
32.043483
 20
160.892462
 11
32.043483
 21
160.215414
  0
CIRCLE
  8
CSLAYER1
  6
CONTINUOUS
 62
     6
 10
31.543483
 20
161.892462
 40
2.750000
  0
LINE
  8
CSLAYER1
  6
CONTINUOUS
 62
     6
 10
67.499835
 20
134.336111
 11
67.499843
 21
141.836119
  0
LINE
  8
CSLAYER1
  6
CONTINUOUS
 62
     6
 10
66.999843
 20
141.836119
 11
66.999843
 21
134.336119
  0
LINE
  8
CSLAYER1
  6
CONTINUOUS
 62
     6
 10
66.999843
 20
134.336119
 11
67.499835
 21
134.336111
  0
LINE
  8
CSLAYER1
  6
CONTINUOUS
 62
     6
 10
27.199825
 20
141.836119
 11
27.199825
 21
134.336119
  0
LINE
  8
CSLAYER1
  6
CONTINUOUS
 62
     6
 10
27.199825
 20
134.336119
 11
26.699825
 21
134.336111
  0
LINE
  8
CSLAYER1
  6
CONTINUOUS
 62
     6
 10
26.699825
 20
134.336111
 11
26.699825
 21
141.836119
  0
ARC
  8
CSLAYER1
  6
CONTINUOUS
 62
     6
 10
23.949840
 20
151.373488
 40
0.650002
 50
-3.291680
 51
179.942687
  0
ARC
  8
CSLAYER1
  6
CONTINUOUS
 62
     6
 10
47.099834
 20
146.336119
 40
25.000000
 50
13.297052
 51
166.702950
  0
ARC
  8
CSLAYER1
  6
CONTINUOUS
 62
     6
 10
70.249828
 20
151.373488
 40
0.650002
 50
0.000020
 51
183.291682
  0
ARC
  8
CSLAYER1
  6
CONTINUOUS
 62
     6
 10
31.543483
 20
130.779768
 40
1.750000
 50
253.398415
 51
286.601605
  0
LINE
  8
CSLAYER1
  6
CONTINUOUS
 62
     6
 10
31.043483
 20
129.102720
 11
31.043483
 21
129.779768
  0
ARC
  8
CSLAYER1
  6
CONTINUOUS
 62
     6
 10
30.543483
 20
129.779768
 40
0.500000
 50
0.000020
 51
90.000001
  0
LINE
  8
CSLAYER1
  6
CONTINUOUS
 62
     6
 10
30.543483
 20
130.279768
 11
29.866435
 21
130.279768
  0
ARC
  8
CSLAYER1
  6
CONTINUOUS
 62
     6
 10
31.543483
 20
130.779768
 40
1.750000
 50
163.398416
 51
196.601606
  0
LINE
  8
CSLAYER1
  6
CONTINUOUS
 62
     6
 10
29.866435
 20
131.279768
 11
30.543483
 21
131.279768
  0
ARC
  8
CSLAYER1
  6
CONTINUOUS
 62
     6
 10
30.543483
 20
131.779768
 40
0.500000
 50
-90.000019
 51
0.000020
  0
LINE
  8
CSLAYER1
  6
CONTINUOUS
 62
     6
 10
31.043483
 20
131.779768
 11
31.043483
 21
132.456816
  0
ARC
  8
CSLAYER1
  6
CONTINUOUS
 62
     6
 10
31.543483
 20
130.779768
 40
1.750000
 50
73.398434
 51
106.601568
  0
LINE
  8
CSLAYER1
  6
CONTINUOUS
 62
     6
 10
32.043483
 20
132.456816
 11
32.043483
 21
131.779768
  0
ARC
  8
CSLAYER1
  6
CONTINUOUS
 62
     6
 10
32.543483
 20
131.779768
 40
0.500000
 50
180.000000
 51
269.999981
  0
LINE
  8
CSLAYER1
  6
CONTINUOUS
 62
     6
 10
32.543483
 20
131.279768
 11
33.220531
 21
131.279768
  0
ARC
  8
CSLAYER1
  6
CONTINUOUS
 62
     6
 10
31.543483
 20
130.779768
 40
1.750000
 50
-16.601547
 51
16.601587
  0
LINE
  8
CSLAYER1
  6
CONTINUOUS
 62
     6
 10
33.220531
 20
130.279768
 11
32.543483
 21
130.279768
  0
ARC
  8
CSLAYER1
  6
CONTINUOUS
 62
     6
 10
32.543483
 20
129.779768
 40
0.500000
 50
90.000001
 51
179.942687
  0
LINE
  8
CSLAYER1
  6
CONTINUOUS
 62
     6
 10
32.043483
 20
129.779768
 11
32.043483
 21
129.102720
  0
CIRCLE
  8
CSLAYER1
  6
CONTINUOUS
 62
     6
 10
31.543483
 20
130.779768
 40
2.750000
  0
LINE
  8
CSLAYER1
  6
CONTINUOUS
 62
     6
 10
35.523280
 20
136.936621
 11
36.200343
 21
136.936621
  0
ARC
  8
CSLAYER1
  6
CONTINUOUS
 62
     6
 10
36.200343
 20
137.436621
 40
0.500000
 50
-90.000019
 51
0.000020
  0
LINE
  8
CSLAYER1
  6
CONTINUOUS
 62
     6
 10
36.700343
 20
137.436621
 11
36.700343
 21
138.113668
  0
ARC
  8
CSLAYER1
  6
CONTINUOUS
 62
     6
 10
37.200343
 20
136.436621
 40
1.750000
 50
73.398434
 51
106.601568
  0
LINE
  8
CSLAYER1
  6
CONTINUOUS
 62
     6
 10
37.700343
 20
138.113668
 11
37.700343
 21
137.436621
  0
ARC
  8
CSLAYER1
  6
CONTINUOUS
 62
     6
 10
38.200343
 20
137.436621
 40
0.500000
 50
180.000000
 51
269.999981
  0
LINE
  8
CSLAYER1
  6
CONTINUOUS
 62
     6
 10
38.200343
 20
136.936621
 11
38.877376
 21
136.936621
  0
ARC
  8
CSLAYER1
  6
CONTINUOUS
 62
     6
 10
37.200343
 20
136.436621
 40
1.750000
 50
-16.601547
 51
16.601587
  0
LINE
  8
CSLAYER1
  6
CONTINUOUS
 62
     6
 10
38.877376
 20
135.936621
 11
38.200343
 21
135.936621
  0
ARC
  8
CSLAYER1
  6
CONTINUOUS
 62
     6
 10
38.200343
 20
135.436621
 40
0.500000
 50
90.000001
 51
179.942687
  0
LINE
  8
CSLAYER1
  6
CONTINUOUS
 62
     6
 10
37.700343
 20
135.436621
 11
37.700343
 21
134.759573
  0
ARC
  8
CSLAYER1
  6
CONTINUOUS
 62
     6
 10
37.200343
 20
136.436621
 40
1.750000
 50
253.398415
 51
286.601605
  0
LINE
  8
CSLAYER1
  6
CONTINUOUS
 62
     6
 10
36.700343
 20
134.759573
 11
36.700343
 21
135.436621
  0
ARC
  8
CSLAYER1
  6
CONTINUOUS
 62
     6
 10
36.200343
 20
135.436621
 40
0.500000
 50
0.000020
 51
90.000001
  0
LINE
  8
CSLAYER1
  6
CONTINUOUS
 62
     6
 10
36.200343
 20
135.936621
 11
35.523280
 21
135.936621
  0
ARC
  8
CSLAYER1
  6
CONTINUOUS
 62
     6
 10
37.200343
 20
136.436621
 40
1.750000
 50
163.398416
 51
196.601606
  0
ARC
  8
CSLAYER1
  6
CONTINUOUS
 62
     6
 10
37.200343
 20
136.436621
 40
3.000000
 50
-44.999971
 51
134.999992
  0
LINE
  8
CSLAYER1
  6
CONTINUOUS
 62
     6
 10
39.321651
 20
134.315298
 11
36.671260
 21
131.664892
  0
CIRCLE
  8
CSLAYER1
  6
CONTINUOUS
 62
     6
 10
37.200343
 20
136.436621
 40
2.750000
  0
LINE
  8
CSLAYER1
  6
CONTINUOUS
 62
     6
 10
35.079006
 20
138.557943
 11
32.428615
 21
135.907538
  0
LINE
  8
CSLAYER1
  6
CONTINUOUS
 62
     6
 10
49.599803
 20
143.836119
 11
42.099803
 21
146.336119
  0
LINE
  8
CSLAYER1
  6
CONTINUOUS
 62
     6
 10
42.099803
 20
146.336119
 11
44.569225
 21
146.336119
  0
LINE
  8
CSLAYER1
  6
CONTINUOUS
 62
     6
 10
44.569225
 20
146.336119
 11
44.599803
 21
148.836119
  0
LINE
  8
CSLAYER1
  6
CONTINUOUS
 62
     6
 10
44.599803
 20
148.836119
 11
52.099803
 21
146.336119
  0
LINE
  8
CSLAYER1
  6
CONTINUOUS
 62
     6
 10
52.099803
 20
146.336119
 11
49.582836
 21
146.336119
  0
LINE
  8
CSLAYER1
  6
CONTINUOUS
 62
     6
 10
49.582836
 20
146.336119
 11
49.599803
 21
143.836119
  0
ARC
  8
CSLAYER1
  6
CONTINUOUS
 62
     6
 10
56.999332
 20
156.235617
 40
1.750000
 50
163.398416
 51
196.601549
  0
LINE
  8
CSLAYER1
  6
CONTINUOUS
 62
     6
 10
55.322284
 20
156.735617
 11
55.999332
 21
156.735617
  0
ARC
  8
CSLAYER1
  6
CONTINUOUS
 62
     6
 10
55.999332
 20
157.235617
 40
0.500000
 50
-90.000019
 51
0.000020
  0
LINE
  8
CSLAYER1
  6
CONTINUOUS
 62
     6
 10
56.499332
 20
157.235617
 11
56.499332
 21
157.912664
  0
ARC
  8
CSLAYER1
  6
CONTINUOUS
 62
     6
 10
56.999332
 20
156.235617
 40
1.750000
 50
73.398434
 51
106.601568
  0
LINE
  8
CSLAYER1
  6
CONTINUOUS
 62
     6
 10
57.499332
 20
157.912664
 11
57.499332
 21
157.235617
  0
ARC
  8
CSLAYER1
  6
CONTINUOUS
 62
     6
 10
57.999332
 20
157.235617
 40
0.500000
 50
179.999982
 51
269.999964
  0
LINE
  8
CSLAYER1
  6
CONTINUOUS
 62
     6
 10
57.999332
 20
156.735617
 11
58.676380
 21
156.735617
  0
ARC
  8
CSLAYER1
  6
CONTINUOUS
 62
     6
 10
56.999332
 20
156.235617
 40
1.750000
 50
-16.601604
 51
16.601587
  0
LINE
  8
CSLAYER1
  6
CONTINUOUS
 62
     6
 10
58.676380
 20
155.735617
 11
57.999332
 21
155.735617
  0
ARC
  8
CSLAYER1
  6
CONTINUOUS
 62
     6
 10
57.999332
 20
155.235617
 40
0.500000
 50
90.000001
 51
179.942687
  0
LINE
  8
CSLAYER1
  6
CONTINUOUS
 62
     6
 10
57.499332
 20
155.235617
 11
57.499332
 21
154.558569
  0
ARC
  8
CSLAYER1
  6
CONTINUOUS
 62
     6
 10
56.999332
 20
156.235617
 40
1.750000
 50
253.398415
 51
286.601605
  0
LINE
  8
CSLAYER1
  6
CONTINUOUS
 62
     6
 10
56.499332
 20
154.558569
 11
56.499332
 21
155.235617
  0
ARC
  8
CSLAYER1
  6
CONTINUOUS
 62
     6
 10
55.999332
 20
155.235617
 40
0.500000
 50
0.000020
 51
90.000001
  0
LINE
  8
CSLAYER1
  6
CONTINUOUS
 62
     6
 10
55.999332
 20
155.735617
 11
55.322284
 21
155.735617
  0
CIRCLE
  8
CSLAYER1
  6
CONTINUOUS
 62
     6
 10
56.999332
 20
156.235617
 40
2.750000
  0
ARC
  8
CSLAYER1
  6
CONTINUOUS
 62
     6
 10
56.999332
 20
156.235617
 40
3.000000
 50
134.999992
 51
315.000012
  0
LINE
  8
CSLAYER1
  6
CONTINUOUS
 62
     6
 10
54.878009
 20
158.356939
 11
57.528415
 21
161.007345
  0
ARC
  8
CSLAYER1
  6
CONTINUOUS
 62
     6
 10
62.656185
 20
161.892469
 40
1.750000
 50
163.398416
 51
196.601606
  0
LINE
  8
CSLAYER1
  6
CONTINUOUS
 62
     6
 10
60.979137
 20
162.392469
 11
61.656185
 21
162.392469
  0
ARC
  8
CSLAYER1
  6
CONTINUOUS
 62
     6
 10
61.656185
 20
162.892469
 40
0.500000
 50
-90.000019
 51
0.000020
  0
LINE
  8
CSLAYER1
  6
CONTINUOUS
 62
     6
 10
62.156185
 20
162.892469
 11
62.156185
 21
163.569517
  0
ARC
  8
CSLAYER1
  6
CONTINUOUS
 62
     6
 10
62.656185
 20
161.892469
 40
1.750000
 50
73.398434
 51
106.601568
  0
LINE
  8
CSLAYER1
  6
CONTINUOUS
 62
     6
 10
63.156185
 20
163.569517
 11
63.156185
 21
162.892469
  0
ARC
  8
CSLAYER1
  6
CONTINUOUS
 62
     6
 10
63.656185
 20
162.892469
 40
0.500000
 50
180.000000
 51
269.999981
  0
LINE
  8
CSLAYER1
  6
CONTINUOUS
 62
     6
 10
63.656185
 20
162.392469
 11
64.333232
 21
162.392469
  0
ARC
  8
CSLAYER1
  6
CONTINUOUS
 62
     6
 10
62.656185
 20
161.892469
 40
1.750000
 50
-16.601547
 51
16.601587
  0
LINE
  8
CSLAYER1
  6
CONTINUOUS
 62
     6
 10
64.333232
 20
161.392469
 11
63.656185
 21
161.392469
  0
ARC
  8
CSLAYER1
  6
CONTINUOUS
 62
     6
 10
63.656185
 20
160.892469
 40
0.500000
 50
90.000001
 51
179.942687
  0
LINE
  8
CSLAYER1
  6
CONTINUOUS
 62
     6
 10
63.156185
 20
160.892469
 11
63.156185
 21
160.215422
  0
ARC
  8
CSLAYER1
  6
CONTINUOUS
 62
     6
 10
62.656185
 20
161.892469
 40
1.750000
 50
253.398415
 51
286.601605
  0
LINE
  8
CSLAYER1
  6
CONTINUOUS
 62
     6
 10
62.156185
 20
160.215422
 11
62.156185
 21
160.892469
  0
ARC
  8
CSLAYER1
  6
CONTINUOUS
 62
     6
 10
61.656185
 20
160.892469
 40
0.500000
 50
0.000020
 51
90.000001
  0
LINE
  8
CSLAYER1
  6
CONTINUOUS
 62
     6
 10
61.656185
 20
161.392469
 11
60.979137
 21
161.392469
  0
CIRCLE
  8
CSLAYER1
  6
CONTINUOUS
 62
     6
 10
62.656185
 20
161.892469
 40
2.750000
  0
LINE
  8
CSLAYER1
  6
CONTINUOUS
 62
     6
 10
61.771060
 20
156.764700
 11
59.120654
 21
154.114294
  0
ARC
  8
CSLAYER1
  6
CONTINUOUS
 62
     6
 10
62.656185
 20
130.779768
 40
1.750000
 50
253.398415
 51
286.601605
  0
LINE
  8
CSLAYER1
  6
CONTINUOUS
 62
     6
 10
63.156185
 20
129.102720
 11
63.156185
 21
129.779768
  0
ARC
  8
CSLAYER1
  6
CONTINUOUS
 62
     6
 10
63.656185
 20
129.779768
 40
0.500000
 50
90.000001
 51
179.942687
  0
LINE
  8
CSLAYER1
  6
CONTINUOUS
 62
     6
 10
63.656185
 20
130.279768
 11
64.333232
 21
130.279768
  0
ARC
  8
CSLAYER1
  6
CONTINUOUS
 62
     6
 10
62.656185
 20
130.779768
 40
1.750000
 50
-16.601547
 51
16.601587
  0
LINE
  8
CSLAYER1
  6
CONTINUOUS
 62
     6
 10
64.333232
 20
131.279768
 11
63.656185
 21
131.279768
  0
ARC
  8
CSLAYER1
  6
CONTINUOUS
 62
     6
 10
63.656185
 20
131.779768
 40
0.500000
 50
180.000000
 51
269.999981
  0
LINE
  8
CSLAYER1
  6
CONTINUOUS
 62
     6
 10
63.156185
 20
131.779768
 11
63.156185
 21
132.456816
  0
ARC
  8
CSLAYER1
  6
CONTINUOUS
 62
     6
 10
62.656185
 20
130.779768
 40
1.750000
 50
73.398434
 51
106.601568
  0
LINE
  8
CSLAYER1
  6
CONTINUOUS
 62
     6
 10
62.156185
 20
132.456816
 11
62.156185
 21
131.779768
  0
ARC
  8
CSLAYER1
  6
CONTINUOUS
 62
     6
 10
61.656185
 20
131.779768
 40
0.500000
 50
-90.000019
 51
0.000020
  0
LINE
  8
CSLAYER1
  6
CONTINUOUS
 62
     6
 10
61.656185
 20
131.279768
 11
60.979137
 21
131.279768
  0
ARC
  8
CSLAYER1
  6
CONTINUOUS
 62
     6
 10
62.656185
 20
130.779768
 40
1.750000
 50
163.398416
 51
196.601606
  0
LINE
  8
CSLAYER1
  6
CONTINUOUS
 62
     6
 10
60.979137
 20
130.279768
 11
61.656185
 21
130.279768
  0
ARC
  8
CSLAYER1
  6
CONTINUOUS
 62
     6
 10
61.656185
 20
129.779768
 40
0.500000
 50
0.000020
 51
90.000001
  0
LINE
  8
CSLAYER1
  6
CONTINUOUS
 62
     6
 10
62.156185
 20
129.779768
 11
62.156185
 21
129.102720
  0
CIRCLE
  8
CSLAYER1
  6
CONTINUOUS
 62
     6
 10
62.656185
 20
130.779768
 40
2.750000
  0
CIRCLE
  8
CSLAYER1
  6
CONTINUOUS
 62
     6
 10
47.099826
 20
146.336119
 40
18.000000
  0
CIRCLE
  8
CSLAYER1
  6
CONTINUOUS
 62
     6
 10
47.099803
 20
146.336119
 40
5.000000
  0
CIRCLE
  8
CSLAYER1
  6
CONTINUOUS
 62
     6
 10
47.099803
 20
146.336119
 40
5.800000
  0
ARC
  8
CSLAYER1
  6
CENTER
 62
     3
 10
47.099834
 20
146.336119
 40
14.000000
 50
200.397443
 51
249.602557
  0
ARC
  8
CSLAYER1
  6
CENTER
 62
     3
 10
47.099834
 20
146.336119
 40
22.000000
 50
302.622854
 51
327.377146
  0
ARC
  8
CSLAYER1
  6
CENTER
 62
     3
 10
47.099834
 20
146.336119
 40
22.000000
 50
32.622854
 51
57.377146
  0
ARC
  8
CSLAYER1
  6
CENTER
 62
     3
 10
47.099834
 20
146.336119
 40
22.000000
 50
122.622854
 51
147.377146
  0
LINE
  8
CSLAYER1
  6
CENTER
 62
     3
 10
199.599849
 20
38.989024
 11
199.599849
 21
60.989024
  0
LINE
  8
CSLAYER1
  6
CONTINUOUS
 62
     6
 10
182.599849
 20
79.500271
 11
210.599865
 21
79.989041
  0
LINE
  8
CSLAYER1
  6
CONTINUOUS
 62
     6
 10
182.599849
 20
20.477811
 11
210.599865
 21
19.989041
  0
ARC
  8
CSLAYER1
  6
CONTINUOUS
 62
     6
 10
199.599849
 20
51.089030
 40
1.100000
 50
-89.999999
 51
90.000019
  0
ARC
  8
CSLAYER1
  6
CONTINUOUS
 62
     6
 10
199.599849
 20
48.889018
 40
1.100000
 50
-89.999999
 51
90.000019
  0
LINE
  8
CSLAYER1
  6
CONTINUOUS
 62
     6
 10
200.699825
 20
51.089030
 11
200.699825
 21
48.889018
  0
ARC
  8
CSLAYER1
  6
CONTINUOUS
 62
     6
 10
199.599849
 20
49.989024
 40
8.000000
 50
-164.038007
 51
163.614510
  0
LINE
  8
CSLAYER1
  6
CONTINUOUS
 62
     6
 10
182.599849
 20
19.989025
 11
182.599849
 21
79.989025
  0
LINE
  8
CSLAYER1
  6
CONTINUOUS
 62
     6
 10
148.599849
 20
19.989025
 11
148.599849
 21
79.989025
  0
LINE
  8
CSLAYER1
  6
CONTINUOUS
 62
     6
 10
141.599849
 20
79.989025
 11
141.599849
 21
19.989025
  0
LINE
  8
CSLAYER1
  6
CONTINUOUS
 62
     6
 10
141.599849
 20
79.989025
 11
182.599849
 21
79.989025
  0
LINE
  8
CSLAYER1
  6
CONTINUOUS
 62
     6
 10
141.599849
 20
19.989025
 11
182.599849
 21
19.989025
  0
ARC
  8
CSLAYER1
  6
CONTINUOUS
 62
     6
 10
193.164241
 20
65.747874
 40
15.758816
 50
242.536193
 51
270.000110
  0
ARC
  8
CSLAYER1
  6
CONTINUOUS
 62
     6
 10
193.164241
 20
65.747874
 40
13.558834
 50
242.536193
 51
270.000083
  0
ARC
  8
CSLAYER1
  6
CONTINUOUS
 62
     6
 10
192.211620
 20
50.539058
 40
1.099999
 50
-29.999656
 51
30.000332
  0
ARC
  8
CSLAYER1
  6
CONTINUOUS
 62
     6
 10
192.211605
 20
51.639048
 40
1.099999
 50
-29.999656
 51
30.000332
  0
ARC
  8
CSLAYER1
  6
CONTINUOUS
 62
     6
 10
194.116863
 20
51.639064
 40
1.099999
 50
150.000353
 51
210.000354
  0
LINE
  8
CSLAYER1
  6
CONTINUOUS
 62
     6
 10
184.166774
 20
54.381846
 11
186.569271
 21
53.059459
  0
LINE
  8
CSLAYER1
  6
CONTINUOUS
 62
     6
 10
183.885128
 20
53.844615
 11
186.315120
 21
52.570567
  0
LINE
  8
CSLAYER1
  6
CONTINUOUS
 62
     6
 10
183.636104
 20
53.297374
 11
186.108150
 21
52.172435
  0
LINE
  8
CSLAYER1
  6
CONTINUOUS
 62
     6
 10
186.911068
 20
53.717112
 11
185.896419
 21
51.765025
  0
ARC
  8
CSLAYER1
  6
CONTINUOUS
 62
     6
 10
197.029049
 20
51.639003
 40
1.100006
 50
149.999997
 51
209.999999
  0
ARC
  8
CSLAYER1
  6
CONTINUOUS
 62
     6
 10
197.029049
 20
50.538996
 40
1.100006
 50
149.999997
 51
209.999999
  0
ARC
  8
CSLAYER1
  6
CONTINUOUS
 62
     6
 10
195.123775
 20
50.538996
 40
1.100006
 50
-30.000011
 51
29.999977
  0
ARC
  8
CSLAYER1
  6
CONTINUOUS
 62
     6
 10
193.164241
 20
34.230174
 40
15.758816
 50
89.999900
 51
117.463817
  0
ARC
  8
CSLAYER1
  6
CONTINUOUS
 62
     6
 10
193.164241
 20
34.230174
 40
13.558834
 50
89.999927
 51
117.463817
  0
ARC
  8
CSLAYER1
  6
CONTINUOUS
 62
     6
 10
192.211605
 20
48.339000
 40
1.099999
 50
-30.000346
 51
29.999656
  0
ARC
  8
CSLAYER1
  6
CONTINUOUS
 62
     6
 10
192.211620
 20
49.438990
 40
1.099999
 50
-30.000346
 51
29.999656
  0
ARC
  8
CSLAYER1
  6
CONTINUOUS
 62
     6
 10
194.116878
 20
49.438975
 40
1.099999
 50
149.999656
 51
209.999658
  0
LINE
  8
CSLAYER1
  6
CONTINUOUS
 62
     6
 10
184.362606
 20
45.703990
 11
186.569271
 21
46.918589
  0
LINE
  8
CSLAYER1
  6
CONTINUOUS
 62
     6
 10
184.072200
 20
46.231547
 11
186.315120
 21
47.407481
  0
LINE
  8
CSLAYER1
  6
CONTINUOUS
 62
     6
 10
183.798092
 20
46.754405
 11
186.108150
 21
47.805613
  0
LINE
  8
CSLAYER1
  6
CONTINUOUS
 62
     6
 10
186.911068
 20
46.260936
 11
185.896419
 21
48.213023
  0
ARC
  8
CSLAYER1
  6
CONTINUOUS
 62
     6
 10
197.029049
 20
49.439051
 40
1.100006
 50
149.999997
 51
209.999999
  0
ARC
  8
CSLAYER1
  6
CONTINUOUS
 62
     6
 10
197.029049
 20
48.339045
 40
1.100006
 50
149.999997
 51
209.999999
  0
ARC
  8
CSLAYER1
  6
CONTINUOUS
 62
     6
 10
195.123775
 20
48.339045
 40
1.100006
 50
-30.000011
 51
29.999977
  0
LINE
  8
CSLAYER1
  6
CONTINUOUS
 62
     6
 10
196.076412
 20
49.989024
 11
199.599849
 21
49.989024
  0
LINE
  8
CSLAYER1
  6
CONTINUOUS
 62
     6
 10
196.076412
 20
52.189036
 11
199.599849
 21
52.189036
  0
LINE
  8
CSLAYER1
  6
CONTINUOUS
 62
     6
 10
196.076412
 20
47.789012
 11
199.599849
 21
47.789012
  0
LINE
  8
CSLAYER1
  6
CENTER
 62
     3
 10
163.540462
 20
41.989025
 11
185.849849
 21
41.989025
  0
ARC
  8
CSLAYER1
  6
CONTINUOUS
 62
     6
 10
174.599849
 20
42.869030
 40
0.880000
 50
-89.999999
 51
90.000019
  0
ARC
  8
CSLAYER1
  6
CONTINUOUS
 62
     6
 10
174.599849
 20
41.109021
 40
0.880000
 50
-89.999999
 51
90.000019
  0
ARC
  8
CSLAYER1
  6
CONTINUOUS
 62
     6
 10
170.451351
 20
54.596112
 40
12.607053
 50
242.536193
 51
270.000110
  0
ARC
  8
CSLAYER1
  6
CONTINUOUS
 62
     6
 10
170.451351
 20
54.596112
 40
10.847068
 50
242.536193
 51
270.000083
  0
ARC
  8
CSLAYER1
  6
CONTINUOUS
 62
     6
 10
169.689251
 20
42.429028
 40
0.879999
 50
-29.999656
 51
30.000332
  0
ARC
  8
CSLAYER1
  6
CONTINUOUS
 62
     6
 10
169.689251
 20
43.309033
 40
0.879999
 50
-29.999656
 51
30.000332
  0
ARC
  8
CSLAYER1
  6
CONTINUOUS
 62
     6
 10
171.213451
 20
43.309033
 40
0.879999
 50
150.000353
 51
210.000354
  0
LINE
  8
CSLAYER1
  6
CONTINUOUS
 62
     6
 10
163.253383
 20
45.503277
 11
165.175380
 21
44.445385
  0
LINE
  8
CSLAYER1
  6
CONTINUOUS
 62
     6
 10
163.028072
 20
45.073498
 11
164.972072
 21
44.054242
  0
LINE
  8
CSLAYER1
  6
CONTINUOUS
 62
     6
 10
162.828853
 20
44.635693
 11
164.806514
 21
43.735730
  0
LINE
  8
CSLAYER1
  6
CONTINUOUS
 62
     6
 10
165.448818
 20
44.971478
 11
164.637111
 21
43.409832
  0
ARC
  8
CSLAYER1
  6
CONTINUOUS
 62
     6
 10
172.543224
 20
43.309033
 40
0.880005
 50
149.999997
 51
209.999999
  0
ARC
  8
CSLAYER1
  6
CONTINUOUS
 62
     6
 10
172.543224
 20
42.429028
 40
0.880005
 50
149.999997
 51
209.999999
  0
ARC
  8
CSLAYER1
  6
CONTINUOUS
 62
     6
 10
171.019024
 20
42.429028
 40
0.880005
 50
-30.000011
 51
29.999977
  0
ARC
  8
CSLAYER1
  6
CONTINUOUS
 62
     6
 10
170.451351
 20
29.381939
 40
12.607053
 50
89.999900
 51
117.463817
  0
ARC
  8
CSLAYER1
  6
CONTINUOUS
 62
     6
 10
170.451351
 20
29.381939
 40
10.847068
 50
89.999927
 51
117.463817
  0
ARC
  8
CSLAYER1
  6
CONTINUOUS
 62
     6
 10
169.689251
 20
40.669018
 40
0.879999
 50
-30.000346
 51
29.999656
  0
ARC
  8
CSLAYER1
  6
CONTINUOUS
 62
     6
 10
169.689251
 20
41.549023
 40
0.879999
 50
-30.000346
 51
29.999656
  0
ARC
  8
CSLAYER1
  6
CONTINUOUS
 62
     6
 10
171.213451
 20
41.549023
 40
0.879999
 50
149.999656
 51
209.999658
  0
LINE
  8
CSLAYER1
  6
CONTINUOUS
 62
     6
 10
163.410030
 20
38.560986
 11
165.175380
 21
39.532666
  0
LINE
  8
CSLAYER1
  6
CONTINUOUS
 62
     6
 10
163.177730
 20
38.983044
 11
164.972072
 21
39.923809
  0
LINE
  8
CSLAYER1
  6
CONTINUOUS
 62
     6
 10
162.958431
 20
39.401318
 11
164.806514
 21
40.242321
  0
LINE
  8
CSLAYER1
  6
CONTINUOUS
 62
     6
 10
165.448818
 20
39.006573
 11
164.637111
 21
40.568219
  0
ARC
  8
CSLAYER1
  6
CONTINUOUS
 62
     6
 10
172.543224
 20
41.549023
 40
0.880005
 50
149.999997
 51
209.999999
  0
ARC
  8
CSLAYER1
  6
CONTINUOUS
 62
     6
 10
172.543224
 20
40.669018
 40
0.880005
 50
149.999997
 51
209.999999
  0
ARC
  8
CSLAYER1
  6
CONTINUOUS
 62
     6
 10
171.019024
 20
40.669018
 40
0.880005
 50
-30.000011
 51
29.999977
  0
LINE
  8
CSLAYER1
  6
CONTINUOUS
 62
     6
 10
171.781124
 20
41.989025
 11
174.599849
 21
41.989025
  0
LINE
  8
CSLAYER1
  6
CONTINUOUS
 62
     6
 10
171.781124
 20
43.749035
 11
174.599849
 21
43.749035
  0
LINE
  8
CSLAYER1
  6
CONTINUOUS
 62
     6
 10
171.781124
 20
40.229016
 11
174.599849
 21
40.229016
  0
LINE
  8
CSLAYER1
  6
CENTER
 62
     3
 10
174.599849
 20
49.208599
 11
174.599849
 21
34.600109
  0
LINE
  8
CSLAYER1
  6
CONTINUOUS
 62
     6
 10
182.599849
 20
176.336136
 11
182.599849
 21
116.336136
  0
LINE
  8
CSLAYER1
  6
CONTINUOUS
 62
     6
 10
148.599849
 20
116.336136
 11
148.599849
 21
176.336136
  0
LINE
  8
CSLAYER1
  6
CONTINUOUS
 62
     6
 10
141.599849
 20
176.336136
 11
141.599849
 21
116.336136
  0
LINE
  8
CSLAYER1
  6
CONTINUOUS
 62
     6
 10
141.599849
 20
176.336136
 11
182.599849
 21
176.336136
  0
LINE
  8
CSLAYER1
  6
CONTINUOUS
 62
     6
 10
141.599849
 20
116.336136
 11
182.599849
 21
116.336136
  0
ARC
  8
CSLAYER1
  6
CONTINUOUS
 62
     6
 10
174.599849
 20
41.989021
 40
5.250000
 50
-160.080973
 51
160.080864
  0
ARC
  8
CSLAYER1
  6
CONTINUOUS
 62
     6
 10
174.599849
 20
41.989021
 40
2.500000
 50
-135.251029
 51
135.250717
  0
ARC
  8
CSLAYER1
  6
CONTINUOUS
 62
     6
 10
174.599849
 20
41.989021
 40
5.250000
 50
179.473624
 51
180.526271
  0
LINE
  8
CSLAYER1
  6
CENTER
 62
     3
 10
174.599849
 20
122.579170
 11
174.599849
 21
101.571032
  0
LINE
  8
CSLAYER1
  6
CONTINUOUS
 62
     3
 10
175.479900
 20
118.836521
 11
175.479900
 21
118.336521
  0
ARC
  8
CSLAYER1
  6
CONTINUOUS
 62
     6
 10
162.872829
 20
108.447780
 40
12.607053
 50
332.536202
 51
359.942691
  0
ARC
  8
CSLAYER1
  6
CONTINUOUS
 62
     6
 10
162.872829
 20
108.447780
 40
10.847068
 50
332.536202
 51
359.942691
  0
ARC
  8
CSLAYER1
  6
CONTINUOUS
 62
     6
 10
175.039882
 20
107.685710
 40
0.879999
 50
60.000350
 51
120.000345
  0
ARC
  8
CSLAYER1
  6
CONTINUOUS
 62
     6
 10
174.159877
 20
107.685710
 40
0.879999
 50
60.000350
 51
120.000345
  0
ARC
  8
CSLAYER1
  6
CONTINUOUS
 62
     6
 10
174.159877
 20
109.209910
 40
0.879999
 50
240.000362
 51
300.000350
  0
LINE
  8
CSLAYER1
  6
CONTINUOUS
 62
     6
 10
173.023525
 20
103.171824
 11
171.729793
 21
100.821361
  0
LINE
  8
CSLAYER1
  6
CONTINUOUS
 62
     6
 10
173.414669
 20
102.968516
 11
172.153240
 21
100.562587
  0
LINE
  8
CSLAYER1
  6
CONTINUOUS
 62
     6
 10
173.733181
 20
102.802958
 11
172.611980
 21
100.339122
  0
LINE
  8
CSLAYER1
  6
CONTINUOUS
 62
     6
 10
172.497432
 20
103.445262
 11
174.059078
 21
102.633571
  0
ARC
  8
CSLAYER1
  6
CONTINUOUS
 62
     6
 10
186.326961
 20
108.447780
 40
12.607053
 50
201.534171
 51
207.463868
  0
ARC
  8
CSLAYER1
  6
CONTINUOUS
 62
     6
 10
186.326961
 20
108.447780
 40
10.847068
 50
179.999978
 51
207.463868
  0
LINE
  8
CSLAYER1
  6
CONTINUOUS
 62
     6
 10
176.176235
 20
103.171809
 11
177.469997
 21
100.821361
  0
LINE
  8
CSLAYER1
  6
CONTINUOUS
 62
     6
 10
175.785091
 20
102.968516
 11
177.046535
 21
100.562587
  0
LINE
  8
CSLAYER1
  6
CONTINUOUS
 62
     6
 10
175.466594
 20
102.802958
 11
176.587810
 21
100.339106
  0
LINE
  8
CSLAYER1
  6
CONTINUOUS
 62
     6
 10
176.702327
 20
103.445262
 11
175.140682
 21
102.633555
  0
ARC
  8
CSLAYER1
  6
CONTINUOUS
 62
     6
 10
174.159893
 20
111.539683
 40
0.880005
 50
240.000007
 51
299.999995
  0
ARC
  8
CSLAYER1
  6
CONTINUOUS
 62
     6
 10
175.039898
 20
111.539683
 40
0.880005
 50
240.000007
 51
299.999995
  0
ARC
  8
CSLAYER1
  6
CONTINUOUS
 62
     6
 10
175.039898
 20
110.015483
 40
0.880005
 50
60.000002
 51
120.000003
  0
LINE
  8
CSLAYER1
  6
CENTER
 62
     3
 10
166.349849
 20
117.335365
 11
182.849849
 21
117.335365
  0
POLYLINE
  8
CSLAYER1
  6
CONTINUOUS
 62
     3
 66
     1
 10
0.0
 20
0.0
 30
0.0
  0
VERTEX
  8
CSLAYER1
  6
CONTINUOUS
 62
     3
 10
179.849849
 20
117.335362
 30
0.0
  0
VERTEX
  8
CSLAYER1
  6
CONTINUOUS
 62
     3
 10
179.829872
 20
117.553251
 30
0.0
  0
VERTEX
  8
CSLAYER1
  6
CONTINUOUS
 62
     3
 10
179.770091
 20
117.769482
 30
0.0
  0
VERTEX
  8
CSLAYER1
  6
CONTINUOUS
 62
     3
 10
179.735005
 20
117.855412
 30
0.0
  0
SEQEND
  0
LINE
  8
CSLAYER1
  6
CONTINUOUS
 62
     6
 10
175.479900
 20
115.856592
 11
175.479900
 21
110.777583
  0
LINE
  8
CSLAYER1
  6
CONTINUOUS
 62
     6
 10
173.719890
 20
115.856588
 11
173.719890
 21
110.777583
  0
POLYLINE
  8
CSLAYER1
  6
CONTINUOUS
 62
     3
 66
     1
 10
0.0
 20
0.0
 30
0.0
  0
VERTEX
  8
CSLAYER1
  6
CONTINUOUS
 62
     3
 10
169.626998
 20
116.854446
 30
0.0
  0
VERTEX
  8
CSLAYER1
  6
CONTINUOUS
 62
     3
 10
169.792623
 20
116.732444
 30
0.0
  0
VERTEX
  8
CSLAYER1
  6
CONTINUOUS
 62
     3
 10
169.994835
 20
116.615030
 30
0.0
  0
VERTEX
  8
CSLAYER1
  6
CONTINUOUS
 62
     3
 10
170.147600
 20
116.540487
 30
0.0
  0
SEQEND
  0
POLYLINE
  8
CSLAYER1
  6
CONTINUOUS
 62
     3
 66
     1
 10
0.0
 20
0.0
 30
0.0
  0
VERTEX
  8
CSLAYER1
  6
CONTINUOUS
 62
     3
 10
179.464260
 20
118.275767
 30
0.0
  0
VERTEX
  8
CSLAYER1
  6
CONTINUOUS
 62
     3
 10
179.273631
 20
118.474074
 30
0.0
  0
VERTEX
  8
CSLAYER1
  6
CONTINUOUS
 62
     3
 10
179.047431
 20
118.663716
 30
0.0
  0
VERTEX
  8
CSLAYER1
  6
CONTINUOUS
 62
     3
 10
178.787383
 20
118.843248
 30
0.0
  0
VERTEX
  8
CSLAYER1
  6
CONTINUOUS
 62
     3
 10
178.689617
 20
118.902915
 30
0.0
  0
SEQEND
  0
POLYLINE
  8
CSLAYER1
  6
CONTINUOUS
 62
     3
 66
     1
 10
0.0
 20
0.0
 30
0.0
  0
VERTEX
  8
CSLAYER1
  6
CONTINUOUS
 62
     3
 10
178.244789
 20
119.134642
 30
0.0
  0
VERTEX
  8
CSLAYER1
  6
CONTINUOUS
 62
     3
 10
177.901603
 20
119.279070
 30
0.0
  0
VERTEX
  8
CSLAYER1
  6
CONTINUOUS
 62
     3
 10
177.533288
 20
119.408705
 30
0.0
  0
VERTEX
  8
CSLAYER1
  6
CONTINUOUS
 62
     3
 10
177.307701
 20
119.477166
 30
0.0
  0
SEQEND
  0
POLYLINE
  8
CSLAYER1
  6
CONTINUOUS
 62
     3
 66
     1
 10
0.0
 20
0.0
 30
0.0
  0
VERTEX
  8
CSLAYER1
  6
CONTINUOUS
 62
     3
 10
176.823060
 20
119.600142
 30
0.0
  0
VERTEX
  8
CSLAYER1
  6
CONTINUOUS
 62
     3
 10
176.400084
 20
119.683793
 30
0.0
  0
VERTEX
  8
CSLAYER1
  6
CONTINUOUS
 62
     3
 10
175.963408
 20
119.749571
 30
0.0
  0
VERTEX
  8
CSLAYER1
  6
CONTINUOUS
 62
     3
 10
175.837076
 20
119.764953
 30
0.0
  0
SEQEND
  0
POLYLINE
  8
CSLAYER1
  6
CONTINUOUS
 62
     3
 66
     1
 10
0.0
 20
0.0
 30
0.0
  0
VERTEX
  8
CSLAYER1
  6
CONTINUOUS
 62
     3
 10
175.339150
 20
119.810453
 30
0.0
  0
VERTEX
  8
CSLAYER1
  6
CONTINUOUS
 62
     3
 10
174.883329
 20
119.831718
 30
0.0
  0
VERTEX
  8
CSLAYER1
  6
CONTINUOUS
 62
     3
 10
174.425350
 20
119.833984
 30
0.0
  0
VERTEX
  8
CSLAYER1
  6
CONTINUOUS
 62
     3
 10
174.339648
 20
119.832293
 30
0.0
  0
SEQEND
  0
POLYLINE
  8
CSLAYER1
  6
CONTINUOUS
 62
     3
 66
     1
 10
0.0
 20
0.0
 30
0.0
  0
VERTEX
  8
CSLAYER1
  6
CONTINUOUS
 62
     3
 10
173.835693
 20
119.808741
 30
0.0
  0
VERTEX
  8
CSLAYER1
  6
CONTINUOUS
 62
     3
 10
173.385906
 20
119.767615
 30
0.0
  0
VERTEX
  8
CSLAYER1
  6
CONTINUOUS
 62
     3
 10
172.945358
 20
119.707977
 30
0.0
  0
VERTEX
  8
CSLAYER1
  6
CONTINUOUS
 62
     3
 10
172.847365
 20
119.691969
 30
0.0
  0
SEQEND
  0
POLYLINE
  8
CSLAYER1
  6
CONTINUOUS
 62
     3
 66
     1
 10
0.0
 20
0.0
 30
0.0
  0
VERTEX
  8
CSLAYER1
  6
CONTINUOUS
 62
     3
 10
172.356723
 20
119.595685
 30
0.0
  0
VERTEX
  8
CSLAYER1
  6
CONTINUOUS
 62
     3
 10
171.951559
 20
119.493988
 30
0.0
  0
VERTEX
  8
CSLAYER1
  6
CONTINUOUS
 62
     3
 10
171.566550
 20
119.375862
 30
0.0
  0
VERTEX
  8
CSLAYER1
  6
CONTINUOUS
 62
     3
 10
171.396599
 20
119.316093
 30
0.0
  0
SEQEND
  0
POLYLINE
  8
CSLAYER1
  6
CONTINUOUS
 62
     3
 66
     1
 10
0.0
 20
0.0
 30
0.0
  0
VERTEX
  8
CSLAYER1
  6
CONTINUOUS
 62
     3
 10
170.933179
 20
119.124602
 30
0.0
  0
VERTEX
  8
CSLAYER1
  6
CONTINUOUS
 62
     3
 10
170.619653
 20
118.965616
 30
0.0
  0
VERTEX
  8
CSLAYER1
  6
CONTINUOUS
 62
     3
 10
170.336419
 20
118.794224
 30
0.0
  0
VERTEX
  8
CSLAYER1
  6
CONTINUOUS
 62
     3
 10
170.085632
 20
118.611728
 30
0.0
  0
VERTEX
  8
CSLAYER1
  6
CONTINUOUS
 62
     3
 10
170.081222
 20
118.608184
 30
0.0
  0
SEQEND
  0
POLYLINE
  8
CSLAYER1
  6
CONTINUOUS
 62
     3
 66
     1
 10
0.0
 20
0.0
 30
0.0
  0
VERTEX
  8
CSLAYER1
  6
CONTINUOUS
 62
     3
 10
169.722244
 20
118.260140
 30
0.0
  0
VERTEX
  8
CSLAYER1
  6
CONTINUOUS
 62
     3
 10
169.571546
 20
118.054187
 30
0.0
  0
VERTEX
  8
CSLAYER1
  6
CONTINUOUS
 62
     3
 10
169.459117
 20
117.842763
 30
0.0
  0
VERTEX
  8
CSLAYER1
  6
CONTINUOUS
 62
     3
 10
169.385811
 20
117.627478
 30
0.0
  0
VERTEX
  8
CSLAYER1
  6
CONTINUOUS
 62
     3
 10
169.352188
 20
117.409969
 30
0.0
  0
VERTEX
  8
CSLAYER1
  6
CONTINUOUS
 62
     3
 10
169.349849
 20
117.335362
 30
0.0
  0
SEQEND
  0
LINE
  8
CSLAYER1
  6
CONTINUOUS
 62
     3
 10
175.479900
 20
117.836521
 11
175.479900
 21
117.335751
  0
LINE
  8
CSLAYER1
  6
CONTINUOUS
 62
     3
 10
175.479900
 20
116.836521
 11
175.479900
 21
116.336521
  0
LINE
  8
CSLAYER1
  6
CONTINUOUS
 62
     3
 10
173.719799
 20
118.836521
 11
173.719799
 21
118.336521
  0
LINE
  8
CSLAYER1
  6
CONTINUOUS
 62
     3
 10
173.719799
 20
117.836521
 11
173.719799
 21
117.335751
  0
LINE
  8
CSLAYER1
  6
CONTINUOUS
 62
     3
 10
173.719799
 20
116.836521
 11
173.719799
 21
116.336521
  0
POLYLINE
  8
CSLAYER1
  6
CONTINUOUS
 62
     3
 66
     1
 10
0.0
 20
0.0
 30
0.0
  0
VERTEX
  8
CSLAYER1
  6
CONTINUOUS
 62
     3
 10
179.038896
 20
116.534482
 30
0.0
  0
VERTEX
  8
CSLAYER1
  6
CONTINUOUS
 62
     3
 10
179.266310
 20
116.648069
 30
0.0
  0
VERTEX
  8
CSLAYER1
  6
CONTINUOUS
 62
     3
 10
179.458210
 20
116.766887
 30
0.0
  0
VERTEX
  8
CSLAYER1
  6
CONTINUOUS
 62
     3
 10
179.570615
 20
116.852689
 30
0.0
  0
SEQEND
  0
POLYLINE
  8
CSLAYER1
  6
CONTINUOUS
 62
     6
 66
     1
 10
0.0
 20
0.0
 30
0.0
  0
VERTEX
  8
CSLAYER1
  6
CONTINUOUS
 62
     6
 10
170.684326
 20
116.336136
 30
0.0
  0
VERTEX
  8
CSLAYER1
  6
CONTINUOUS
 62
     6
 10
171.004037
 20
116.242435
 30
0.0
  0
VERTEX
  8
CSLAYER1
  6
CONTINUOUS
 62
     6
 10
171.351113
 20
116.157053
 30
0.0
  0
VERTEX
  8
CSLAYER1
  6
CONTINUOUS
 62
     6
 10
171.722915
 20
116.080638
 30
0.0
  0
VERTEX
  8
CSLAYER1
  6
CONTINUOUS
 62
     6
 10
172.116612
 20
116.013772
 30
0.0
  0
VERTEX
  8
CSLAYER1
  6
CONTINUOUS
 62
     6
 10
172.529207
 20
115.956964
 30
0.0
  0
VERTEX
  8
CSLAYER1
  6
CONTINUOUS
 62
     6
 10
172.957562
 20
115.910647
 30
0.0
  0
VERTEX
  8
CSLAYER1
  6
CONTINUOUS
 62
     6
 10
173.398415
 20
115.875173
 30
0.0
  0
VERTEX
  8
CSLAYER1
  6
CONTINUOUS
 62
     6
 10
173.848412
 20
115.850812
 30
0.0
  0
VERTEX
  8
CSLAYER1
  6
CONTINUOUS
 62
     6
 10
174.304128
 20
115.837749
 30
0.0
  0
VERTEX
  8
CSLAYER1
  6
CONTINUOUS
 62
     6
 10
174.762095
 20
115.836084
 30
0.0
  0
VERTEX
  8
CSLAYER1
  6
CONTINUOUS
 62
     6
 10
175.218826
 20
115.845829
 30
0.0
  0
VERTEX
  8
CSLAYER1
  6
CONTINUOUS
 62
     6
 10
175.670847
 20
115.866911
 30
0.0
  0
VERTEX
  8
CSLAYER1
  6
CONTINUOUS
 62
     6
 10
176.114717
 20
115.899169
 30
0.0
  0
VERTEX
  8
CSLAYER1
  6
CONTINUOUS
 62
     6
 10
176.547058
 20
115.942356
 30
0.0
  0
VERTEX
  8
CSLAYER1
  6
CONTINUOUS
 62
     6
 10
176.964580
 20
115.996146
 30
0.0
  0
VERTEX
  8
CSLAYER1
  6
CONTINUOUS
 62
     6
 10
177.364104
 20
116.060128
 30
0.0
  0
VERTEX
  8
CSLAYER1
  6
CONTINUOUS
 62
     6
 10
177.742591
 20
116.133815
 30
0.0
  0
VERTEX
  8
CSLAYER1
  6
CONTINUOUS
 62
     6
 10
178.097160
 20
116.216647
 30
0.0
  0
VERTEX
  8
CSLAYER1
  6
CONTINUOUS
 62
     6
 10
178.425112
 20
116.307992
 30
0.0
  0
VERTEX
  8
CSLAYER1
  6
CONTINUOUS
 62
     6
 10
178.515373
 20
116.336136
 30
0.0
  0
SEQEND
  0
ARC
  8
CSLAYER1
  6
CONTINUOUS
 62
     6
 10
47.099834
 20
146.336119
 40
31.000000
 50
-85.930427
 51
244.995759
  0
CIRCLE
  8
CSLAYER1
  6
CONTINUOUS
 62
     6
 10
47.099834
 20
146.336119
 40
30.000017
  0
ARC
  8
CSLAYER1
  6
CONTINUOUS
 62
     6
 10
199.599849
 20
49.989024
 40
8.000000
 50
179.442517
 51
180.557483
  0
LINE
  8
CSLAYER1
  6
CONTINUOUS
 62
     6
 10
49.299814
 20
111.096581
 11
49.299839
 21
116.416899
  0
LINE
  8
CSLAYER1
  6
CONTINUOUS
 62
     6
 10
44.899817
 20
111.096581
 11
44.899841
 21
116.416899
  0
LINE
  8
CSLAYER1
  6
CONTINUOUS
 62
     6
 10
47.099810
 20
111.096581
 11
47.099842
 21
116.416899
  0
ARC
  8
CSLAYER1
  6
CONTINUOUS
 62
     6
 10
62.858839
 20
108.184434
 40
15.759004
 50
180.000235
 51
207.463987
  0
ARC
  8
CSLAYER1
  6
CONTINUOUS
 62
     6
 10
62.858839
 20
108.184434
 40
13.559023
 50
180.000308
 51
207.464006
  0
ARC
  8
CSLAYER1
  6
CONTINUOUS
 62
     6
 10
47.649836
 20
112.049202
 40
1.099999
 50
239.999870
 51
299.999858
  0
ARC
  8
CSLAYER1
  6
CONTINUOUS
 62
     6
 10
48.749834
 20
112.049202
 40
1.099999
 50
239.999870
 51
299.999858
  0
ARC
  8
CSLAYER1
  6
CONTINUOUS
 62
     6
 10
48.749827
 20
110.143959
 40
1.099999
 50
59.999858
 51
119.999853
  0
ARC
  8
CSLAYER1
  6
CONTINUOUS
 62
     6
 10
48.749817
 20
107.231719
 40
1.099999
 50
59.999715
 51
119.999716
  0
ARC
  8
CSLAYER1
  6
CONTINUOUS
 62
     6
 10
47.649819
 20
107.231734
 40
1.099999
 50
59.999715
 51
119.999716
  0
ARC
  8
CSLAYER1
  6
CONTINUOUS
 62
     6
 10
47.649826
 20
109.136992
 40
1.099999
 50
239.999733
 51
299.999721
  0
LINE
  8
CSLAYER1
  6
CONTINUOUS
 62
     6
 10
50.339897
 20
101.677489
 11
52.116742
 21
98.656490
  0
LINE
  8
CSLAYER1
  6
CONTINUOUS
 62
     6
 10
49.851882
 20
101.423842
 11
51.466059
 21
98.318284
  0
LINE
  8
CSLAYER1
  6
CONTINUOUS
 62
     6
 10
49.363869
 20
101.170189
 11
50.815376
 21
97.980078
  0
LINE
  8
CSLAYER1
  6
CONTINUOUS
 62
     6
 10
50.827910
 20
101.931144
 11
48.875861
 21
100.916526
  0
ARC
  8
CSLAYER1
  6
CONTINUOUS
 62
     6
 10
31.340856
 20
108.184261
 40
15.758933
 50
-27.463461
 51
0.000397
  0
ARC
  8
CSLAYER1
  6
CONTINUOUS
 62
     6
 10
31.340856
 20
108.184261
 40
13.558951
 50
-27.463363
 51
0.000417
  0
ARC
  8
CSLAYER1
  6
CONTINUOUS
 62
     6
 10
45.449793
 20
112.049202
 40
1.099999
 50
240.000198
 51
300.000186
  0
ARC
  8
CSLAYER1
  6
CONTINUOUS
 62
     6
 10
46.549791
 20
112.049202
 40
1.099999
 50
240.000198
 51
300.000186
  0
ARC
  8
CSLAYER1
  6
CONTINUOUS
 62
     6
 10
46.549799
 20
110.143959
 40
1.099999
 50
60.000186
 51
120.000181
  0
ARC
  8
CSLAYER1
  6
CONTINUOUS
 62
     6
 10
46.549813
 20
107.231749
 40
1.099999
 50
60.000350
 51
120.000345
  0
ARC
  8
CSLAYER1
  6
CONTINUOUS
 62
     6
 10
45.449814
 20
107.231734
 40
1.099999
 50
60.000350
 51
120.000345
  0
ARC
  8
CSLAYER1
  6
CONTINUOUS
 62
     6
 10
45.449803
 20
109.136992
 40
1.099999
 50
240.000362
 51
300.000350
  0
LINE
  8
CSLAYER1
  6
CONTINUOUS
 62
     6
 10
43.859775
 20
101.677488
 11
42.082931
 21
98.656488
  0
LINE
  8
CSLAYER1
  6
CONTINUOUS
 62
     6
 10
44.347791
 20
101.423840
 11
42.733614
 21
98.318283
  0
LINE
  8
CSLAYER1
  6
CONTINUOUS
 62
     6
 10
44.835803
 20
101.170188
 11
43.384298
 21
97.980077
  0
LINE
  8
CSLAYER1
  6
CONTINUOUS
 62
     6
 10
43.371794
 20
101.931126
 11
45.323838
 21
100.916511
  0
LINE
  8
CSLAYER1
  6
CONTINUOUS
 62
     6
 10
49.299829
 20
114.336119
 11
73.099834
 21
114.336119
  0
LINE
  8
CSLAYER1
  6
CENTER
 62
     3
 10
39.886570
 20
120.265805
 11
36.043134
 21
106.374788
  0
ARC
  8
CSLAYER1
  6
CONTINUOUS
 62
     6
 10
25.443022
 20
115.340369
 40
12.607053
 50
317.070225
 51
344.534143
  0
ARC
  8
CSLAYER1
  6
CONTINUOUS
 62
     6
 10
25.443022
 20
115.340369
 40
10.847068
 50
317.070225
 51
344.534116
  0
ARC
  8
CSLAYER1
  6
CONTINUOUS
 62
     6
 10
36.966298
 20
111.361318
 40
0.879999
 50
44.534377
 51
104.534365
  0
ARC
  8
CSLAYER1
  6
CONTINUOUS
 62
     6
 10
36.118159
 20
111.595985
 40
0.879999
 50
44.534377
 51
104.534365
  0
ARC
  8
CSLAYER1
  6
CONTINUOUS
 62
     6
 10
36.524611
 20
113.064993
 40
0.879999
 50
224.534385
 51
284.534387
  0
LINE
  8
CSLAYER1
  6
CONTINUOUS
 62
     6
 10
32.287144
 20
105.978297
 11
33.819259
 21
107.548593
  0
LINE
  8
CSLAYER1
  6
CONTINUOUS
 62
     6
 10
32.641277
 20
105.646537
 11
34.142024
 21
107.248342
  0
LINE
  8
CSLAYER1
  6
CONTINUOUS
 62
     6
 10
33.010104
 20
105.337785
 11
34.404854
 21
107.003843
  0
LINE
  8
CSLAYER1
  6
CONTINUOUS
 62
     6
 10
33.385134
 20
107.952420
 11
34.673776
 21
106.753669
  0
ARC
  8
CSLAYER1
  6
CONTINUOUS
 62
     6
 10
36.879216
 20
114.346613
 40
0.880005
 50
224.534030
 51
284.534032
  0
ARC
  8
CSLAYER1
  6
CONTINUOUS
 62
     6
 10
37.727355
 20
114.111946
 40
0.880005
 50
224.534030
 51
284.534032
  0
ARC
  8
CSLAYER1
  6
CONTINUOUS
 62
     6
 10
37.320903
 20
112.642938
 40
0.880005
 50
44.534022
 51
104.534010
  0
ARC
  8
CSLAYER1
  6
CONTINUOUS
 62
     6
 10
49.744165
 20
108.616608
 40
12.607053
 50
164.533933
 51
191.997850
  0
ARC
  8
CSLAYER1
  6
CONTINUOUS
 62
     6
 10
49.744165
 20
108.616608
 40
10.847068
 50
164.533960
 51
191.997850
  0
ARC
  8
CSLAYER1
  6
CONTINUOUS
 62
     6
 10
38.662576
 20
110.891983
 40
0.879999
 50
44.533687
 51
104.533689
  0
ARC
  8
CSLAYER1
  6
CONTINUOUS
 62
     6
 10
37.814437
 20
111.126651
 40
0.879999
 50
44.533687
 51
104.533689
  0
ARC
  8
CSLAYER1
  6
CONTINUOUS
 62
     6
 10
38.220889
 20
112.595658
 40
0.879999
 50
224.533689
 51
284.533690
  0
LINE
  8
CSLAYER1
  6
CONTINUOUS
 62
     6
 10
39.019820
 20
104.277999
 11
38.554085
 21
106.238538
  0
LINE
  8
CSLAYER1
  6
CONTINUOUS
 62
     6
 10
38.551099
 20
104.166660
 11
38.122889
 21
106.146897
  0
LINE
  8
CSLAYER1
  6
CONTINUOUS
 62
     6
 10
38.089491
 20
104.066841
 11
37.771762
 21
106.072270
  0
LINE
  8
CSLAYER1
  6
CONTINUOUS
 62
     6
 10
39.134043
 20
106.361783
 11
37.412492
 21
105.995907
  0
ARC
  8
CSLAYER1
  6
CONTINUOUS
 62
     6
 10
38.575494
 20
113.877279
 40
0.880005
 50
224.534030
 51
284.534032
  0
ARC
  8
CSLAYER1
  6
CONTINUOUS
 62
     6
 10
39.423634
 20
113.642611
 40
0.880005
 50
224.534030
 51
284.534032
  0
ARC
  8
CSLAYER1
  6
CONTINUOUS
 62
     6
 10
39.017181
 20
112.173604
 40
0.880005
 50
44.534022
 51
104.534010
  0
LINE
  8
CSLAYER1
  6
CONTINUOUS
 62
     6
 10
37.948199
 20
113.260109
 11
38.699857
 21
115.976765
  0
LINE
  8
CSLAYER1
  6
CONTINUOUS
 62
     6
 10
36.251921
 20
113.729443
 11
37.003579
 21
116.446100
  0
LINE
  8
CSLAYER1
  6
CONTINUOUS
 62
     6
 10
39.644477
 20
112.790774
 11
40.396135
 21
115.507431
  0
ARC
  8
CSLAYER1
  6
CONTINUOUS
 62
     6
 10
38.699862
 20
115.976764
 40
5.250000
 50
254.007657
 51
255.060304
  0
LINE
  8
CSLAYER1
  6
CONTINUOUS
 62
     6
 10
34.039959
 20
118.822428
 11
44.159744
 21
116.022436
  0
LINE
  8
CSLAYER1
  6
CONTINUOUS
 62
     6
 10
35.085643
 20
116.976746
 11
42.314061
 21
114.976751
  0
ARC
  8
CSLAYER1
  6
CONTINUOUS
 62
     6
 10
42.714060
 20
116.422435
 40
1.500000
 50
254.534033
 51
344.534033
  0
ARC
  8
CSLAYER1
  6
CONTINUOUS
 62
     6
 10
35.485642
 20
118.422429
 40
1.500000
 50
164.534033
 51
254.534033
  0
LINE
  8
CSLAYER1
  6
CONTINUOUS
 62
     6
 10
42.776806
 20
116.649212
 11
42.714060
 21
116.422435
  0
LINE
  8
CSLAYER1
  6
CONTINUOUS
 62
     6
 10
35.548388
 20
118.649207
 11
35.485642
 21
118.422429
  0
ARC
  8
CSLAYER1
  6
CONTINUOUS
 62
     6
 10
47.099834
 20
146.336119
 40
31.000000
 50
264.072307
 51
265.930431
  0
LINE
  8
CSLAYER1
  6
CONTINUOUS
 62
     6
 10
40.072051
 20
114.336119
 11
44.899831
 21
114.336119
  0
LINE
  8
CSLAYER1
  6
CONTINUOUS
 62
     6
 10
178.000211
 20
45.989025
 11
182.599849
 21
45.989025
  0
LINE
  8
CSLAYER1
  6
CONTINUOUS
 62
     6
 10
178.000223
 20
37.989025
 11
182.599849
 21
37.989025
  0
LINE
  8
CSLAYER1
  6
CONTINUOUS
 62
     6
 10
137.599834
 20
171.336122
 11
137.599834
 21
121.336122
  0
LINE
  8
CSLAYER1
  6
CENTER
 62
     3
 10
132.859966
 20
161.936175
 11
144.599849
 21
161.936175
  0
ARC
  8
CSLAYER1
  6
CONTINUOUS
 62
     6
 10
141.899822
 20
161.936205
 40
7.000000
 50
163.742994
 51
196.257016
  0
LINE
  8
CSLAYER1
  6
CONTINUOUS
 62
     6
 10
136.682384
 20
164.667162
 11
136.052562
 21
164.612048
  0
ARC
  8
CSLAYER1
  6
CONTINUOUS
 62
     6
 10
136.139721
 20
163.615862
 40
1.000000
 50
95.000111
 51
163.742611
  0
ARC
  8
CSLAYER1
  6
CONTINUOUS
 62
     6
 10
136.699810
 20
164.467944
 40
0.200000
 50
0.000000
 51
95.000152
  0
LINE
  8
CSLAYER1
  6
CONTINUOUS
 62
     6
 10
136.999797
 20
164.836169
 11
137.499797
 21
164.836169
  0
ARC
  8
CSLAYER1
  6
CONTINUOUS
 62
     6
 10
136.999797
 20
164.736193
 40
0.100000
 50
90.000003
 51
180.000005
  0
ARC
  8
CSLAYER1
  6
CONTINUOUS
 62
     6
 10
137.499797
 20
164.736193
 40
0.100000
 50
0.000000
 51
90.000003
  0
LINE
  8
CSLAYER1
  6
CONTINUOUS
 62
     6
 10
136.682384
 20
159.205218
 11
136.052562
 21
159.260302
  0
ARC
  8
CSLAYER1
  6
CONTINUOUS
 62
     6
 10
136.139721
 20
160.256518
 40
1.000000
 50
196.257399
 51
264.999892
  0
ARC
  8
CSLAYER1
  6
CONTINUOUS
 62
     6
 10
136.699810
 20
159.404467
 40
0.200000
 50
264.999865
 51
359.942691
  0
LINE
  8
CSLAYER1
  6
CONTINUOUS
 62
     6
 10
136.899822
 20
164.736193
 11
136.899822
 21
159.136217
  0
ARC
  8
CSLAYER1
  6
CONTINUOUS
 62
     6
 10
136.999797
 20
159.136217
 40
0.100000
 50
180.000005
 51
270.000001
  0
LINE
  8
CSLAYER1
  6
CONTINUOUS
 62
     6
 10
136.999797
 20
159.036181
 11
137.499797
 21
159.036181
  0
ARC
  8
CSLAYER1
  6
CONTINUOUS
 62
     6
 10
137.499797
 20
159.136217
 40
0.100000
 50
270.000001
 51
359.942691
  0
LINE
  8
CSLAYER1
  6
CONTINUOUS
 62
     6
 10
136.899822
 20
161.340258
 11
137.599804
 21
161.784106
  0
LINE
  8
CSLAYER1
  6
CONTINUOUS
 62
     6
 10
136.899822
 20
161.840258
 11
137.599804
 21
162.284106
  0
ARC
  8
CSLAYER1
  6
CONTINUOUS
 62
     6
 10
141.899822
 20
130.736178
 40
7.000000
 50
163.742994
 51
196.257016
  0
LINE
  8
CSLAYER1
  6
CONTINUOUS
 62
     6
 10
136.682384
 20
133.467135
 11
136.052562
 21
133.412020
  0
ARC
  8
CSLAYER1
  6
CONTINUOUS
 62
     6
 10
136.139721
 20
132.415835
 40
1.000000
 50
95.000111
 51
163.742611
  0
ARC
  8
CSLAYER1
  6
CONTINUOUS
 62
     6
 10
136.699810
 20
133.267916
 40
0.200000
 50
0.000000
 51
95.000152
  0
LINE
  8
CSLAYER1
  6
CONTINUOUS
 62
     6
 10
136.999797
 20
133.636141
 11
137.499797
 21
133.636141
  0
ARC
  8
CSLAYER1
  6
CONTINUOUS
 62
     6
 10
136.999797
 20
133.536166
 40
0.100000
 50
90.000003
 51
180.000005
  0
ARC
  8
CSLAYER1
  6
CONTINUOUS
 62
     6
 10
137.499797
 20
133.536166
 40
0.100000
 50
0.000000
 51
90.000003
  0
LINE
  8
CSLAYER1
  6
CONTINUOUS
 62
     6
 10
136.682384
 20
128.005190
 11
136.052562
 21
128.060274
  0
ARC
  8
CSLAYER1
  6
CONTINUOUS
 62
     6
 10
136.139721
 20
129.056490
 40
1.000000
 50
196.257399
 51
264.999892
  0
ARC
  8
CSLAYER1
  6
CONTINUOUS
 62
     6
 10
136.699810
 20
128.204440
 40
0.200000
 50
264.999865
 51
359.942691
  0
LINE
  8
CSLAYER1
  6
CONTINUOUS
 62
     6
 10
136.899822
 20
133.536166
 11
136.899822
 21
127.936190
  0
ARC
  8
CSLAYER1
  6
CONTINUOUS
 62
     6
 10
136.999797
 20
127.936190
 40
0.100000
 50
180.000005
 51
270.000001
  0
LINE
  8
CSLAYER1
  6
CONTINUOUS
 62
     6
 10
136.999797
 20
127.836153
 11
137.499797
 21
127.836153
  0
ARC
  8
CSLAYER1
  6
CONTINUOUS
 62
     6
 10
137.499797
 20
127.936190
 40
0.100000
 50
270.000001
 51
359.942691
  0
LINE
  8
CSLAYER1
  6
CONTINUOUS
 62
     6
 10
136.899822
 20
130.140231
 11
137.599804
 21
130.584078
  0
LINE
  8
CSLAYER1
  6
CONTINUOUS
 62
     6
 10
136.899822
 20
130.640231
 11
137.599804
 21
131.084078
  0
LINE
  8
CSLAYER1
  6
CENTER
 62
     3
 10
132.859962
 20
130.736080
 11
144.599849
 21
130.736078
  0
LINE
  8
CSLAYER1
  6
CONTINUOUS
 62
     6
 10
141.599834
 20
171.336124
 11
137.599834
 21
171.336122
  0
LINE
  8
CSLAYER1
  6
CONTINUOUS
 62
     6
 10
141.599834
 20
121.336124
 11
137.599850
 21
121.336122
  0
LINE
  8
CSLAYER1
  6
CONTINUOUS
 62
     6
 10
117.599834
 20
164.336185
 11
117.599834
 21
128.336143
  0
LINE
  8
CSLAYER1
  6
CONTINUOUS
 62
     6
 10
135.446126
 20
128.336141
 11
111.599834
 21
128.336144
  0
LINE
  8
CSLAYER1
  6
CENTER
 62
     3
 10
110.599834
 20
125.336144
 11
110.599834
 21
167.336144
  0
LINE
  8
CSLAYER1
  6
CONTINUOUS
 62
     6
 10
111.599834
 20
164.860938
 11
111.599834
 21
151.998506
  0
LINE
  8
CSLAYER1
  6
CONTINUOUS
 62
     6
 10
109.599834
 20
164.861004
 11
109.599834
 21
151.998506
  0
LINE
  8
CSLAYER1
  6
CONTINUOUS
 62
     6
 10
99.599823
 20
163.336145
 11
99.599845
 21
129.336145
  0
LINE
  8
CSLAYER1
  6
CONTINUOUS
 62
     6
 10
100.599828
 20
156.764628
 11
100.599845
 21
128.336145
  0
LINE
  8
CSLAYER1
  6
CONTINUOUS
 62
     6
 10
104.599828
 20
156.764630
 11
104.599825
 21
161.007306
  0
LINE
  8
CSLAYER1
  6
CONTINUOUS
 62
     6
 10
104.599825
 20
161.007306
 11
100.599825
 21
161.007304
  0
LINE
  8
CSLAYER1
  6
CONTINUOUS
 62
     6
 10
104.599828
 20
156.764630
 11
100.599828
 21
156.764628
  0
LINE
  8
CSLAYER1
  6
CONTINUOUS
 62
     6
 10
100.599825
 20
161.007304
 11
99.599826
 21
160.007303
  0
LINE
  8
CSLAYER1
  6
CONTINUOUS
 62
     6
 10
100.599828
 20
156.764628
 11
99.599828
 21
155.764627
  0
LINE
  8
CSLAYER1
  6
CONTINUOUS
 62
     6
 10
100.599825
 20
161.007304
 11
100.599823
 21
164.336145
  0
LINE
  8
CSLAYER1
  6
CONTINUOUS
 62
     6
 10
103.668857
 20
158.966534
 11
103.039035
 21
158.911419
  0
ARC
  8
CSLAYER1
  6
CONTINUOUS
 62
     6
 10
103.126194
 20
157.915203
 40
1.000000
 50
95.000143
 51
163.742637
  0
ARC
  8
CSLAYER1
  6
CONTINUOUS
 62
     6
 10
103.686283
 20
158.767254
 40
0.200000
 50
0.057345
 51
95.000171
  0
ARC
  8
CSLAYER1
  6
CONTINUOUS
 62
     6
 10
103.986270
 20
159.035504
 40
0.100000
 50
90.057354
 51
180.000044
  0
LINE
  8
CSLAYER1
  6
CONTINUOUS
 62
     6
 10
103.986270
 20
159.135541
 11
104.486270
 21
159.135541
  0
ARC
  8
CSLAYER1
  6
CONTINUOUS
 62
     6
 10
104.486270
 20
159.035504
 40
0.100000
 50
0.057345
 51
90.000035
  0
ARC
  8
CSLAYER1
  6
CONTINUOUS
 62
     6
 10
108.886266
 20
156.235519
 40
7.000000
 50
163.743019
 51
175.665197
  0
LINE
  8
CSLAYER1
  6
CONTINUOUS
 62
     6
 10
103.886266
 20
156.764630
 11
103.886264
 21
159.035504
  0
CIRCLE
  8
CSLAYER1
  6
CONTINUOUS
 62
     6
 10
110.599834
 20
146.336130
 40
5.750000
  0
LINE
  8
CSLAYER1
  6
CONTINUOUS
 62
     6
 10
109.599834
 20
134.336130
 11
109.599834
 21
127.828543
  0
LINE
  8
CSLAYER1
  6
CONTINUOUS
 62
     6
 10
111.599834
 20
134.336131
 11
111.599834
 21
127.828537
  0
LINE
  8
CSLAYER1
  6
CONTINUOUS
 62
     6
 10
110.099834
 20
143.336116
 11
110.099834
 21
149.336145
  0
LINE
  8
CSLAYER1
  6
CONTINUOUS
 62
     6
 10
111.099834
 20
143.336116
 11
111.099834
 21
149.336145
  0
LINE
  8
CSLAYER1
  6
CONTINUOUS
 62
     6
 10
109.599834
 20
128.336144
 11
100.599845
 21
128.336145
  0
ARC
  8
CSLAYER1
  6
CONTINUOUS
 62
     6
 10
110.599834
 20
128.597780
 40
1.261636
 50
217.568822
 51
322.431165
  0
ARC
  8
CSLAYER1
  6
CONTINUOUS
 62
     6
 10
110.599805
 20
164.046313
 40
1.289831
 50
39.166091
 51
140.829784
  0
LINE
  8
CSLAYER1
  6
CONTINUOUS
 62
     6
 10
110.099834
 20
143.336116
 11
111.099834
 21
143.336116
  0
LINE
  8
CSLAYER1
  6
CONTINUOUS
 62
     6
 10
110.099834
 20
149.336145
 11
111.099834
 21
149.336145
  0
LINE
  8
CSLAYER1
  6
CONTINUOUS
 62
     6
 10
109.199836
 20
140.759168
 11
109.199840
 21
134.336130
  0
LINE
  8
CSLAYER1
  6
CONTINUOUS
 62
     6
 10
111.999824
 20
140.759166
 11
111.999828
 21
134.336131
  0
LINE
  8
CSLAYER1
  6
CONTINUOUS
 62
     6
 10
111.999828
 20
134.336131
 11
109.199840
 21
134.336130
  0
LINE
  8
CSLAYER1
  6
CENTER
 62
     3
 10
112.099841
 20
135.836131
 11
109.099841
 21
135.836130
  0
CIRCLE
  8
CSLAYER1
  6
CONTINUOUS
 62
     6
 10
110.599841
 20
135.836130
 40
0.500000
  0
LINE
  8
CSLAYER1
  6
CONTINUOUS
 62
     6
 10
135.446019
 20
164.336141
 11
111.599834
 21
164.336144
  0
LINE
  8
CSLAYER1
  6
CONTINUOUS
 62
     6
 10
109.599834
 20
164.336144
 11
100.599823
 21
164.336145
  0
LINE
  8
CSLAYER1
  6
CONTINUOUS
 62
     6
 10
100.599823
 20
164.336145
 11
99.599823
 21
163.336145
  0
LINE
  8
CSLAYER1
  6
CONTINUOUS
 62
     6
 10
99.599845
 20
129.336145
 11
100.599845
 21
128.336145
  0
LINE
  8
CSLAYER1
  6
CONTINUOUS
 62
     6
 10
137.599834
 20
74.989054
 11
137.599834
 21
24.989054
  0
LINE
  8
CSLAYER1
  6
CONTINUOUS
 62
     6
 10
137.599834
 20
24.989054
 11
141.599834
 21
24.989054
  0
LINE
  8
CSLAYER1
  6
CONTINUOUS
 62
     6
 10
137.599834
 20
74.989054
 11
141.599834
 21
74.989054
  0
ARC
  8
CSLAYER1
  6
CONTINUOUS
 62
     6
 10
141.899822
 20
34.389063
 40
7.000000
 50
163.742994
 51
196.257016
  0
LINE
  8
CSLAYER1
  6
CONTINUOUS
 62
     6
 10
136.682384
 20
37.120020
 11
136.052562
 21
37.064906
  0
ARC
  8
CSLAYER1
  6
CONTINUOUS
 62
     6
 10
136.139721
 20
36.068720
 40
1.000000
 50
95.000111
 51
163.742611
  0
ARC
  8
CSLAYER1
  6
CONTINUOUS
 62
     6
 10
136.699810
 20
36.920802
 40
0.200000
 50
0.000000
 51
95.000152
  0
LINE
  8
CSLAYER1
  6
CONTINUOUS
 62
     6
 10
136.999797
 20
37.289027
 11
137.499797
 21
37.289027
  0
ARC
  8
CSLAYER1
  6
CONTINUOUS
 62
     6
 10
136.999797
 20
37.189051
 40
0.100000
 50
90.000003
 51
180.000005
  0
ARC
  8
CSLAYER1
  6
CONTINUOUS
 62
     6
 10
137.499797
 20
37.189051
 40
0.100000
 50
0.000000
 51
90.000003
  0
LINE
  8
CSLAYER1
  6
CONTINUOUS
 62
     6
 10
136.682384
 20
31.658076
 11
136.052562
 21
31.713160
  0
ARC
  8
CSLAYER1
  6
CONTINUOUS
 62
     6
 10
136.139721
 20
32.709376
 40
1.000000
 50
196.257399
 51
264.999892
  0
ARC
  8
CSLAYER1
  6
CONTINUOUS
 62
     6
 10
136.699810
 20
31.857325
 40
0.200000
 50
264.999865
 51
359.942691
  0
LINE
  8
CSLAYER1
  6
CONTINUOUS
 62
     6
 10
136.899822
 20
37.189051
 11
136.899822
 21
31.589076
  0
ARC
  8
CSLAYER1
  6
CONTINUOUS
 62
     6
 10
136.999797
 20
31.589076
 40
0.100000
 50
180.000005
 51
270.000001
  0
LINE
  8
CSLAYER1
  6
CONTINUOUS
 62
     6
 10
136.999797
 20
31.489039
 11
137.499797
 21
31.489039
  0
ARC
  8
CSLAYER1
  6
CONTINUOUS
 62
     6
 10
137.499797
 20
31.589076
 40
0.100000
 50
270.000001
 51
359.942691
  0
LINE
  8
CSLAYER1
  6
CONTINUOUS
 62
     6
 10
136.899822
 20
33.793116
 11
137.599804
 21
34.236964
  0
LINE
  8
CSLAYER1
  6
CONTINUOUS
 62
     6
 10
136.899822
 20
34.293116
 11
137.599804
 21
34.736964
  0
LINE
  8
CSLAYER1
  6
CENTER
 62
     3
 10
132.859962
 20
34.388966
 11
144.599842
 21
34.388963
  0
LINE
  8
CSLAYER1
  6
CENTER
 62
     3
 10
132.859966
 20
65.589060
 11
144.599849
 21
65.589060
  0
ARC
  8
CSLAYER1
  6
CONTINUOUS
 62
     6
 10
141.899822
 20
65.589091
 40
7.000000
 50
163.742994
 51
196.257016
  0
LINE
  8
CSLAYER1
  6
CONTINUOUS
 62
     6
 10
136.682384
 20
68.320048
 11
136.052562
 21
68.264933
  0
ARC
  8
CSLAYER1
  6
CONTINUOUS
 62
     6
 10
136.139721
 20
67.268748
 40
1.000000
 50
95.000111
 51
163.742611
  0
ARC
  8
CSLAYER1
  6
CONTINUOUS
 62
     6
 10
136.699810
 20
68.120829
 40
0.200000
 50
0.000000
 51
95.000152
  0
LINE
  8
CSLAYER1
  6
CONTINUOUS
 62
     6
 10
136.999797
 20
68.489054
 11
137.499797
 21
68.489054
  0
ARC
  8
CSLAYER1
  6
CONTINUOUS
 62
     6
 10
136.999797
 20
68.389079
 40
0.100000
 50
90.000003
 51
180.000005
  0
ARC
  8
CSLAYER1
  6
CONTINUOUS
 62
     6
 10
137.499797
 20
68.389079
 40
0.100000
 50
0.000000
 51
90.000003
  0
LINE
  8
CSLAYER1
  6
CONTINUOUS
 62
     6
 10
136.682384
 20
62.858103
 11
136.052562
 21
62.913187
  0
ARC
  8
CSLAYER1
  6
CONTINUOUS
 62
     6
 10
136.139721
 20
63.909403
 40
1.000000
 50
196.257399
 51
264.999892
  0
ARC
  8
CSLAYER1
  6
CONTINUOUS
 62
     6
 10
136.699810
 20
63.057353
 40
0.200000
 50
264.999865
 51
359.942691
  0
LINE
  8
CSLAYER1
  6
CONTINUOUS
 62
     6
 10
136.899822
 20
68.389079
 11
136.899822
 21
62.789103
  0
ARC
  8
CSLAYER1
  6
CONTINUOUS
 62
     6
 10
136.999797
 20
62.789103
 40
0.100000
 50
180.000005
 51
270.000001
  0
LINE
  8
CSLAYER1
  6
CONTINUOUS
 62
     6
 10
136.999797
 20
62.689066
 11
137.499797
 21
62.689066
  0
ARC
  8
CSLAYER1
  6
CONTINUOUS
 62
     6
 10
137.499797
 20
62.789103
 40
0.100000
 50
270.000001
 51
359.942691
  0
LINE
  8
CSLAYER1
  6
CONTINUOUS
 62
     6
 10
136.899822
 20
64.993144
 11
137.599804
 21
65.436991
  0
LINE
  8
CSLAYER1
  6
CONTINUOUS
 62
     6
 10
136.899822
 20
65.493144
 11
137.599804
 21
65.936991
  0
LINE
  8
CSLAYER1
  6
CONTINUOUS
 62
     6
 10
117.599834
 20
67.989024
 11
117.599834
 21
31.989070
  0
LINE
  8
CSLAYER1
  6
CENTER
 62
     3
 10
110.599834
 20
23.489100
 11
110.599834
 21
76.489100
  0
LINE
  8
CSLAYER1
  6
CONTINUOUS
 62
     6
 10
116.599834
 20
72.989100
 11
116.599834
 21
67.988997
  0
LINE
  8
CSLAYER1
  6
CONTINUOUS
 62
     6
 10
104.599834
 20
72.989100
 11
104.599834
 21
67.989024
  0
LINE
  8
CSLAYER1
  6
CONTINUOUS
 62
     6
 10
116.349834
 20
74.989100
 11
116.349834
 21
73.989100
  0
ARC
  8
CSLAYER1
  6
CONTINUOUS
 62
     6
 10
115.599834
 20
73.489100
 40
0.500000
 50
-89.999999
 51
90.000019
  0
LINE
  8
CSLAYER1
  6
CONTINUOUS
 62
     6
 10
104.849834
 20
74.989100
 11
104.849834
 21
73.989100
  0
ARC
  8
CSLAYER1
  6
CONTINUOUS
 62
     6
 10
105.599834
 20
73.489100
 40
0.500000
 50
90.000003
 51
269.942682
  0
LINE
  8
CSLAYER1
  6
CONTINUOUS
 62
     6
 10
116.349834
 20
74.989100
 11
104.849834
 21
74.989100
  0
LINE
  8
CSLAYER1
  6
CONTINUOUS
 62
     6
 10
116.349834
 20
73.989100
 11
104.849834
 21
73.989100
  0
LINE
  8
CSLAYER1
  6
CONTINUOUS
 62
     6
 10
104.599834
 20
72.989100
 11
116.599834
 21
72.989100
  0
LINE
  8
CSLAYER1
  6
CONTINUOUS
 62
     6
 10
111.599834
 20
32.962007
 11
111.599834
 21
67.016043
  0
LINE
  8
CSLAYER1
  6
CONTINUOUS
 62
     6
 10
109.599834
 20
32.962009
 11
109.599834
 21
67.016043
  0
LINE
  8
CSLAYER1
  6
CONTINUOUS
 62
     6
 10
99.599834
 20
32.989024
 11
99.599834
 21
66.989024
  0
LINE
  8
CSLAYER1
  6
CONTINUOUS
 62
     6
 10
135.446112
 20
31.989024
 11
116.599834
 21
31.989024
  0
LINE
  8
CSLAYER1
  6
CONTINUOUS
 62
     6
 10
135.446033
 20
67.989024
 11
116.599834
 21
67.989024
  0
LINE
  8
CSLAYER1
  6
CONTINUOUS
 62
     6
 10
104.599834
 20
39.560511
 11
104.599834
 21
35.317836
  0
LINE
  8
CSLAYER1
  6
CONTINUOUS
 62
     6
 10
114.099804
 20
72.989100
 11
114.099804
 21
68.989100
  0
LINE
  8
CSLAYER1
  6
CONTINUOUS
 62
     6
 10
107.099834
 20
72.989100
 11
107.099834
 21
68.989100
  0
LINE
  8
CSLAYER1
  6
CONTINUOUS
 62
     6
 10
104.599834
 20
35.317836
 11
100.599834
 21
35.317836
  0
LINE
  8
CSLAYER1
  6
CONTINUOUS
 62
     6
 10
104.599834
 20
39.560511
 11
100.599834
 21
39.560511
  0
LINE
  8
CSLAYER1
  6
CONTINUOUS
 62
     6
 10
100.599834
 20
35.317836
 11
99.599834
 21
36.317836
  0
LINE
  8
CSLAYER1
  6
CONTINUOUS
 62
     6
 10
100.599834
 20
39.560511
 11
99.599834
 21
40.560511
  0
LINE
  8
CSLAYER1
  6
CONTINUOUS
 62
     6
 10
100.599834
 20
35.317836
 11
100.599834
 21
31.989024
  0
LINE
  8
CSLAYER1
  6
CONTINUOUS
 62
     6
 10
103.668865
 20
37.358607
 11
103.039043
 21
37.413722
  0
ARC
  8
CSLAYER1
  6
CONTINUOUS
 62
     6
 10
103.126201
 20
38.409938
 40
1.000000
 50
196.257399
 51
264.999892
  0
ARC
  8
CSLAYER1
  6
CONTINUOUS
 62
     6
 10
103.686290
 20
37.557887
 40
0.200000
 50
264.999865
 51
359.942691
  0
ARC
  8
CSLAYER1
  6
CONTINUOUS
 62
     6
 10
103.986278
 20
37.289637
 40
0.100000
 50
179.999991
 51
269.942682
  0
LINE
  8
CSLAYER1
  6
CONTINUOUS
 62
     6
 10
103.986278
 20
37.189601
 11
104.486278
 21
37.189601
  0
ARC
  8
CSLAYER1
  6
CONTINUOUS
 62
     6
 10
104.486278
 20
37.289637
 40
0.100000
 50
270.000001
 51
359.942691
  0
ARC
  8
CSLAYER1
  6
CONTINUOUS
 62
     6
 10
108.886272
 20
40.089625
 40
7.000000
 50
184.334839
 51
196.257016
  0
LINE
  8
CSLAYER1
  6
CONTINUOUS
 62
     6
 10
103.886272
 20
39.560511
 11
103.886272
 21
37.289637
  0
LINE
  8
CSLAYER1
  6
CONTINUOUS
 62
     6
 10
112.599834
 20
70.389064
 11
112.599834
 21
72.989070
  0
LINE
  8
CSLAYER1
  6
CONTINUOUS
 62
     6
 10
108.599834
 20
70.389064
 11
108.599834
 21
72.989070
  0
LINE
  8
CSLAYER1
  6
CONTINUOUS
 62
     6
 10
108.599834
 20
70.889064
 11
112.599834
 21
70.889064
  0
LINE
  8
CSLAYER1
  6
CONTINUOUS
 62
     6
 10
109.199840
 20
69.083369
 11
109.199840
 21
70.889064
  0
LINE
  8
CSLAYER1
  6
CONTINUOUS
 62
     6
 10
111.999828
 20
69.083369
 11
111.999828
 21
70.889064
  0
LINE
  8
CSLAYER1
  6
CONTINUOUS
 62
     6
 10
109.199810
 20
70.389064
 11
108.599834
 21
70.389064
  0
LINE
  8
CSLAYER1
  6
CONTINUOUS
 62
     6
 10
111.999828
 20
70.389064
 11
112.599834
 21
70.389064
  0
LINE
  8
CSLAYER1
  6
CONTINUOUS
 62
     6
 10
109.325522
 20
68.989100
 11
107.099834
 21
68.989100
  0
LINE
  8
CSLAYER1
  6
CONTINUOUS
 62
     6
 10
111.874146
 20
68.989100
 11
114.099804
 21
68.989100
  0
LINE
  8
CSLAYER1
  6
CONTINUOUS
 62
     6
 10
111.595562
 20
69.000514
 11
109.595562
 21
69.000514
  0
LINE
  8
CSLAYER1
  6
CONTINUOUS
 62
     6
 10
109.199840
 20
69.297297
 11
109.595562
 21
69.000514
  0
LINE
  8
CSLAYER1
  6
CONTINUOUS
 62
     6
 10
111.595562
 20
69.000514
 11
111.999828
 21
69.303683
  0
LINE
  8
CSLAYER1
  6
CONTINUOUS
 62
     6
 10
109.599834
 20
68.783351
 11
111.599834
 21
68.783351
  0
LINE
  8
CSLAYER1
  6
CONTINUOUS
 62
     6
 10
109.199840
 20
69.083369
 11
109.599834
 21
68.783351
  0
LINE
  8
CSLAYER1
  6
CONTINUOUS
 62
     6
 10
111.599834
 20
68.783351
 11
111.999828
 21
69.083369
  0
CIRCLE
  8
CSLAYER1
  6
CONTINUOUS
 62
     6
 10
110.600933
 20
69.691127
 40
0.470497
  0
LINE
  8
CSLAYER1
  6
CONTINUOUS
 62
     6
 10
100.599834
 20
67.989024
 11
99.599834
 21
66.989024
  0
LINE
  8
CSLAYER1
  6
CONTINUOUS
 62
     6
 10
100.599834
 20
39.560511
 11
100.599834
 21
67.989024
  0
LINE
  8
CSLAYER1
  6
CONTINUOUS
 62
     6
 10
99.599834
 20
32.989024
 11
100.599834
 21
31.989024
  0
LINE
  8
CSLAYER1
  6
CONTINUOUS
 62
     6
 10
116.599834
 20
26.988948
 11
116.599834
 21
31.989049
  0
LINE
  8
CSLAYER1
  6
CONTINUOUS
 62
     6
 10
104.599834
 20
26.988948
 11
104.599834
 21
31.989060
  0
LINE
  8
CSLAYER1
  6
CONTINUOUS
 62
     6
 10
116.349834
 20
24.988948
 11
116.349834
 21
25.988948
  0
ARC
  8
CSLAYER1
  6
CONTINUOUS
 62
     6
 10
115.599834
 20
26.488948
 40
0.500000
 50
-90.000019
 51
89.999999
  0
LINE
  8
CSLAYER1
  6
CONTINUOUS
 62
     6
 10
104.849834
 20
24.988948
 11
104.849834
 21
25.988948
  0
ARC
  8
CSLAYER1
  6
CONTINUOUS
 62
     6
 10
105.599834
 20
26.488948
 40
0.500000
 50
90.057318
 51
269.999997
  0
LINE
  8
CSLAYER1
  6
CONTINUOUS
 62
     6
 10
116.349834
 20
24.988948
 11
104.849834
 21
24.988948
  0
LINE
  8
CSLAYER1
  6
CONTINUOUS
 62
     6
 10
116.349834
 20
25.988948
 11
104.849834
 21
25.988948
  0
LINE
  8
CSLAYER1
  6
CONTINUOUS
 62
     6
 10
104.599834
 20
26.988948
 11
116.599834
 21
26.988948
  0
LINE
  8
CSLAYER1
  6
CONTINUOUS
 62
     6
 10
114.099804
 20
26.988948
 11
114.099804
 21
30.988948
  0
LINE
  8
CSLAYER1
  6
CONTINUOUS
 62
     6
 10
107.099834
 20
26.988948
 11
107.099834
 21
30.988948
  0
LINE
  8
CSLAYER1
  6
CONTINUOUS
 62
     6
 10
112.599834
 20
29.588984
 11
112.599834
 21
26.988978
  0
LINE
  8
CSLAYER1
  6
CONTINUOUS
 62
     6
 10
108.599834
 20
29.588984
 11
108.599834
 21
26.988978
  0
LINE
  8
CSLAYER1
  6
CONTINUOUS
 62
     6
 10
108.599834
 20
29.088984
 11
112.599834
 21
29.088984
  0
LINE
  8
CSLAYER1
  6
CONTINUOUS
 62
     6
 10
109.199840
 20
30.894679
 11
109.199840
 21
29.088984
  0
LINE
  8
CSLAYER1
  6
CONTINUOUS
 62
     6
 10
111.999828
 20
30.894679
 11
111.999828
 21
29.088984
  0
LINE
  8
CSLAYER1
  6
CONTINUOUS
 62
     6
 10
109.199810
 20
29.588984
 11
108.599834
 21
29.588984
  0
LINE
  8
CSLAYER1
  6
CONTINUOUS
 62
     6
 10
111.999828
 20
29.588984
 11
112.599834
 21
29.588984
  0
LINE
  8
CSLAYER1
  6
CONTINUOUS
 62
     6
 10
109.325522
 20
30.988948
 11
107.099834
 21
30.988948
  0
LINE
  8
CSLAYER1
  6
CONTINUOUS
 62
     6
 10
111.874146
 20
30.988948
 11
114.099804
 21
30.988948
  0
LINE
  8
CSLAYER1
  6
CONTINUOUS
 62
     6
 10
111.595562
 20
30.977534
 11
109.595562
 21
30.977534
  0
LINE
  8
CSLAYER1
  6
CONTINUOUS
 62
     6
 10
109.199840
 20
30.680751
 11
109.595562
 21
30.977534
  0
LINE
  8
CSLAYER1
  6
CONTINUOUS
 62
     6
 10
111.595562
 20
30.977534
 11
111.999828
 21
30.674365
  0
LINE
  8
CSLAYER1
  6
CONTINUOUS
 62
     6
 10
109.599834
 20
31.194697
 11
111.599834
 21
31.194697
  0
LINE
  8
CSLAYER1
  6
CONTINUOUS
 62
     6
 10
109.199840
 20
30.894679
 11
109.599834
 21
31.194697
  0
LINE
  8
CSLAYER1
  6
CONTINUOUS
 62
     6
 10
111.599834
 20
31.194697
 11
111.999828
 21
30.894679
  0
CIRCLE
  8
CSLAYER1
  6
CONTINUOUS
 62
     6
 10
110.600933
 20
30.286921
 40
0.470497
  0
ARC
  8
CSLAYER1
  6
CONTINUOUS
 62
     6
 10
110.599834
 20
85.488997
 40
18.500000
 50
251.075356
 51
266.901421
  0
ARC
  8
CSLAYER1
  6
CONTINUOUS
 62
     6
 10
110.599834
 20
85.488997
 40
18.500000
 50
273.098579
 51
288.924644
  0
ARC
  8
CSLAYER1
  6
CONTINUOUS
 62
     6
 10
110.599817
 20
14.489055
 40
18.500000
 50
93.098552
 51
108.924617
  0
ARC
  8
CSLAYER1
  6
CONTINUOUS
 62
     6
 10
110.599817
 20
14.489055
 40
18.500000
 50
71.075329
 51
86.901394
  0
ARC
  8
CSLAYER1
  6
CONTINUOUS
 62
     6
 10
110.599834
 20
66.195333
 40
1.293664
 50
39.376084
 51
140.623916
  0
ARC
  8
CSLAYER1
  6
CONTINUOUS
 62
     6
 10
110.599831
 20
33.782727
 40
1.293673
 50
219.376242
 51
320.623679
  0
CIRCLE
  8
CSLAYER1
  6
CONTINUOUS
 62
     6
 10
375.599849
 20
146.336135
 40
5.000000
  0
LINE
  8
CSLAYER1
  6
CONTINUOUS
 62
     3
 10
241.099849
 20
218.183206
 11
277.099849
 21
218.183206
  0
ARC
  8
CSLAYER1
  6
CONTINUOUS
 62
     3
 10
241.099849
 20
219.183206
 40
1.000000
 50
180.000005
 51
270.000001
  0
LINE
  8
CSLAYER1
  6
CONTINUOUS
 62
     3
 10
240.099849
 20
266.183267
 11
240.099849
 21
219.183206
  0
LINE
  8
CSLAYER1
  6
CONTINUOUS
 62
     3
 10
278.099849
 20
266.183267
 11
278.099849
 21
219.183206
  0
TEXT
  8
CSLAYER1
 62
     3
 10
256.469910
 20
247.918655
 40
3.500000
 41
1.125000
  1
N P
 50
-90.000000
 51
10.000000
  7
JX_FONT
 72
     5
 11
256.469910
 21
237.418655
  0
LINE
  8
CSLAYER1
  6
CONTINUOUS
 62
     3
 10
241.099849
 20
267.183267
 11
277.099849
 21
267.183267
  0
ARC
  8
CSLAYER1
  6
CONTINUOUS
 62
     3
 10
241.099849
 20
266.183267
 40
1.000000
 50
90.000009
 51
180.000005
  0
ARC
  8
CSLAYER1
  6
CONTINUOUS
 62
     3
 10
277.099849
 20
219.183206
 40
1.000000
 50
269.999999
 51
359.999995
  0
ARC
  8
CSLAYER1
  6
CONTINUOUS
 62
     3
 10
277.099849
 20
266.183267
 40
1.000000
 50
-0.000005
 51
89.999991
  0
LINE
  8
CSLAYER1
  6
CENTER
 62
     3
 10
96.599849
 20
242.683230
 11
332.099849
 21
242.683230
  0
LINE
  8
CSLAYER1
  6
CONTINUOUS
 62
     6
 10
302.599849
 20
274.683230
 11
302.599849
 21
210.683230
  0
LINE
  8
CSLAYER1
  6
CONTINUOUS
 62
     6
 10
304.599849
 20
257.683230
 11
304.599849
 21
227.683230
  0
LINE
  8
CSLAYER1
  6
CONTINUOUS
 62
     6
 10
329.099849
 20
246.683230
 11
329.099849
 21
238.683230
  0
LINE
  8
CSLAYER1
  6
CONTINUOUS
 62
     6
 10
210.599849
 20
273.683230
 11
210.599849
 21
211.683230
  0
LINE
  8
CSLAYER1
  6
CONTINUOUS
 62
     6
 10
304.599849
 20
246.683230
 11
329.099849
 21
246.683230
  0
LINE
  8
CSLAYER1
  6
CONTINUOUS
 62
     6
 10
304.599849
 20
238.683230
 11
329.099849
 21
238.683230
  0
LINE
  8
CSLAYER1
  6
CONTINUOUS
 62
     6
 10
293.599849
 20
272.683230
 11
292.599849
 21
272.683230
  0
LINE
  8
CSLAYER1
  6
CONTINUOUS
 62
     6
 10
292.599849
 20
212.683230
 11
293.599849
 21
212.683230
  0
LINE
  8
CSLAYER1
  6
CONTINUOUS
 62
     6
 10
302.599849
 20
257.683230
 11
304.599849
 21
257.683230
  0
LINE
  8
CSLAYER1
  6
CONTINUOUS
 62
     6
 10
302.599849
 20
227.683230
 11
304.599849
 21
227.683230
  0
LINE
  8
CSLAYER1
  6
CONTINUOUS
 62
     6
 10
210.599849
 20
211.683230
 11
292.599849
 21
211.683230
  0
LINE
  8
CSLAYER1
  6
CONTINUOUS
 62
     6
 10
210.599849
 20
273.683230
 11
292.599849
 21
273.683230
  0
LINE
  8
CSLAYER1
  6
CONTINUOUS
 62
     6
 10
293.599849
 20
272.683230
 11
293.599849
 21
212.683230
  0
LINE
  8
CSLAYER1
  6
CONTINUOUS
 62
     6
 10
302.599849
 20
274.683230
 11
295.599849
 21
274.683230
  0
LINE
  8
CSLAYER1
  6
CONTINUOUS
 62
     6
 10
292.599849
 20
273.683230
 11
292.599849
 21
211.683230
  0
LINE
  8
CSLAYER1
  6
CONTINUOUS
 62
     6
 10
302.599849
 20
210.683230
 11
295.599849
 21
210.683230
  0
ARC
  8
CSLAYER1
  6
CONTINUOUS
 62
     6
 10
295.599849
 20
272.683230
 40
2.000000
 50
90.000000
 51
180.000000
  0
ARC
  8
CSLAYER1
  6
CONTINUOUS
 62
     6
 10
295.599849
 20
212.683230
 40
2.000000
 50
180.000000
 51
270.000000
  0
LINE
  8
CSLAYER1
  6
CENTER
 62
     3
 10
290.599849
 20
216.683226
 11
304.599849
 21
216.683226
  0
LINE
  8
CSLAYER1
  6
CENTER
 62
     3
 10
290.599856
 20
268.683236
 11
304.599856
 21
268.683233
  0
LINE
  8
CSLAYER1
  6
CONTINUOUS
 62
     6
 10
182.599849
 20
272.194477
 11
210.599865
 21
272.683247
  0
LINE
  8
CSLAYER1
  6
CONTINUOUS
 62
     6
 10
182.599849
 20
213.172017
 11
210.599865
 21
212.683247
  0
LINE
  8
CSLAYER1
  6
CONTINUOUS
 62
     6
 10
182.599849
 20
212.683231
 11
182.599849
 21
272.683231
  0
LINE
  8
CSLAYER1
  6
CONTINUOUS
 62
     6
 10
148.599849
 20
212.683231
 11
148.599849
 21
272.683231
  0
LINE
  8
CSLAYER1
  6
CONTINUOUS
 62
     6
 10
141.599849
 20
272.683231
 11
141.599849
 21
212.683231
  0
LINE
  8
CSLAYER1
  6
CONTINUOUS
 62
     6
 10
141.599849
 20
272.683231
 11
182.599849
 21
272.683231
  0
LINE
  8
CSLAYER1
  6
CONTINUOUS
 62
     6
 10
141.599849
 20
212.683231
 11
182.599849
 21
212.683231
  0
LINE
  8
CSLAYER1
  6
CONTINUOUS
 62
     6
 10
137.599834
 20
267.683260
 11
137.599834
 21
217.683260
  0
LINE
  8
CSLAYER1
  6
CONTINUOUS
 62
     6
 10
137.599834
 20
217.683260
 11
141.599834
 21
217.683260
  0
LINE
  8
CSLAYER1
  6
CONTINUOUS
 62
     6
 10
137.599834
 20
267.683260
 11
141.599834
 21
267.683260
  0
ARC
  8
CSLAYER1
  6
CONTINUOUS
 62
     6
 10
141.899822
 20
227.083269
 40
7.000000
 50
163.742994
 51
196.257016
  0
LINE
  8
CSLAYER1
  6
CONTINUOUS
 62
     6
 10
136.682384
 20
229.814226
 11
136.052562
 21
229.759111
  0
ARC
  8
CSLAYER1
  6
CONTINUOUS
 62
     6
 10
136.139721
 20
228.762926
 40
1.000000
 50
95.000111
 51
163.742611
  0
ARC
  8
CSLAYER1
  6
CONTINUOUS
 62
     6
 10
136.699810
 20
229.615007
 40
0.200000
 50
0.000000
 51
95.000152
  0
LINE
  8
CSLAYER1
  6
CONTINUOUS
 62
     6
 10
136.999797
 20
229.983232
 11
137.499797
 21
229.983232
  0
ARC
  8
CSLAYER1
  6
CONTINUOUS
 62
     6
 10
136.999797
 20
229.883257
 40
0.100000
 50
90.000003
 51
180.000005
  0
ARC
  8
CSLAYER1
  6
CONTINUOUS
 62
     6
 10
137.499797
 20
229.883257
 40
0.100000
 50
0.000000
 51
90.000003
  0
LINE
  8
CSLAYER1
  6
CONTINUOUS
 62
     6
 10
136.682384
 20
224.352282
 11
136.052562
 21
224.407366
  0
ARC
  8
CSLAYER1
  6
CONTINUOUS
 62
     6
 10
136.139721
 20
225.403582
 40
1.000000
 50
196.257399
 51
264.999892
  0
ARC
  8
CSLAYER1
  6
CONTINUOUS
 62
     6
 10
136.699810
 20
224.551531
 40
0.200000
 50
264.999865
 51
359.942691
  0
LINE
  8
CSLAYER1
  6
CONTINUOUS
 62
     6
 10
136.899822
 20
229.883257
 11
136.899822
 21
224.283281
  0
ARC
  8
CSLAYER1
  6
CONTINUOUS
 62
     6
 10
136.999797
 20
224.283281
 40
0.100000
 50
180.000005
 51
270.000001
  0
LINE
  8
CSLAYER1
  6
CONTINUOUS
 62
     6
 10
136.999797
 20
224.183245
 11
137.499797
 21
224.183245
  0
ARC
  8
CSLAYER1
  6
CONTINUOUS
 62
     6
 10
137.499797
 20
224.283281
 40
0.100000
 50
270.000001
 51
359.942691
  0
LINE
  8
CSLAYER1
  6
CONTINUOUS
 62
     6
 10
136.899822
 20
226.487322
 11
137.599804
 21
226.931170
  0
LINE
  8
CSLAYER1
  6
CONTINUOUS
 62
     6
 10
136.899822
 20
226.987322
 11
137.599804
 21
227.431170
  0
LINE
  8
CSLAYER1
  6
CENTER
 62
     3
 10
132.859962
 20
227.083172
 11
144.599842
 21
227.083169
  0
LINE
  8
CSLAYER1
  6
CENTER
 62
     3
 10
132.859966
 20
258.283266
 11
144.599849
 21
258.283266
  0
ARC
  8
CSLAYER1
  6
CONTINUOUS
 62
     6
 10
141.899822
 20
258.283297
 40
7.000000
 50
163.742994
 51
196.257016
  0
LINE
  8
CSLAYER1
  6
CONTINUOUS
 62
     6
 10
136.682384
 20
261.014254
 11
136.052562
 21
260.959139
  0
ARC
  8
CSLAYER1
  6
CONTINUOUS
 62
     6
 10
136.139721
 20
259.962954
 40
1.000000
 50
95.000111
 51
163.742611
  0
ARC
  8
CSLAYER1
  6
CONTINUOUS
 62
     6
 10
136.699810
 20
260.815035
 40
0.200000
 50
0.000000
 51
95.000152
  0
LINE
  8
CSLAYER1
  6
CONTINUOUS
 62
     6
 10
136.999797
 20
261.183260
 11
137.499797
 21
261.183260
  0
ARC
  8
CSLAYER1
  6
CONTINUOUS
 62
     6
 10
136.999797
 20
261.083284
 40
0.100000
 50
90.000003
 51
180.000005
  0
ARC
  8
CSLAYER1
  6
CONTINUOUS
 62
     6
 10
137.499797
 20
261.083284
 40
0.100000
 50
0.000000
 51
90.000003
  0
LINE
  8
CSLAYER1
  6
CONTINUOUS
 62
     6
 10
136.682384
 20
255.552309
 11
136.052562
 21
255.607393
  0
ARC
  8
CSLAYER1
  6
CONTINUOUS
 62
     6
 10
136.139721
 20
256.603609
 40
1.000000
 50
196.257399
 51
264.999892
  0
ARC
  8
CSLAYER1
  6
CONTINUOUS
 62
     6
 10
136.699810
 20
255.751558
 40
0.200000
 50
264.999865
 51
359.942691
  0
LINE
  8
CSLAYER1
  6
CONTINUOUS
 62
     6
 10
136.899822
 20
261.083284
 11
136.899822
 21
255.483309
  0
ARC
  8
CSLAYER1
  6
CONTINUOUS
 62
     6
 10
136.999797
 20
255.483309
 40
0.100000
 50
180.000005
 51
270.000001
  0
LINE
  8
CSLAYER1
  6
CONTINUOUS
 62
     6
 10
136.999797
 20
255.383272
 11
137.499797
 21
255.383272
  0
ARC
  8
CSLAYER1
  6
CONTINUOUS
 62
     6
 10
137.499797
 20
255.483309
 40
0.100000
 50
270.000001
 51
359.942691
  0
LINE
  8
CSLAYER1
  6
CONTINUOUS
 62
     6
 10
136.899822
 20
257.687349
 11
137.599804
 21
258.131197
  0
LINE
  8
CSLAYER1
  6
CONTINUOUS
 62
     6
 10
136.899822
 20
258.187349
 11
137.599804
 21
258.631197
  0
LINE
  8
CSLAYER1
  6
CONTINUOUS
 62
     6
 10
117.599834
 20
260.683230
 11
117.599834
 21
224.683276
  0
LINE
  8
CSLAYER1
  6
CENTER
 62
     3
 10
110.599834
 20
216.183306
 11
110.599834
 21
269.183306
  0
LINE
  8
CSLAYER1
  6
CONTINUOUS
 62
     6
 10
116.599834
 20
265.683306
 11
116.599834
 21
260.683202
  0
LINE
  8
CSLAYER1
  6
CONTINUOUS
 62
     6
 10
104.599834
 20
265.683306
 11
104.599834
 21
260.683230
  0
LINE
  8
CSLAYER1
  6
CONTINUOUS
 62
     6
 10
116.349834
 20
267.683306
 11
116.349834
 21
266.683306
  0
ARC
  8
CSLAYER1
  6
CONTINUOUS
 62
     6
 10
115.599834
 20
266.183306
 40
0.500000
 50
-89.999999
 51
90.000019
  0
LINE
  8
CSLAYER1
  6
CONTINUOUS
 62
     6
 10
104.849834
 20
267.683306
 11
104.849834
 21
266.683306
  0
ARC
  8
CSLAYER1
  6
CONTINUOUS
 62
     6
 10
105.599834
 20
266.183306
 40
0.500000
 50
90.000003
 51
269.942682
  0
LINE
  8
CSLAYER1
  6
CONTINUOUS
 62
     6
 10
116.349834
 20
267.683306
 11
104.849834
 21
267.683306
  0
LINE
  8
CSLAYER1
  6
CONTINUOUS
 62
     6
 10
116.349834
 20
266.683306
 11
104.849834
 21
266.683306
  0
LINE
  8
CSLAYER1
  6
CONTINUOUS
 62
     6
 10
104.599834
 20
265.683306
 11
116.599834
 21
265.683306
  0
LINE
  8
CSLAYER1
  6
CONTINUOUS
 62
     6
 10
111.599834
 20
225.656213
 11
111.599834
 21
259.710249
  0
LINE
  8
CSLAYER1
  6
CONTINUOUS
 62
     6
 10
109.599834
 20
225.656215
 11
109.599834
 21
259.710249
  0
LINE
  8
CSLAYER1
  6
CONTINUOUS
 62
     6
 10
99.599834
 20
225.683230
 11
99.599834
 21
259.683230
  0
LINE
  8
CSLAYER1
  6
CONTINUOUS
 62
     6
 10
135.446112
 20
224.683230
 11
116.599834
 21
224.683230
  0
LINE
  8
CSLAYER1
  6
CONTINUOUS
 62
     6
 10
135.446033
 20
260.683230
 11
116.599834
 21
260.683230
  0
LINE
  8
CSLAYER1
  6
CONTINUOUS
 62
     6
 10
104.599834
 20
232.254717
 11
104.599834
 21
228.012041
  0
LINE
  8
CSLAYER1
  6
CONTINUOUS
 62
     6
 10
104.599834
 20
228.012041
 11
100.599834
 21
228.012041
  0
LINE
  8
CSLAYER1
  6
CONTINUOUS
 62
     6
 10
104.599834
 20
232.254717
 11
100.599834
 21
232.254717
  0
LINE
  8
CSLAYER1
  6
CONTINUOUS
 62
     6
 10
100.599834
 20
228.012041
 11
99.599834
 21
229.012041
  0
LINE
  8
CSLAYER1
  6
CONTINUOUS
 62
     6
 10
100.599834
 20
232.254717
 11
99.599834
 21
233.254717
  0
LINE
  8
CSLAYER1
  6
CONTINUOUS
 62
     6
 10
100.599834
 20
228.012041
 11
100.599834
 21
224.683230
  0
LINE
  8
CSLAYER1
  6
CONTINUOUS
 62
     6
 10
103.668865
 20
230.052813
 11
103.039043
 21
230.107928
  0
ARC
  8
CSLAYER1
  6
CONTINUOUS
 62
     6
 10
103.126201
 20
231.104143
 40
1.000000
 50
196.257399
 51
264.999892
  0
ARC
  8
CSLAYER1
  6
CONTINUOUS
 62
     6
 10
103.686290
 20
230.252093
 40
0.200000
 50
264.999865
 51
359.942691
  0
ARC
  8
CSLAYER1
  6
CONTINUOUS
 62
     6
 10
103.986278
 20
229.983843
 40
0.100000
 50
179.999991
 51
269.942682
  0
LINE
  8
CSLAYER1
  6
CONTINUOUS
 62
     6
 10
103.986278
 20
229.883807
 11
104.486278
 21
229.883807
  0
ARC
  8
CSLAYER1
  6
CONTINUOUS
 62
     6
 10
104.486278
 20
229.983843
 40
0.100000
 50
270.000001
 51
359.942691
  0
ARC
  8
CSLAYER1
  6
CONTINUOUS
 62
     6
 10
108.886272
 20
232.783831
 40
7.000000
 50
184.334839
 51
196.257016
  0
LINE
  8
CSLAYER1
  6
CONTINUOUS
 62
     6
 10
103.886272
 20
232.254717
 11
103.886272
 21
229.983843
  0
LINE
  8
CSLAYER1
  6
CONTINUOUS
 62
     6
 10
100.599834
 20
260.683230
 11
99.599834
 21
259.683230
  0
LINE
  8
CSLAYER1
  6
CONTINUOUS
 62
     6
 10
100.599834
 20
232.254717
 11
100.599834
 21
260.683230
  0
LINE
  8
CSLAYER1
  6
CONTINUOUS
 62
     6
 10
99.599834
 20
225.683230
 11
100.599834
 21
224.683230
  0
LINE
  8
CSLAYER1
  6
CONTINUOUS
 62
     6
 10
116.599834
 20
219.683153
 11
116.599834
 21
224.683255
  0
LINE
  8
CSLAYER1
  6
CONTINUOUS
 62
     6
 10
104.599834
 20
219.683153
 11
104.599834
 21
224.683266
  0
LINE
  8
CSLAYER1
  6
CONTINUOUS
 62
     6
 10
116.349834
 20
217.683153
 11
116.349834
 21
218.683153
  0
ARC
  8
CSLAYER1
  6
CONTINUOUS
 62
     6
 10
115.599834
 20
219.183153
 40
0.500000
 50
-90.000019
 51
89.999999
  0
LINE
  8
CSLAYER1
  6
CONTINUOUS
 62
     6
 10
104.849834
 20
217.683153
 11
104.849834
 21
218.683153
  0
ARC
  8
CSLAYER1
  6
CONTINUOUS
 62
     6
 10
105.599834
 20
219.183153
 40
0.500000
 50
90.057318
 51
269.999997
  0
LINE
  8
CSLAYER1
  6
CONTINUOUS
 62
     6
 10
116.349834
 20
217.683153
 11
104.849834
 21
217.683153
  0
LINE
  8
CSLAYER1
  6
CONTINUOUS
 62
     6
 10
116.349834
 20
218.683153
 11
104.849834
 21
218.683153
  0
LINE
  8
CSLAYER1
  6
CONTINUOUS
 62
     6
 10
104.599834
 20
219.683153
 11
116.599834
 21
219.683153
  0
ARC
  8
CSLAYER1
  6
CONTINUOUS
 62
     6
 10
110.599834
 20
278.183202
 40
18.500000
 50
251.075356
 51
266.901421
  0
ARC
  8
CSLAYER1
  6
CONTINUOUS
 62
     6
 10
110.599834
 20
278.183202
 40
18.500000
 50
273.098579
 51
288.924644
  0
ARC
  8
CSLAYER1
  6
CONTINUOUS
 62
     6
 10
110.599817
 20
207.183260
 40
18.500000
 50
93.098552
 51
108.924617
  0
ARC
  8
CSLAYER1
  6
CONTINUOUS
 62
     6
 10
110.599817
 20
207.183260
 40
18.500000
 50
71.075329
 51
86.901394
  0
ARC
  8
CSLAYER1
  6
CONTINUOUS
 62
     6
 10
110.599834
 20
258.889539
 40
1.293664
 50
39.376084
 51
140.623916
  0
ARC
  8
CSLAYER1
  6
CONTINUOUS
 62
     6
 10
110.599831
 20
226.476933
 40
1.293673
 50
219.376242
 51
320.623679
  0
LINE
  8
CSLAYER1
  6
CONTINUOUS
 62
     6
 10
104.599834
 20
260.683230
 11
100.599834
 21
260.683230
  0
LINE
  8
CSLAYER1
  6
CONTINUOUS
 62
     6
 10
104.599834
 20
224.683230
 11
100.599834
 21
224.683230
  0
LINE
  8
CSLAYER1
  6
CONTINUOUS
 62
     6
 10
104.599834
 20
67.989024
 11
100.599834
 21
67.989024
  0
LINE
  8
CSLAYER1
  6
CONTINUOUS
 62
     6
 10
104.599834
 20
31.989024
 11
100.599834
 21
31.989024
  0
ENDSEC
  0
EOF
