  0
SECTION
  2
HEADER
  9
$ACADVER
  1
AC1006
  9
$INSBASE
 10
0.000000
 20
0.000000
 30
0.0
  9
$EXTMIN
 10
0.000000
 20
0.000000
  9
$EXTMAX
 10
841.000000
 20
594.000000
  9
$LIMMIN
 10
0.000000
 20
0.000000
  9
$LIMMAX
 10
841.000000
 20
594.000000
  9
$VIEWCTR
 10
420.500000
 20
297.000000
  9
$VIEWSIZE
 40
594.000000
  9
$SNAPMODE
 70
     0
  9
$SNAPUNIT
 10
1.0
 20
1.0
  9
$SNAPBASE
 10
0.0
 20
0.0
  9
$SNAPANG
 50
0.0
  9
$SNAPSTYLE
 70
     0
  9
$SNAPISOPAIR
 70
     0
  9
$GRIDMODE
 70
     0
  9
$GRIDUNIT
 10
0.0
 20
0.0
  9
$ORTHOMODE
 70
     0
  9
$REGENMODE
 70
     1
  9
$FILLMODE
 70
     1
  9
$QTEXTMODE
 70
     0
  9
$DRAGMODE
 70
     2
  9
$LTSCALE
 40
15.000000
  9
$OSMODE
 70
     0
  9
$ATTMODE
 70
     1
  9
$TEXTSIZE
 40
0.2
  9
$TRACEWID
 40
0.05
  9
$TEXTSTYLE
  7
STANDARD
  9
$CLAYER
  8
CSLAYER1
  9
$CELTYPE
  6
BYLAYER
  9
$CECOLOR
 62
   256
  9
$DIMSCALE
 40
1.0
  9
$DIMASZ
 40
0.18
  9
$DIMEXO
 40
0.0625
  9
$DIMDLI
 40
0.38
  9
$DIMRND
 40
0.0
  9
$DIMDLE
 40
0.0
  9
$DIMEXE
 40
0.18
  9
$DIMTP
 40
0.0
  9
$DIMTM
 40
0.0
  9
$DIMTXT
 40
0.18
  9
$DIMCEN
 40
0.09
  9
$DIMTSZ
 40
0.0
  9
$DIMTOL
 70
     0
  9
$DIMLIM
 70
     0
  9
$DIMTIH
 70
     1
  9
$DIMTOH
 70
     1
  9
$DIMSE1
 70
     0
  9
$DIMSE2
 70
     0
  9
$DIMTAD
 70
     0
  9
$DIMZIN
 70
     0
  9
$DIMBLK
  1

  9
$LUNITS
 70
     2
  9
$LUPREC
 70
     4
  9
$AXISMODE
 70
     0
  9
$AXISUNIT
 10
0.0
 20
0.0
  9
$SKETCHINC
 40
0.1
  9
$FILLETRAD
 40
0.0
  9
$AUNITS
 70
     0
  9
$AUPREC
 70
     0
  9
$MENU
  1
ACAD
  9
$ELEVATION
 40
0.0
  9
$THICKNESS
 40
0.0
  9
$VIEWDIR
 10
0.0
 20
0.0
 30
1.0
  9
$LIMCHECK
 70
     0
  9
$BLIPMODE
 70
     1
  9
$CHAMFERA
 40
0.0
  9
$CHAMFERB
 40
0.0
  9
$FASTZOOM
 70
     1
  9
$SKPOLY
 70
     0
  9
$TDCREATE
 40
0.000000
  9
$TDUPDATE
 40
0.000000
  9
$TDINDWG
 40
0.0
  9
$TDUSRTIMER
 40
0.0
  9
$USRTIMER
 70
     1
  9
$ANGBASE
 50
0.0
  9
$ANGDIR
 70
     0
  9
$PDMODE
 70
     0
  9
$PDSIZE
 40
0.0
  9
$PLINEWID
 40
0.0
  9
$COORDS
 70
     0
  9
$USERI1
 70
     0
  9
$USERI2
 70
     0
  9
$USERI3
 70
     0
  9
$USERI4
 70
     0
  9
$USERI5
 70
     0
  9
$USERR1
 40
0.0
  9
$USERR2
 40
0.0
  9
$USERR3
 40
0.0
  9
$USERR4
 40
0.0
  9
$USERR5
 40
0.0
  0
ENDSEC
  0
SECTION
  2
TABLES
  0
TABLE
  2
LTYPE
 70
     9
  0
LTYPE
  2
CONTINUOUS
 70
    64
  3
Solid line
 72
    65
 73
     0
 40
0.0
  0
LTYPE
  2
DASHED
 70
    64
  3
__ __ __ __ __ __ __ __ __ __ __ __ __ __ __
 72
    65
 73
     2
 40
0.75
 49
0.5
 49
-0.25
  0
LTYPE
  2
HIDDEN
 70
    64
  3
_ _ _ _ _ _ _ _ _ _ _ _ _ _ _ _ _ _ _ _ _ _ _
 72
    65
 73
     2
 40
0.375
 49
0.25
 49
-0.125
  0
LTYPE
  2
DOT
 70
    64
  3
...............................................
 72
    65
 73
     2
 40
0.25
 49
0.0
 49
-0.25
  0
LTYPE
  2
DASHDOT
 70
    64
  3
__ . __ . __ . __ . __ . __ . __ . __ . __ . __
 72
    65
 73
     4
 40
1.0
 49
0.5
 49
-0.25
 49
0.0
 49
-0.25
  0
LTYPE
  2
DIVIDE
 70
    64
  3
__ . . __ . . __ . . __ . . __ . . __ . . __
 72
    65
 73
     6
 40
1.25
 49
0.5
 49
-0.25
 49
0.0
 49
-0.25
 49
0.0
 49
-0.25
  0
LTYPE
  2
CENTER
 70
    64
  3
____ _ ____ _ ____ _ ____ _ ____ _ ____ _ ____ 
 72
    65
 73
     4
 40
2.0
 49
1.25
 49
-0.25
 49
0.25
 49
-0.25
  0
LTYPE
  2
PHANTOM
 70
    64
  3
______  __  __  ______  __  __  ______  __  __ 
 72
    65
 73
     6
 40
2.5
 49
1.25
 49
-0.25
 49
0.25
 49
-0.25
 49
0.25
 49
-0.25
  0
LTYPE
  2
BORDER
 70
    64
  3
__ __ . __ __ . __ __ . __ __ . __ __ . __ __ .
 72
    65
 73
     6
 40
1.75
 49
0.5
 49
-0.25
 49
0.5
 49
-0.25
 49
0.0
 49
-0.25
  0
ENDTAB
  0
TABLE
  2
LAYER
 70
    16
  0
LAYER
  2
CSLAYER1
 70
    64
 62
     7
  6
CONTINUOUS
  0
LAYER
  2
CSLAYER2
 70
    64
 62
     7
  6
CONTINUOUS
  0
LAYER
  2
CSLAYER3
 70
    64
 62
     7
  6
CONTINUOUS
  0
LAYER
  2
CSLAYER4
 70
    64
 62
     7
  6
CONTINUOUS
  0
LAYER
  2
CSLAYER5
 70
    64
 62
     7
  6
CONTINUOUS
  0
LAYER
  2
CSLAYER6
 70
    64
 62
     7
  6
CONTINUOUS
  0
LAYER
  2
CSLAYER7
 70
    64
 62
     7
  6
CONTINUOUS
  0
LAYER
  2
CSLAYER8
 70
    64
 62
     7
  6
CONTINUOUS
  0
LAYER
  2
CSLAYER9
 70
    64
 62
     7
  6
CONTINUOUS
  0
LAYER
  2
CSLAYER10
 70
    64
 62
     7
  6
CONTINUOUS
  0
LAYER
  2
CSLAYER11
 70
    64
 62
     7
  6
CONTINUOUS
  0
LAYER
  2
CSLAYER12
 70
    64
 62
     7
  6
CONTINUOUS
  0
LAYER
  2
CSLAYER13
 70
    64
 62
     7
  6
CONTINUOUS
  0
LAYER
  2
CSLAYER14
 70
    64
 62
     7
  6
CONTINUOUS
  0
LAYER
  2
CSLAYER15
 70
    64
 62
     7
  6
CONTINUOUS
  0
LAYER
  2
CSLAYER16
 70
    64
 62
     7
  6
CONTINUOUS
  0
ENDTAB
  0
TABLE
  2
STYLE
 70
     1
  0
STYLE
  2
JX_FONT
 70
     0
 40
1.0
 41
1.0
 50
0.0
 71
     0
 42
1.0
  3
monotxt
  4
bigfont
  0
ENDTAB
  0
TABLE
  2
VIEW
 70
     0
  0
ENDTAB
  0
ENDSEC
  0
SECTION
  2
BLOCKS
  0
ENDSEC
  0
SECTION
  2
ENTITIES
  0
LINE
  8
CSLAYER1
  6
CONTINUOUS
 62
     6
 10
430.500008
 20
285.614111
 11
430.500008
 21
286.614111
  0
LINE
  8
CSLAYER1
  6
CENTER
 62
     3
 10
400.500008
 20
402.614104
 11
400.499987
 21
197.614111
  0
LINE
  8
CSLAYER1
  6
CENTER
 62
     3
 10
231.975943
 20
402.614104
 11
231.975943
 21
197.614111
  0
LINE
  8
CSLAYER1
  6
CONTINUOUS
 62
     6
 10
261.975962
 20
285.614126
 11
261.975962
 21
286.614126
  0
LINE
  8
CSLAYER1
  6
CENTER
 62
     3
 10
435.500001
 20
497.367888
 11
329.499971
 21
497.367910
  0
CIRCLE
  8
CSLAYER1
  6
CONTINUOUS
 62
     6
 10
400.499985
 20
497.367903
 40
30.000000
  0
ARC
  8
CSLAYER1
  6
CONTINUOUS
 62
     6
 10
400.499985
 20
497.367903
 40
31.000000
 50
-175.930444
 51
175.930414
  0
LINE
  8
CSLAYER1
  6
CONTINUOUS
 62
     6
 10
362.165489
 20
495.167923
 11
370.580765
 21
495.167911
  0
LINE
  8
CSLAYER1
  6
CONTINUOUS
 62
     6
 10
362.165491
 20
499.567921
 11
370.580766
 21
499.567909
  0
LINE
  8
CSLAYER1
  6
CONTINUOUS
 62
     6
 10
362.165490
 20
497.367927
 11
370.580766
 21
497.367908
  0
ARC
  8
CSLAYER1
  6
CONTINUOUS
 62
     6
 10
359.253336
 20
481.608899
 40
15.759004
 50
90.000210
 51
117.463963
  0
ARC
  8
CSLAYER1
  6
CONTINUOUS
 62
     6
 10
359.253336
 20
481.608899
 40
13.559023
 50
90.000284
 51
117.463982
  0
ARC
  8
CSLAYER1
  6
CONTINUOUS
 62
     6
 10
363.118112
 20
496.817901
 40
1.099999
 50
149.999846
 51
209.999834
  0
ARC
  8
CSLAYER1
  6
CONTINUOUS
 62
     6
 10
363.118111
 20
495.717903
 40
1.099999
 50
149.999846
 51
209.999834
  0
ARC
  8
CSLAYER1
  6
CONTINUOUS
 62
     6
 10
361.212868
 20
495.717911
 40
1.099999
 50
-30.000166
 51
29.999829
  0
ARC
  8
CSLAYER1
  6
CONTINUOUS
 62
     6
 10
358.300628
 20
495.717922
 40
1.099999
 50
-30.000309
 51
29.999692
  0
ARC
  8
CSLAYER1
  6
CONTINUOUS
 62
     6
 10
358.300643
 20
496.817920
 40
1.099999
 50
-30.000309
 51
29.999692
  0
ARC
  8
CSLAYER1
  6
CONTINUOUS
 62
     6
 10
360.205901
 20
496.817912
 40
1.099999
 50
149.999709
 51
209.999697
  0
LINE
  8
CSLAYER1
  6
CONTINUOUS
 62
     6
 10
352.746397
 20
494.127844
 11
349.725398
 21
492.351000
  0
LINE
  8
CSLAYER1
  6
CONTINUOUS
 62
     6
 10
352.492750
 20
494.615860
 11
349.387192
 21
493.001684
  0
LINE
  8
CSLAYER1
  6
CONTINUOUS
 62
     6
 10
352.239097
 20
495.103872
 11
349.048986
 21
493.652367
  0
LINE
  8
CSLAYER1
  6
CONTINUOUS
 62
     6
 10
353.000052
 20
493.639831
 11
351.985435
 21
495.591881
  0
ARC
  8
CSLAYER1
  6
CONTINUOUS
 62
     6
 10
359.253177
 20
513.126882
 40
15.758933
 50
242.536515
 51
270.000373
  0
ARC
  8
CSLAYER1
  6
CONTINUOUS
 62
     6
 10
359.253177
 20
513.126882
 40
13.558951
 50
242.536613
 51
270.000393
  0
ARC
  8
CSLAYER1
  6
CONTINUOUS
 62
     6
 10
363.118113
 20
499.017944
 40
1.099999
 50
150.000174
 51
210.000162
  0
ARC
  8
CSLAYER1
  6
CONTINUOUS
 62
     6
 10
363.118112
 20
497.917945
 40
1.099999
 50
150.000174
 51
210.000162
  0
ARC
  8
CSLAYER1
  6
CONTINUOUS
 62
     6
 10
361.212869
 20
497.917938
 40
1.099999
 50
-29.999838
 51
30.000157
  0
ARC
  8
CSLAYER1
  6
CONTINUOUS
 62
     6
 10
358.300659
 20
497.917926
 40
1.099999
 50
-29.999674
 51
30.000321
  0
ARC
  8
CSLAYER1
  6
CONTINUOUS
 62
     6
 10
358.300644
 20
499.017925
 40
1.099999
 50
-29.999674
 51
30.000321
  0
ARC
  8
CSLAYER1
  6
CONTINUOUS
 62
     6
 10
360.205902
 20
499.017935
 40
1.099999
 50
150.000338
 51
210.000326
  0
LINE
  8
CSLAYER1
  6
CENTER
 62
     3
 10
400.499984
 20
457.367895
 11
400.500018
 21
537.367881
  0
CIRCLE
  8
CSLAYER1
  6
CONTINUOUS
 62
     6
 10
400.499985
 20
497.367911
 40
6.818180
  0
CIRCLE
  8
CSLAYER1
  6
CONTINUOUS
 62
     6
 10
400.499985
 20
497.367911
 40
7.909089
  0
LINE
  8
CSLAYER1
  6
CONTINUOUS
 62
     6
 10
400.499988
 20
504.186091
 11
397.090896
 21
493.958824
  0
LINE
  8
CSLAYER1
  6
CONTINUOUS
 62
     6
 10
397.090896
 20
493.958824
 11
400.499984
 21
493.917128
  0
LINE
  8
CSLAYER1
  6
CONTINUOUS
 62
     6
 10
400.499984
 20
493.917128
 11
400.499983
 21
490.549727
  0
LINE
  8
CSLAYER1
  6
CONTINUOUS
 62
     6
 10
403.909075
 20
500.776997
 11
400.499987
 21
500.753862
  0
LINE
  8
CSLAYER1
  6
CONTINUOUS
 62
     6
 10
400.499987
 20
500.753862
 11
400.499988
 21
504.186091
  0
TEXT
  8
CSLAYER1
 62
     6
 10
398.531921
 20
512.200684
 40
3.409090
 41
1.200000
  1
S
 50
191.999969
 51
3.000000
  7
JX_FONT
 72
     5
 11
395.864246
 21
511.633653
  0
TEXT
  8
CSLAYER1
 62
     6
 10
395.491028
 20
511.467438
 40
3.409090
 41
1.200000
  1
A
 50
204.000000
 51
3.000000
  7
JX_FONT
 72
     5
 11
392.999541
 21
510.358156
  0
TEXT
  8
CSLAYER1
 62
     6
 10
392.669006
 20
510.117889
 40
3.409090
 41
1.596000
  1
W
 50
216.000000
 51
3.000000
  7
JX_FONT
 72
     5
 11
389.734482
 21
507.985832
  0
TEXT
  8
CSLAYER1
 62
     6
 10
390.189270
 20
508.211090
 40
3.409090
 41
1.200000
  1
A
 50
227.999969
 51
3.000000
  7
JX_FONT
 72
     5
 11
388.364368
 21
506.184333
  0
TEXT
  8
CSLAYER1
 62
     6
 10
388.160156
 20
505.830475
 40
3.409090
 41
1.200000
  1
M
 50
239.999969
 51
3.000000
  7
JX_FONT
 72
     5
 11
386.796519
 21
503.468589
  0
TEXT
  8
CSLAYER1
 62
     6
 10
386.670410
 20
503.079926
 40
3.409090
 41
1.200000
  1
U
 50
251.999969
 51
3.000000
  7
JX_FONT
 72
     5
 11
385.827635
 21
500.486136
  0
TEXT
  8
CSLAYER1
 62
     6
 10
385.785034
 20
500.079803
 40
3.409090
 41
1.200000
  1
R
 50
263.999939
 51
3.000000
  7
JX_FONT
 72
     5
 11
385.499954
 21
497.367472
  0
TEXT
  8
CSLAYER1
 62
     6
 10
385.542725
 20
496.961090
 40
3.409090
 41
1.200000
  1
A
 50
275.999969
 51
3.000000
  7
JX_FONT
 72
     5
 11
385.827801
 21
494.248758
  0
TEXT
  8
CSLAYER1
 62
     6
 10
393.373718
 20
484.211212
 40
3.409090
 41
1.200000
  1
K
 50
336.000031
 51
3.000000
  7
JX_FONT
 72
     5
 11
395.865206
 21
483.101932
  0
TEXT
  8
CSLAYER1
 62
     6
 10
396.264832
 20
483.017059
 40
3.409090
 41
0.792000
  1
I
 50
347.999969
 51
3.000000
  7
JX_FONT
 72
     5
 11
398.025497
 21
482.642817
  0
TEXT
  8
CSLAYER1
 62
     6
 10
387.001343
 20
490.912628
 40
3.409090
 41
1.200000
  1
D
 50
300.000000
 51
3.000000
  7
JX_FONT
 72
     5
 11
388.364979
 21
488.550741
  0
TEXT
  8
CSLAYER1
 62
     6
 10
388.638428
 20
488.247162
 40
3.409090
 41
1.200000
  1
E
 50
311.999939
 51
3.000000
  7
JX_FONT
 72
     5
 11
390.463327
 21
486.220402
  0
TEXT
  8
CSLAYER1
 62
     6
 10
390.794006
 20
485.980316
 40
3.409090
 41
1.200000
  1
N
 50
324.000031
 51
3.000000
  7
JX_FONT
 72
     5
 11
393.000417
 21
484.377267
  0
TEXT
  8
CSLAYER1
 62
     6
 10
401.658752
 20
512.285767
 40
3.410000
 41
1.200000
  1
*
 50
179.999969
 51
3.000000
  7
JX_FONT
 72
     5
 11
398.930752
 21
512.285768
  0
TEXT
  8
CSLAYER1
 62
     6
 10
414.329590
 20
491.655914
 40
3.409090
 41
1.200000
  1
U
 50
71.999969
 51
3.000000
  7
JX_FONT
 72
     5
 11
415.172365
 21
494.249704
  0
TEXT
  8
CSLAYER1
 62
     6
 10
415.214966
 20
494.656036
 40
3.409090
 41
1.200000
  1
R
 50
83.999954
 51
3.000000
  7
JX_FONT
 72
     5
 11
415.500046
 21
497.368368
  0
TEXT
  8
CSLAYER1
 62
     6
 10
415.457214
 20
497.774750
 40
3.409090
 41
1.200000
  1
A
 50
95.999985
 51
3.000000
  7
JX_FONT
 72
     5
 11
415.172138
 21
500.487082
  0
TEXT
  8
CSLAYER1
 62
     6
 10
407.626282
 20
510.524628
 40
3.409090
 41
1.200000
  1
K
 50
156.000031
 51
3.000000
  7
JX_FONT
 72
     5
 11
405.134794
 21
511.633908
  0
TEXT
  8
CSLAYER1
 62
     6
 10
404.735107
 20
511.718781
 40
3.409090
 41
0.792000
  1
I
 50
167.999969
 51
3.000000
  7
JX_FONT
 72
     5
 11
402.974442
 21
512.093022
  0
TEXT
  8
CSLAYER1
 62
     6
 10
413.998657
 20
503.823212
 40
3.409090
 41
1.200000
  1
D
 50
120.000015
 51
3.000000
  7
JX_FONT
 72
     5
 11
412.635021
 21
506.185098
  0
TEXT
  8
CSLAYER1
 62
     6
 10
412.361511
 20
506.488678
 40
3.409090
 41
1.200000
  1
E
 50
131.999939
 51
3.000000
  7
JX_FONT
 72
     5
 11
410.536612
 21
508.515438
  0
TEXT
  8
CSLAYER1
 62
     6
 10
410.205994
 20
508.755524
 40
3.409090
 41
1.200000
  1
N
 50
144.000031
 51
3.000000
  7
JX_FONT
 72
     5
 11
407.999583
 21
510.358573
  0
TEXT
  8
CSLAYER1
 62
     6
 10
402.468079
 20
482.535126
 40
3.409090
 41
1.200000
  1
S
 50
11.999977
 51
3.000000
  7
JX_FONT
 72
     5
 11
405.135753
 21
483.102156
  0
TEXT
  8
CSLAYER1
 62
     6
 10
405.508972
 20
483.268402
 40
3.409090
 41
1.200000
  1
A
 50
24.000023
 51
3.000000
  7
JX_FONT
 72
     5
 11
408.000459
 21
484.377685
  0
TEXT
  8
CSLAYER1
 62
     6
 10
408.330933
 20
484.617950
 40
3.409090
 41
1.596000
  1
W
 50
36.000008
 51
3.000000
  7
JX_FONT
 72
     5
 11
411.265457
 21
486.750008
  0
TEXT
  8
CSLAYER1
 62
     6
 10
410.810669
 20
486.524750
 40
3.409090
 41
1.200000
  1
A
 50
48.000000
 51
3.000000
  7
JX_FONT
 72
     5
 11
412.635570
 21
488.551508
  0
TEXT
  8
CSLAYER1
 62
     6
 10
412.839783
 20
488.905365
 40
3.409090
 41
1.200000
  1
M
 50
59.999985
 51
3.000000
  7
JX_FONT
 72
     5
 11
414.203419
 21
491.267251
  0
TEXT
  8
CSLAYER1
 62
     6
 10
399.341248
 20
482.450043
 40
3.410000
 41
1.200000
  1
*
 50
359.999969
 51
3.000000
  7
JX_FONT
 72
     5
 11
402.069248
 21
482.450041
  0
CIRCLE
  8
CSLAYER1
  6
CONTINUOUS
 62
     6
 10
400.499985
 20
497.367911
 40
16.000000
  0
CIRCLE
  8
CSLAYER1
  6
CONTINUOUS
 62
     6
 10
400.499985
 20
497.367911
 40
17.000000
  0
LINE
  8
CSLAYER1
  6
CONTINUOUS
 62
     6
 10
400.499985
 20
490.549735
 11
403.909075
 21
500.776997
  0
LINE
  8
CSLAYER1
  6
CONTINUOUS
 62
     6
 10
400.500002
 20
500.753863
 11
400.499987
 21
500.753862
  0
LINE
  8
CSLAYER1
  6
CONTINUOUS
 62
     6
 10
352.746399
 20
500.607967
 11
349.725400
 21
502.384811
  0
LINE
  8
CSLAYER1
  6
CONTINUOUS
 62
     6
 10
352.492751
 20
500.119951
 11
349.387194
 21
501.734128
  0
LINE
  8
CSLAYER1
  6
CONTINUOUS
 62
     6
 10
352.239098
 20
499.631938
 11
349.048988
 21
501.083445
  0
LINE
  8
CSLAYER1
  6
CONTINUOUS
 62
     6
 10
353.000037
 20
501.095948
 11
351.985422
 21
499.143904
  0
LINE
  8
CSLAYER1
  6
CENTER
 62
     3
 10
433.000020
 20
523.367881
 11
420.066763
 21
523.367887
  0
CIRCLE
  8
CSLAYER1
  6
CONTINUOUS
 62
     6
 10
426.500027
 20
523.367876
 40
3.500000
  0
ARC
  8
CSLAYER1
  6
CONTINUOUS
 62
     6
 10
426.500027
 20
523.367888
 40
1.944444
 50
73.398391
 51
106.601553
  0
ARC
  8
CSLAYER1
  6
CONTINUOUS
 62
     6
 10
426.500027
 20
523.367888
 40
1.944444
 50
163.398397
 51
196.601559
  0
ARC
  8
CSLAYER1
  6
CONTINUOUS
 62
     6
 10
426.500027
 20
523.367888
 40
1.944444
 50
253.398414
 51
286.601548
  0
ARC
  8
CSLAYER1
  6
CONTINUOUS
 62
     6
 10
426.500027
 20
523.367888
 40
1.944444
 50
-16.601618
 51
16.601571
  0
LINE
  8
CSLAYER1
  6
CONTINUOUS
 62
     6
 10
425.944465
 20
522.256764
 11
425.944464
 21
521.504507
  0
LINE
  8
CSLAYER1
  6
CONTINUOUS
 62
     6
 10
425.944465
 20
524.479014
 11
425.944466
 21
525.231270
  0
LINE
  8
CSLAYER1
  6
CONTINUOUS
 62
     6
 10
427.055589
 20
522.256763
 11
427.055589
 21
521.504507
  0
LINE
  8
CSLAYER1
  6
CONTINUOUS
 62
     6
 10
427.055590
 20
524.479013
 11
427.055591
 21
525.231270
  0
LINE
  8
CSLAYER1
  6
CONTINUOUS
 62
     6
 10
425.388932
 20
523.923451
 11
424.636617
 21
523.923452
  0
LINE
  8
CSLAYER1
  6
CONTINUOUS
 62
     6
 10
427.611124
 20
523.923450
 11
428.363438
 21
523.923450
  0
LINE
  8
CSLAYER1
  6
CONTINUOUS
 62
     6
 10
425.388931
 20
522.812327
 11
424.636617
 21
522.812327
  0
LINE
  8
CSLAYER1
  6
CONTINUOUS
 62
     6
 10
427.611123
 20
522.812326
 11
428.363437
 21
522.812325
  0
ARC
  8
CSLAYER1
  6
CONTINUOUS
 62
     6
 10
425.388931
 20
522.256764
 40
0.555556
 50
-0.000024
 51
89.942667
  0
ARC
  8
CSLAYER1
  6
CONTINUOUS
 62
     6
 10
427.611123
 20
522.256763
 40
0.555556
 50
89.999986
 51
179.999992
  0
ARC
  8
CSLAYER1
  6
CONTINUOUS
 62
     6
 10
427.611124
 20
524.479013
 40
0.555556
 50
179.999992
 51
269.999981
  0
ARC
  8
CSLAYER1
  6
CONTINUOUS
 62
     6
 10
425.388932
 20
524.479014
 40
0.555556
 50
269.999981
 51
359.942630
  0
LINE
  8
CSLAYER1
  6
CENTER
 62
     3
 10
426.500014
 20
529.867892
 11
426.500009
 21
516.867876
  0
LINE
  8
CSLAYER1
  6
CENTER
 62
     3
 10
433.000009
 20
471.367895
 11
420.066752
 21
471.367895
  0
CIRCLE
  8
CSLAYER1
  6
CONTINUOUS
 62
     6
 10
426.500016
 20
471.367903
 40
3.500000
  0
ARC
  8
CSLAYER1
  6
CONTINUOUS
 62
     6
 10
426.500016
 20
471.367891
 40
1.944444
 50
253.398423
 51
286.601584
  0
ARC
  8
CSLAYER1
  6
CONTINUOUS
 62
     6
 10
426.500016
 20
471.367891
 40
1.944444
 50
163.398417
 51
196.601578
  0
ARC
  8
CSLAYER1
  6
CONTINUOUS
 62
     6
 10
426.500016
 20
471.367891
 40
1.944444
 50
73.398428
 51
106.601562
  0
ARC
  8
CSLAYER1
  6
CONTINUOUS
 62
     6
 10
426.500016
 20
471.367891
 40
1.944444
 50
-16.601595
 51
16.601594
  0
LINE
  8
CSLAYER1
  6
CONTINUOUS
 62
     6
 10
425.944454
 20
472.479015
 11
425.944454
 21
473.231272
  0
LINE
  8
CSLAYER1
  6
CONTINUOUS
 62
     6
 10
425.944454
 20
470.256766
 11
425.944454
 21
469.504509
  0
LINE
  8
CSLAYER1
  6
CONTINUOUS
 62
     6
 10
427.055579
 20
472.479015
 11
427.055579
 21
473.231272
  0
LINE
  8
CSLAYER1
  6
CONTINUOUS
 62
     6
 10
427.055579
 20
470.256766
 11
427.055579
 21
469.504509
  0
LINE
  8
CSLAYER1
  6
CONTINUOUS
 62
     6
 10
425.388921
 20
470.812328
 11
424.636606
 21
470.812328
  0
LINE
  8
CSLAYER1
  6
CONTINUOUS
 62
     6
 10
427.611112
 20
470.812328
 11
428.363427
 21
470.812328
  0
LINE
  8
CSLAYER1
  6
CONTINUOUS
 62
     6
 10
425.388921
 20
471.923453
 11
424.636606
 21
471.923453
  0
LINE
  8
CSLAYER1
  6
CONTINUOUS
 62
     6
 10
427.611112
 20
471.923453
 11
428.363427
 21
471.923453
  0
ARC
  8
CSLAYER1
  6
CONTINUOUS
 62
     6
 10
425.388921
 20
472.479015
 40
0.555556
 50
270.057309
 51
359.999999
  0
ARC
  8
CSLAYER1
  6
CONTINUOUS
 62
     6
 10
427.611112
 20
472.479015
 40
0.555556
 50
179.999984
 51
269.999990
  0
ARC
  8
CSLAYER1
  6
CONTINUOUS
 62
     6
 10
427.611112
 20
470.256766
 40
0.555556
 50
89.999995
 51
179.999984
  0
ARC
  8
CSLAYER1
  6
CONTINUOUS
 62
     6
 10
425.388921
 20
470.256766
 40
0.555556
 50
0.057346
 51
89.999995
  0
LINE
  8
CSLAYER1
  6
CENTER
 62
     3
 10
426.500001
 20
464.867887
 11
426.500001
 21
477.867903
  0
LINE
  8
CSLAYER1
  6
CENTER
 62
     3
 10
368.000003
 20
523.367909
 11
380.933261
 21
523.367903
  0
CIRCLE
  8
CSLAYER1
  6
CONTINUOUS
 62
     6
 10
374.499997
 20
523.367898
 40
3.500000
  0
ARC
  8
CSLAYER1
  6
CONTINUOUS
 62
     6
 10
374.499996
 20
523.367911
 40
1.944444
 50
73.398399
 51
106.601560
  0
ARC
  8
CSLAYER1
  6
CONTINUOUS
 62
     6
 10
374.499996
 20
523.367911
 40
1.944444
 50
-16.601608
 51
16.601554
  0
ARC
  8
CSLAYER1
  6
CONTINUOUS
 62
     6
 10
374.499996
 20
523.367911
 40
1.944444
 50
253.398404
 51
286.601538
  0
ARC
  8
CSLAYER1
  6
CONTINUOUS
 62
     6
 10
374.499996
 20
523.367911
 40
1.944444
 50
163.398381
 51
196.601569
  0
LINE
  8
CSLAYER1
  6
CONTINUOUS
 62
     6
 10
375.055558
 20
522.256785
 11
375.055558
 21
521.504529
  0
LINE
  8
CSLAYER1
  6
CONTINUOUS
 62
     6
 10
375.055559
 20
524.479035
 11
375.055559
 21
525.231292
  0
LINE
  8
CSLAYER1
  6
CONTINUOUS
 62
     6
 10
373.944433
 20
522.256786
 11
373.944433
 21
521.504529
  0
LINE
  8
CSLAYER1
  6
CONTINUOUS
 62
     6
 10
373.944434
 20
524.479036
 11
373.944434
 21
525.231292
  0
LINE
  8
CSLAYER1
  6
CONTINUOUS
 62
     6
 10
375.611092
 20
523.923472
 11
376.363407
 21
523.923472
  0
LINE
  8
CSLAYER1
  6
CONTINUOUS
 62
     6
 10
373.388900
 20
523.923473
 11
372.636586
 21
523.923474
  0
LINE
  8
CSLAYER1
  6
CONTINUOUS
 62
     6
 10
375.611092
 20
522.812348
 11
376.363406
 21
522.812347
  0
LINE
  8
CSLAYER1
  6
CONTINUOUS
 62
     6
 10
373.388900
 20
522.812349
 11
372.636586
 21
522.812349
  0
ARC
  8
CSLAYER1
  6
CONTINUOUS
 62
     6
 10
375.611091
 20
522.256785
 40
0.555556
 50
90.057285
 51
179.999975
  0
ARC
  8
CSLAYER1
  6
CONTINUOUS
 62
     6
 10
373.388900
 20
522.256786
 40
0.555556
 50
-0.000040
 51
89.999966
  0
ARC
  8
CSLAYER1
  6
CONTINUOUS
 62
     6
 10
373.388901
 20
524.479036
 40
0.555556
 50
269.999971
 51
359.999960
  0
ARC
  8
CSLAYER1
  6
CONTINUOUS
 62
     6
 10
375.611092
 20
524.479035
 40
0.555556
 50
180.057321
 51
269.999971
  0
LINE
  8
CSLAYER1
  6
CENTER
 62
     3
 10
374.500014
 20
529.867914
 11
374.500009
 21
516.867898
  0
LINE
  8
CSLAYER1
  6
CENTER
 62
     3
 10
367.999970
 20
471.367923
 11
380.933228
 21
471.367912
  0
CIRCLE
  8
CSLAYER1
  6
CONTINUOUS
 62
     6
 10
374.499964
 20
471.367925
 40
3.500000
  0
ARC
  8
CSLAYER1
  6
CONTINUOUS
 62
     6
 10
374.499963
 20
471.367913
 40
1.944444
 50
253.398367
 51
286.601529
  0
ARC
  8
CSLAYER1
  6
CONTINUOUS
 62
     6
 10
374.499963
 20
471.367913
 40
1.944444
 50
-16.601627
 51
16.601535
  0
ARC
  8
CSLAYER1
  6
CONTINUOUS
 62
     6
 10
374.499963
 20
471.367913
 40
1.944444
 50
73.398389
 51
106.601524
  0
ARC
  8
CSLAYER1
  6
CONTINUOUS
 62
     6
 10
374.499963
 20
471.367913
 40
1.944444
 50
163.398358
 51
196.601547
  0
LINE
  8
CSLAYER1
  6
CONTINUOUS
 62
     6
 10
375.055526
 20
472.479037
 11
375.055527
 21
473.231293
  0
LINE
  8
CSLAYER1
  6
CONTINUOUS
 62
     6
 10
375.055524
 20
470.256787
 11
375.055524
 21
469.504531
  0
LINE
  8
CSLAYER1
  6
CONTINUOUS
 62
     6
 10
373.944402
 20
472.479038
 11
373.944402
 21
473.231294
  0
LINE
  8
CSLAYER1
  6
CONTINUOUS
 62
     6
 10
373.944400
 20
470.256788
 11
373.944399
 21
469.504532
  0
LINE
  8
CSLAYER1
  6
CONTINUOUS
 62
     6
 10
375.611058
 20
470.812349
 11
376.363373
 21
470.812349
  0
LINE
  8
CSLAYER1
  6
CONTINUOUS
 62
     6
 10
373.388867
 20
470.812351
 11
372.636552
 21
470.812352
  0
LINE
  8
CSLAYER1
  6
CONTINUOUS
 62
     6
 10
375.611059
 20
471.923474
 11
376.363374
 21
471.923473
  0
LINE
  8
CSLAYER1
  6
CONTINUOUS
 62
     6
 10
373.388868
 20
471.923476
 11
372.636553
 21
471.923477
  0
ARC
  8
CSLAYER1
  6
CONTINUOUS
 62
     6
 10
375.611060
 20
472.479036
 40
0.555556
 50
179.999952
 51
269.942643
  0
ARC
  8
CSLAYER1
  6
CONTINUOUS
 62
     6
 10
373.388868
 20
472.479038
 40
0.555556
 50
269.999961
 51
359.999968
  0
ARC
  8
CSLAYER1
  6
CONTINUOUS
 62
     6
 10
373.388866
 20
470.256789
 40
0.555556
 50
-0.000032
 51
89.999956
  0
ARC
  8
CSLAYER1
  6
CONTINUOUS
 62
     6
 10
375.611058
 20
470.256787
 40
0.555556
 50
89.999956
 51
179.942606
  0
LINE
  8
CSLAYER1
  6
CENTER
 62
     3
 10
374.499973
 20
464.867909
 11
374.499984
 21
477.867925
  0
LINE
  8
CSLAYER1
  6
CONTINUOUS
 62
     6
 10
374.500014
 20
529.367906
 11
426.500014
 21
529.367884
  0
LINE
  8
CSLAYER1
  6
CONTINUOUS
 62
     6
 10
374.499974
 20
465.367906
 11
426.499987
 21
465.367884
  0
LINE
  8
CSLAYER1
  6
CONTINUOUS
 62
     6
 10
432.499990
 20
471.367881
 11
432.500012
 21
523.367881
  0
LINE
  8
CSLAYER1
  6
CONTINUOUS
 62
     6
 10
368.499990
 20
471.367909
 11
368.500000
 21
495.167913
  0
ARC
  8
CSLAYER1
  6
CONTINUOUS
 62
     6
 10
426.500012
 20
523.367884
 40
6.000000
 50
-0.000024
 51
89.999976
  0
LINE
  8
CSLAYER1
  6
CONTINUOUS
 62
     6
 10
368.500002
 20
499.567911
 11
368.500012
 21
523.367909
  0
ARC
  8
CSLAYER1
  6
CONTINUOUS
 62
     6
 10
426.500001
 20
471.367895
 40
6.000000
 50
270.000000
 51
360.000000
  0
ARC
  8
CSLAYER1
  6
CONTINUOUS
 62
     6
 10
374.500012
 20
523.367906
 40
6.000000
 50
89.999976
 51
179.999976
  0
ARC
  8
CSLAYER1
  6
CONTINUOUS
 62
     6
 10
374.499979
 20
471.367917
 40
6.000000
 50
179.999951
 51
269.999951
  0
LINE
  8
CSLAYER1
  6
CONTINUOUS
 62
     6
 10
348.500001
 20
534.367895
 11
426.500001
 21
534.367895
  0
LINE
  8
CSLAYER1
  6
CONTINUOUS
 62
     6
 10
368.843154
 20
525.367895
 11
332.500001
 21
525.367895
  0
LINE
  8
CSLAYER1
  6
CONTINUOUS
 62
     6
 10
368.500001
 20
520.367895
 11
332.500001
 21
520.367895
  0
LINE
  8
CSLAYER1
  6
CONTINUOUS
 62
     6
 10
368.500001
 20
480.367895
 11
338.999987
 21
480.367895
  0
LINE
  8
CSLAYER1
  6
CONTINUOUS
 62
     6
 10
346.500001
 20
528.367895
 11
346.500001
 21
532.367895
  0
LINE
  8
CSLAYER1
  6
CONTINUOUS
 62
     6
 10
345.500001
 20
462.367895
 11
345.500001
 21
477.367895
  0
LINE
  8
CSLAYER1
  6
CONTINUOUS
 62
     6
 10
335.999987
 20
483.367895
 11
335.999987
 21
495.367895
  0
LINE
  8
CSLAYER1
  6
CONTINUOUS
 62
     6
 10
332.500001
 20
499.367895
 11
332.500001
 21
525.367895
  0
LINE
  8
CSLAYER1
  6
CONTINUOUS
 62
     6
 10
347.500001
 20
460.367895
 11
426.500001
 21
460.367895
  0
ARC
  8
CSLAYER1
  6
CONTINUOUS
 62
     6
 10
342.500001
 20
477.367895
 40
3.000000
 50
0.000000
 51
90.000000
  0
ARC
  8
CSLAYER1
  6
CONTINUOUS
 62
     6
 10
338.999987
 20
483.367895
 40
3.000000
 50
180.000000
 51
270.000000
  0
ARC
  8
CSLAYER1
  6
CONTINUOUS
 62
     6
 10
343.500001
 20
528.367895
 40
3.000000
 50
270.000000
 51
360.000000
  0
ARC
  8
CSLAYER1
  6
CONTINUOUS
 62
     6
 10
348.500001
 20
532.367895
 40
2.000000
 50
90.000000
 51
180.000000
  0
ARC
  8
CSLAYER1
  6
CONTINUOUS
 62
     6
 10
334.500001
 20
499.367895
 40
2.000000
 50
180.000000
 51
262.819036
  0
ARC
  8
CSLAYER1
  6
CONTINUOUS
 62
     6
 10
347.500001
 20
462.367895
 40
2.000000
 50
180.000000
 51
270.000000
  0
LINE
  8
CSLAYER1
  6
CONTINUOUS
 62
     6
 10
389.500001
 20
462.367895
 11
389.500001
 21
465.367900
  0
ARC
  8
CSLAYER1
  6
CONTINUOUS
 62
     6
 10
387.500001
 20
462.367895
 40
2.000000
 50
270.000000
 51
360.000000
  0
LINE
  8
CSLAYER1
  6
CONTINUOUS
 62
     6
 10
388.500001
 20
529.367900
 11
388.500001
 21
532.367895
  0
ARC
  8
CSLAYER1
  6
CONTINUOUS
 62
     6
 10
386.500001
 20
532.367895
 40
2.000000
 50
0.000000
 51
90.000000
  0
ARC
  8
CSLAYER1
  6
CONTINUOUS
 62
     6
 10
364.604036
 20
526.096047
 40
0.104022
 50
89.999995
 51
179.999997
  0
ARC
  8
CSLAYER1
  6
CONTINUOUS
 62
     6
 10
364.604036
 20
525.471917
 40
0.104022
 50
179.999997
 51
270.000000
  0
LINE
  8
CSLAYER1
  6
CONTINUOUS
 62
     6
 10
364.500001
 20
526.096047
 11
364.500001
 21
525.471917
  0
LINE
  8
CSLAYER1
  6
CONTINUOUS
 62
     6
 10
366.863467
 20
526.200069
 11
367.325178
 21
525.367895
  0
LINE
  8
CSLAYER1
  6
CONTINUOUS
 62
     6
 10
367.383576
 20
526.200069
 11
367.845287
 21
525.367895
  0
LINE
  8
CSLAYER1
  6
CONTINUOUS
 62
     6
 10
364.604810
 20
526.435287
 11
364.663551
 21
527.116647
  0
ARC
  8
CSLAYER1
  6
CONTINUOUS
 62
     6
 10
365.725724
 20
527.022365
 40
1.074023
 50
106.257211
 51
174.999882
  0
ARC
  8
CSLAYER1
  6
CONTINUOUS
 62
     6
 10
364.817234
 20
526.416443
 40
0.214808
 50
175.000282
 51
270.000017
  0
LINE
  8
CSLAYER1
  6
CONTINUOUS
 62
     6
 10
364.604036
 20
526.200069
 11
369.210508
 21
526.200069
  0
ARC
  8
CSLAYER1
  6
CONTINUOUS
 62
     6
 10
369.274279
 20
527.022365
 40
1.074023
 50
29.904783
 51
73.742789
  0
LINE
  8
CSLAYER1
  6
CENTER
 62
     3
 10
335.500001
 20
517.367895
 11
335.500001
 21
531.453603
  0
ARC
  8
CSLAYER1
  6
CONTINUOUS
 62
     6
 10
332.604036
 20
526.096047
 40
0.104022
 50
89.999995
 51
179.999997
  0
ARC
  8
CSLAYER1
  6
CONTINUOUS
 62
     6
 10
332.604036
 20
525.471917
 40
0.104022
 50
179.999997
 51
270.000000
  0
LINE
  8
CSLAYER1
  6
CONTINUOUS
 62
     6
 10
332.500001
 20
526.096047
 11
332.500001
 21
525.471917
  0
LINE
  8
CSLAYER1
  6
CONTINUOUS
 62
     6
 10
334.863467
 20
526.200069
 11
335.325178
 21
525.367895
  0
LINE
  8
CSLAYER1
  6
CONTINUOUS
 62
     6
 10
335.383576
 20
526.200069
 11
335.845287
 21
525.367895
  0
LINE
  8
CSLAYER1
  6
CONTINUOUS
 62
     6
 10
332.604810
 20
526.435287
 11
332.663551
 21
527.116647
  0
ARC
  8
CSLAYER1
  6
CONTINUOUS
 62
     6
 10
333.725724
 20
527.022365
 40
1.074023
 50
106.257211
 51
174.999882
  0
ARC
  8
CSLAYER1
  6
CONTINUOUS
 62
     6
 10
332.817234
 20
526.416443
 40
0.214808
 50
175.000282
 51
270.000017
  0
LINE
  8
CSLAYER1
  6
CONTINUOUS
 62
     6
 10
332.604036
 20
526.200069
 11
338.395967
 21
526.200069
  0
ARC
  8
CSLAYER1
  6
CONTINUOUS
 62
     6
 10
338.395967
 20
526.096047
 40
0.104022
 50
0.000003
 51
90.000005
  0
ARC
  8
CSLAYER1
  6
CONTINUOUS
 62
     6
 10
338.395967
 20
525.471917
 40
0.104022
 50
-90.000000
 51
0.000003
  0
LINE
  8
CSLAYER1
  6
CONTINUOUS
 62
     6
 10
338.500001
 20
526.096047
 11
338.500001
 21
525.471917
  0
LINE
  8
CSLAYER1
  6
CONTINUOUS
 62
     6
 10
338.395192
 20
526.435287
 11
338.336451
 21
527.116647
  0
ARC
  8
CSLAYER1
  6
CONTINUOUS
 62
     6
 10
337.274279
 20
527.022365
 40
1.074023
 50
5.000118
 51
73.742789
  0
ARC
  8
CSLAYER1
  6
CONTINUOUS
 62
     6
 10
338.182768
 20
526.416443
 40
0.214808
 50
-90.000017
 51
4.999718
  0
LINE
  8
CSLAYER1
  6
CENTER
 62
     3
 10
367.500001
 20
429.264954
 11
367.500001
 21
537.367895
  0
LINE
  8
CSLAYER1
  6
CONTINUOUS
 62
     6
 10
372.500001
 20
432.867895
 11
372.500001
 21
452.367895
  0
LINE
  8
CSLAYER1
  6
CONTINUOUS
 62
     6
 10
373.500001
 20
452.367895
 11
373.500001
 21
460.367895
  0
LINE
  8
CSLAYER1
  6
CONTINUOUS
 62
     6
 10
373.500001
 20
452.367895
 11
361.500001
 21
452.367895
  0
LINE
  8
CSLAYER1
  6
CONTINUOUS
 62
     6
 10
362.500001
 20
432.867895
 11
362.500001
 21
452.367895
  0
LINE
  8
CSLAYER1
  6
CONTINUOUS
 62
     6
 10
361.500001
 20
452.367895
 11
361.500001
 21
460.367895
  0
LINE
  8
CSLAYER1
  6
CONTINUOUS
 62
     6
 10
372.000001
 20
432.367895
 11
363.000001
 21
432.367895
  0
LINE
  8
CSLAYER1
  6
CONTINUOUS
 62
     6
 10
372.500001
 20
432.867895
 11
372.000001
 21
432.367895
  0
LINE
  8
CSLAYER1
  6
CONTINUOUS
 62
     6
 10
362.500001
 20
432.867895
 11
363.000001
 21
432.367895
  0
LINE
  8
CSLAYER1
  6
CONTINUOUS
 62
     6
 10
372.500001
 20
432.867895
 11
362.500001
 21
432.867895
  0
LINE
  8
CSLAYER1
  6
CONTINUOUS
 62
     6
 10
432.500001
 20
466.367895
 11
432.500001
 21
528.367895
  0
ARC
  8
CSLAYER1
  6
CONTINUOUS
 62
     6
 10
426.500001
 20
466.367895
 40
6.000000
 50
270.000000
 51
360.000000
  0
ARC
  8
CSLAYER1
  6
CONTINUOUS
 62
     6
 10
426.500001
 20
528.367895
 40
6.000000
 50
0.000000
 51
90.000000
  0
ARC
  8
CSLAYER1
  6
CONTINUOUS
 62
     6
 10
367.516633
 20
520.790937
 40
7.572785
 50
74.176363
 51
106.066256
  0
ARC
  8
CSLAYER1
  6
CONTINUOUS
 62
     6
 10
335.516633
 20
520.790937
 40
7.572785
 50
74.176363
 51
106.066256
  0
ARC
  8
CSLAYER1
  6
CONTINUOUS
 62
     3
 10
388.500001
 20
527.367895
 40
3.000000
 50
41.810421
 51
89.999994
  0
ARC
  8
CSLAYER1
  6
CONTINUOUS
 62
     6
 10
388.500001
 20
527.367895
 40
2.400000
 50
56.442886
 51
89.999992
  0
ARC
  8
CSLAYER1
  6
CONTINUOUS
 62
     3
 10
426.500001
 20
527.367895
 40
3.000000
 50
27.279452
 51
138.189943
  0
ARC
  8
CSLAYER1
  6
CONTINUOUS
 62
     6
 10
426.500001
 20
527.367895
 40
2.400000
 50
47.873175
 51
123.557761
  0
ARC
  8
CSLAYER1
  6
CONTINUOUS
 62
     3
 10
388.500001
 20
467.367895
 40
3.000000
 50
289.471227
 51
318.189791
  0
ARC
  8
CSLAYER1
  6
CONTINUOUS
 62
     6
 10
388.500001
 20
467.367895
 40
2.400000
 50
294.624327
 51
303.557505
  0
ARC
  8
CSLAYER1
  6
CONTINUOUS
 62
     3
 10
426.500001
 20
467.367895
 40
3.000000
 50
221.810573
 51
332.720387
  0
ARC
  8
CSLAYER1
  6
CONTINUOUS
 62
     6
 10
426.500001
 20
467.367895
 40
2.400000
 50
236.443142
 51
312.126416
  0
LINE
  8
CSLAYER1
  6
CENTER
 62
     3
 10
532.164187
 20
402.614111
 11
532.164187
 21
197.614111
  0
LINE
  8
CSLAYER1
  6
CONTINUOUS
 62
     6
 10
501.164183
 20
286.614111
 11
501.164183
 21
368.614111
  0
LINE
  8
CSLAYER1
  6
CONTINUOUS
 62
     6
 10
563.164183
 20
286.614111
 11
563.164183
 21
368.614111
  0
LINE
  8
CSLAYER1
  6
CONTINUOUS
 62
     3
 10
505.317407
 20
301.746725
 11
505.317407
 21
337.746725
  0
ARC
  8
CSLAYER1
  6
CONTINUOUS
 62
     3
 10
506.317407
 20
301.746725
 40
1.000000
 50
179.999999
 51
269.999995
  0
ARC
  8
CSLAYER1
  6
CONTINUOUS
 62
     3
 10
506.317407
 20
337.746725
 40
1.000000
 50
90.057309
 51
179.999999
  0
LINE
  8
CSLAYER1
  6
CONTINUOUS
 62
     3
 10
558.010975
 20
300.746725
 11
506.317407
 21
300.746725
  0
LINE
  8
CSLAYER1
  6
CONTINUOUS
 62
     3
 10
558.010975
 20
338.746725
 11
506.317407
 21
338.746725
  0
TEXT
  8
CSLAYER1
 62
     3
 10
527.162598
 20
318.525696
 40
3.500000
 41
1.125000
  1
N P
 50
0.000000
 51
10.000000
  7
JX_FONT
 72
     5
 11
537.662598
 21
318.525696
  0
LINE
  8
CSLAYER1
  6
CONTINUOUS
 62
     3
 10
559.010975
 20
301.746725
 11
559.010975
 21
337.746725
  0
ARC
  8
CSLAYER1
  6
CONTINUOUS
 62
     3
 10
558.010975
 20
301.746725
 40
1.000000
 50
269.999995
 51
359.999991
  0
ARC
  8
CSLAYER1
  6
CONTINUOUS
 62
     3
 10
558.010975
 20
337.746725
 40
1.000000
 50
-0.000009
 51
89.942681
  0
LINE
  8
CSLAYER1
  6
CONTINUOUS
 62
     6
 10
501.164183
 20
368.614111
 11
563.164183
 21
368.614111
  0
LINE
  8
CSLAYER1
  6
CONTINUOUS
 62
     6
 10
560.623055
 20
399.614111
 11
503.705298
 21
399.614111
  0
LINE
  8
CSLAYER1
  6
CONTINUOUS
 62
     6
 10
561.640510
 20
398.614111
 11
502.687843
 21
398.614111
  0
LINE
  8
CSLAYER1
  6
CONTINUOUS
 62
     6
 10
502.687846
 20
398.614264
 11
502.164192
 21
368.614096
  0
LINE
  8
CSLAYER1
  6
CONTINUOUS
 62
     6
 10
562.164170
 20
368.614111
 11
561.640508
 21
398.614264
  0
LINE
  8
CSLAYER1
  6
CONTINUOUS
 62
     6
 10
560.623055
 20
399.614111
 11
561.640508
 21
398.614264
  0
LINE
  8
CSLAYER1
  6
CONTINUOUS
 62
     6
 10
502.687846
 20
398.614264
 11
503.705298
 21
399.614111
  0
LINE
  8
CSLAYER1
  6
CONTINUOUS
 62
     6
 10
501.164183
 20
286.614111
 11
563.164183
 21
286.614111
  0
LINE
  8
CSLAYER1
  6
CONTINUOUS
 62
     6
 10
502.164194
 20
286.614111
 11
502.164194
 21
285.614111
  0
LINE
  8
CSLAYER1
  6
CONTINUOUS
 62
     6
 10
562.164194
 20
286.614111
 11
562.164194
 21
285.614111
  0
LINE
  8
CSLAYER1
  6
CENTER
 62
     3
 10
506.164187
 20
292.203896
 11
506.164190
 21
263.614120
  0
LINE
  8
CSLAYER1
  6
CENTER
 62
     3
 10
558.164187
 20
292.203902
 11
558.164190
 21
263.614126
  0
ARC
  8
CSLAYER1
  6
CONTINUOUS
 62
     6
 10
554.664187
 20
286.489114
 40
0.125000
 50
90.000017
 51
180.000068
  0
ARC
  8
CSLAYER1
  6
CONTINUOUS
 62
     6
 10
561.664187
 20
286.489115
 40
0.125000
 50
0.000022
 51
90.000004
  0
ARC
  8
CSLAYER1
  6
CONTINUOUS
 62
     6
 10
554.664188
 20
285.739114
 40
0.125000
 50
180.000068
 51
270.000022
  0
ARC
  8
CSLAYER1
  6
CONTINUOUS
 62
     6
 10
561.664188
 20
285.739115
 40
0.125000
 50
-89.942641
 51
0.000022
  0
LINE
  8
CSLAYER1
  6
CONTINUOUS
 62
     6
 10
554.539187
 20
286.489114
 11
554.539188
 21
285.739114
  0
LINE
  8
CSLAYER1
  6
CONTINUOUS
 62
     6
 10
561.789187
 20
286.489115
 11
561.789188
 21
285.739115
  0
LINE
  8
CSLAYER1
  6
CONTINUOUS
 62
     6
 10
554.665164
 20
286.896767
 11
554.735720
 21
287.715524
  0
ARC
  8
CSLAYER1
  6
CONTINUOUS
 62
     6
 10
556.012088
 20
287.602243
 40
1.290623
 50
106.257234
 51
174.999932
  0
ARC
  8
CSLAYER1
  6
CONTINUOUS
 62
     6
 10
554.920413
 20
286.874123
 40
0.258129
 50
175.000315
 51
270.000022
  0
LINE
  8
CSLAYER1
  6
CONTINUOUS
 62
     6
 10
561.663211
 20
286.896769
 11
561.592654
 21
287.715525
  0
ARC
  8
CSLAYER1
  6
CONTINUOUS
 62
     6
 10
560.316287
 20
287.602244
 40
1.290623
 50
5.000103
 51
73.742842
  0
ARC
  8
CSLAYER1
  6
CONTINUOUS
 62
     6
 10
561.407962
 20
286.874125
 40
0.258129
 50
-89.942641
 51
4.999775
  0
ARC
  8
CSLAYER1
  6
CONTINUOUS
 62
     6
 10
558.164189
 20
280.114114
 40
9.089782
 50
73.970970
 51
106.034611
  0
LINE
  8
CSLAYER1
  6
CONTINUOUS
 62
     6
 10
558.909061
 20
285.614145
 11
558.354251
 21
286.614145
  0
LINE
  8
CSLAYER1
  6
CONTINUOUS
 62
     6
 10
558.284061
 20
285.614145
 11
557.729251
 21
286.614145
  0
ARC
  8
CSLAYER1
  6
CONTINUOUS
 62
     6
 10
502.664187
 20
286.489114
 40
0.125000
 50
90.000017
 51
180.000068
  0
ARC
  8
CSLAYER1
  6
CONTINUOUS
 62
     6
 10
509.664187
 20
286.489115
 40
0.125000
 50
0.000022
 51
90.000004
  0
ARC
  8
CSLAYER1
  6
CONTINUOUS
 62
     6
 10
502.664188
 20
285.739114
 40
0.125000
 50
180.000068
 51
270.000022
  0
ARC
  8
CSLAYER1
  6
CONTINUOUS
 62
     6
 10
509.664188
 20
285.739115
 40
0.125000
 50
-89.942641
 51
0.000022
  0
LINE
  8
CSLAYER1
  6
CONTINUOUS
 62
     6
 10
502.539187
 20
286.489114
 11
502.539188
 21
285.739114
  0
LINE
  8
CSLAYER1
  6
CONTINUOUS
 62
     6
 10
509.789187
 20
286.489115
 11
509.789188
 21
285.739115
  0
LINE
  8
CSLAYER1
  6
CONTINUOUS
 62
     6
 10
502.665164
 20
286.896767
 11
502.735720
 21
287.715524
  0
ARC
  8
CSLAYER1
  6
CONTINUOUS
 62
     6
 10
504.012088
 20
287.602243
 40
1.290623
 50
106.257234
 51
174.999932
  0
ARC
  8
CSLAYER1
  6
CONTINUOUS
 62
     6
 10
502.920413
 20
286.874123
 40
0.258129
 50
175.000315
 51
270.000022
  0
LINE
  8
CSLAYER1
  6
CONTINUOUS
 62
     6
 10
509.663211
 20
286.896769
 11
509.592654
 21
287.715525
  0
ARC
  8
CSLAYER1
  6
CONTINUOUS
 62
     6
 10
508.316287
 20
287.602244
 40
1.290623
 50
5.000103
 51
73.742842
  0
ARC
  8
CSLAYER1
  6
CONTINUOUS
 62
     6
 10
509.407962
 20
286.874125
 40
0.258129
 50
-89.942641
 51
4.999775
  0
ARC
  8
CSLAYER1
  6
CONTINUOUS
 62
     6
 10
506.164189
 20
280.114114
 40
9.089782
 50
73.970970
 51
106.034611
  0
LINE
  8
CSLAYER1
  6
CONTINUOUS
 62
     6
 10
506.909061
 20
285.614145
 11
506.354251
 21
286.614145
  0
LINE
  8
CSLAYER1
  6
CONTINUOUS
 62
     6
 10
506.284061
 20
285.614145
 11
505.729251
 21
286.614145
  0
LINE
  8
CSLAYER1
  6
CONTINUOUS
 62
     6
 10
564.164207
 20
276.614111
 11
500.164176
 21
276.614111
  0
LINE
  8
CSLAYER1
  6
CONTINUOUS
 62
     6
 10
502.164176
 20
285.614114
 11
502.164176
 21
286.614114
  0
ARC
  8
CSLAYER1
  6
CONTINUOUS
 62
     6
 10
502.164176
 20
283.614114
 40
2.000000
 50
90.000009
 51
179.999997
  0
LINE
  8
CSLAYER1
  6
CONTINUOUS
 62
     6
 10
500.164176
 20
283.614114
 11
500.164176
 21
268.614111
  0
ARC
  8
CSLAYER1
  6
CONTINUOUS
 62
     6
 10
562.164207
 20
283.614114
 40
2.000000
 50
0.000027
 51
89.999995
  0
LINE
  8
CSLAYER1
  6
CONTINUOUS
 62
     6
 10
564.164207
 20
283.614114
 11
564.164207
 21
268.614111
  0
LINE
  8
CSLAYER1
  6
CONTINUOUS
 62
     6
 10
502.164176
 20
285.614114
 11
562.164207
 21
285.614114
  0
ARC
  8
CSLAYER1
  6
CONTINUOUS
 62
     6
 10
364.604021
 20
67.818345
 40
0.104022
 50
180.000003
 51
270.000005
  0
ARC
  8
CSLAYER1
  6
CONTINUOUS
 62
     6
 10
364.604021
 20
68.442475
 40
0.104022
 50
90.000000
 51
180.000003
  0
LINE
  8
CSLAYER1
  6
CONTINUOUS
 62
     6
 10
364.499987
 20
67.818345
 11
364.499987
 21
68.442475
  0
LINE
  8
CSLAYER1
  6
CONTINUOUS
 62
     6
 10
368.136521
 20
67.714323
 11
367.674810
 21
68.546497
  0
LINE
  8
CSLAYER1
  6
CONTINUOUS
 62
     6
 10
367.616412
 20
67.714323
 11
367.154701
 21
68.546497
  0
LINE
  8
CSLAYER1
  6
CONTINUOUS
 62
     6
 10
364.604796
 20
67.479105
 11
364.663537
 21
66.797745
  0
ARC
  8
CSLAYER1
  6
CONTINUOUS
 62
     6
 10
365.725709
 20
66.892027
 40
1.074023
 50
185.000118
 51
253.742789
  0
ARC
  8
CSLAYER1
  6
CONTINUOUS
 62
     6
 10
364.817220
 20
67.497949
 40
0.214808
 50
89.999983
 51
184.999718
  0
LINE
  8
CSLAYER1
  6
CONTINUOUS
 62
     6
 10
364.604021
 20
67.714323
 11
368.499986
 21
67.714323
  0
LINE
  8
CSLAYER1
  6
CENTER
 62
     3
 10
335.499987
 20
76.546497
 11
335.499987
 21
62.460789
  0
ARC
  8
CSLAYER1
  6
CONTINUOUS
 62
     6
 10
332.604021
 20
67.818345
 40
0.104022
 50
180.000003
 51
270.000005
  0
ARC
  8
CSLAYER1
  6
CONTINUOUS
 62
     6
 10
332.604021
 20
68.442475
 40
0.104022
 50
90.000000
 51
180.000003
  0
LINE
  8
CSLAYER1
  6
CONTINUOUS
 62
     6
 10
332.499987
 20
67.818345
 11
332.499987
 21
68.442475
  0
LINE
  8
CSLAYER1
  6
CONTINUOUS
 62
     6
 10
336.136521
 20
67.714323
 11
335.674810
 21
68.546497
  0
LINE
  8
CSLAYER1
  6
CONTINUOUS
 62
     6
 10
335.616412
 20
67.714323
 11
335.154701
 21
68.546497
  0
LINE
  8
CSLAYER1
  6
CONTINUOUS
 62
     6
 10
332.604796
 20
67.479105
 11
332.663537
 21
66.797745
  0
ARC
  8
CSLAYER1
  6
CONTINUOUS
 62
     6
 10
333.725709
 20
66.892027
 40
1.074023
 50
185.000118
 51
253.742789
  0
ARC
  8
CSLAYER1
  6
CONTINUOUS
 62
     6
 10
332.817220
 20
67.497949
 40
0.214808
 50
89.999983
 51
184.999718
  0
LINE
  8
CSLAYER1
  6
CONTINUOUS
 62
     6
 10
332.604021
 20
67.714323
 11
338.395952
 21
67.714323
  0
ARC
  8
CSLAYER1
  6
CONTINUOUS
 62
     6
 10
338.395952
 20
67.818345
 40
0.104022
 50
269.999995
 51
359.999997
  0
ARC
  8
CSLAYER1
  6
CONTINUOUS
 62
     6
 10
338.395952
 20
68.442475
 40
0.104022
 50
-0.000003
 51
90.000000
  0
LINE
  8
CSLAYER1
  6
CONTINUOUS
 62
     6
 10
338.499987
 20
67.818345
 11
338.499987
 21
68.442475
  0
LINE
  8
CSLAYER1
  6
CONTINUOUS
 62
     6
 10
338.395178
 20
67.479105
 11
338.336437
 21
66.797745
  0
ARC
  8
CSLAYER1
  6
CONTINUOUS
 62
     6
 10
337.274264
 20
66.892027
 40
1.074023
 50
286.257211
 51
354.999882
  0
ARC
  8
CSLAYER1
  6
CONTINUOUS
 62
     6
 10
338.182753
 20
67.497949
 40
0.214808
 50
-4.999718
 51
90.000017
  0
LINE
  8
CSLAYER1
  6
CENTER
 62
     3
 10
367.499987
 20
164.649438
 11
367.499987
 21
56.546497
  0
LINE
  8
CSLAYER1
  6
CONTINUOUS
 62
     6
 10
372.499987
 20
161.046497
 11
372.499987
 21
141.546497
  0
LINE
  8
CSLAYER1
  6
CONTINUOUS
 62
     6
 10
373.499987
 20
141.546497
 11
373.499987
 21
133.546497
  0
LINE
  8
CSLAYER1
  6
CONTINUOUS
 62
     6
 10
373.499987
 20
141.546497
 11
361.499987
 21
141.546497
  0
LINE
  8
CSLAYER1
  6
CONTINUOUS
 62
     6
 10
362.499987
 20
161.046497
 11
362.499987
 21
141.546497
  0
LINE
  8
CSLAYER1
  6
CONTINUOUS
 62
     6
 10
361.499987
 20
141.546497
 11
361.499987
 21
133.546497
  0
LINE
  8
CSLAYER1
  6
CONTINUOUS
 62
     6
 10
371.999987
 20
161.546497
 11
362.999987
 21
161.546497
  0
LINE
  8
CSLAYER1
  6
CONTINUOUS
 62
     6
 10
369.679440
 20
161.546497
 11
369.679440
 21
146.546497
  0
LINE
  8
CSLAYER1
  6
CONTINUOUS
 62
     6
 10
365.320533
 20
161.546497
 11
365.320533
 21
146.546497
  0
LINE
  8
CSLAYER1
  6
CONTINUOUS
 62
     6
 10
369.679440
 20
146.546497
 11
365.320533
 21
146.546497
  0
LINE
  8
CSLAYER1
  6
CONTINUOUS
 62
     3
 10
369.679440
 20
161.546497
 11
365.320533
 21
146.546497
  0
LINE
  8
CSLAYER1
  6
CONTINUOUS
 62
     3
 10
369.679440
 20
146.546497
 11
365.320533
 21
161.546497
  0
LINE
  8
CSLAYER1
  6
CONTINUOUS
 62
     6
 10
372.499987
 20
161.046497
 11
371.999987
 21
161.546497
  0
LINE
  8
CSLAYER1
  6
CONTINUOUS
 62
     6
 10
362.499987
 20
161.046497
 11
362.999987
 21
161.546497
  0
LINE
  8
CSLAYER1
  6
CONTINUOUS
 62
     6
 10
372.499987
 20
161.046497
 11
369.679440
 21
161.046497
  0
LINE
  8
CSLAYER1
  6
CONTINUOUS
 62
     6
 10
365.320533
 20
161.046497
 11
362.499987
 21
161.046497
  0
LINE
  8
CSLAYER1
  6
CENTER
 62
     3
 10
400.499986
 20
136.546497
 11
400.499986
 21
56.546497
  0
LINE
  8
CSLAYER1
  6
CENTER
 62
     3
 10
435.499986
 20
96.546497
 11
329.500007
 21
96.546497
  0
LINE
  8
CSLAYER1
  6
CONTINUOUS
 62
     6
 10
432.499986
 20
127.546497
 11
432.499986
 21
65.546497
  0
LINE
  8
CSLAYER1
  6
CONTINUOUS
 62
     6
 10
368.499986
 20
127.546497
 11
368.499986
 21
65.546497
  0
LINE
  8
CSLAYER1
  6
CONTINUOUS
 62
     6
 10
426.499986
 20
133.546497
 11
347.499987
 21
133.546497
  0
LINE
  8
CSLAYER1
  6
CONTINUOUS
 62
     6
 10
426.499986
 20
59.546497
 11
348.499987
 21
59.546497
  0
LINE
  8
CSLAYER1
  6
CONTINUOUS
 62
     6
 10
426.499986
 20
104.546497
 11
426.499986
 21
88.546497
  0
LINE
  8
CSLAYER1
  6
CONTINUOUS
 62
     6
 10
374.499986
 20
114.546497
 11
374.499986
 21
78.546497
  0
ARC
  8
CSLAYER1
  6
CONTINUOUS
 62
     6
 10
426.499986
 20
127.546497
 40
6.000000
 50
0.000000
 51
90.000000
  0
ARC
  8
CSLAYER1
  6
CONTINUOUS
 62
     6
 10
426.499986
 20
65.546497
 40
6.000000
 50
270.000000
 51
360.000000
  0
ARC
  8
CSLAYER1
  6
CONTINUOUS
 62
     6
 10
374.499986
 20
127.546497
 40
6.000000
 50
90.000000
 51
180.000000
  0
ARC
  8
CSLAYER1
  6
CONTINUOUS
 62
     6
 10
374.499986
 20
65.546497
 40
6.000000
 50
180.000000
 51
270.000000
  0
LINE
  8
CSLAYER1
  6
CONTINUOUS
 62
     6
 10
414.499986
 20
122.586249
 11
414.499986
 21
116.546497
  0
ARC
  8
CSLAYER1
  6
CONTINUOUS
 62
     6
 10
422.499986
 20
88.546497
 40
4.000000
 50
270.000000
 51
360.000000
  0
ARC
  8
CSLAYER1
  6
CONTINUOUS
 62
     6
 10
422.499986
 20
104.546497
 40
4.000000
 50
0.000000
 51
90.000000
  0
ARC
  8
CSLAYER1
  6
CONTINUOUS
 62
     6
 10
422.499986
 20
76.546497
 40
8.000000
 50
90.000000
 51
180.000000
  0
ARC
  8
CSLAYER1
  6
CONTINUOUS
 62
     6
 10
422.499986
 20
116.546497
 40
8.000000
 50
180.000000
 51
270.000000
  0
LINE
  8
CSLAYER1
  6
CONTINUOUS
 62
     6
 10
414.499986
 20
76.546497
 11
414.499986
 21
70.506745
  0
LINE
  8
CSLAYER1
  6
CONTINUOUS
 62
     6
 10
389.088475
 20
74.546497
 11
378.499986
 21
74.546497
  0
LINE
  8
CSLAYER1
  6
CONTINUOUS
 62
     6
 10
389.186278
 20
118.546497
 11
378.499986
 21
118.546497
  0
ARC
  8
CSLAYER1
  6
CONTINUOUS
 62
     6
 10
378.499986
 20
114.546497
 40
4.000000
 50
90.000000
 51
180.000000
  0
ARC
  8
CSLAYER1
  6
CONTINUOUS
 62
     6
 10
378.499986
 20
78.546497
 40
4.000000
 50
180.000000
 51
270.000000
  0
LINE
  8
CSLAYER1
  6
CONTINUOUS
 62
     6
 10
409.539739
 20
65.546497
 11
401.428834
 21
65.546497
  0
ARC
  8
CSLAYER1
  6
CONTINUOUS
 62
     6
 10
389.088475
 20
66.546497
 40
8.000000
 50
17.792389
 51
90.000000
  0
LINE
  8
CSLAYER1
  6
CONTINUOUS
 62
     6
 10
409.539739
 20
127.546497
 11
401.428834
 21
127.546497
  0
ARC
  8
CSLAYER1
  6
CONTINUOUS
 62
     6
 10
389.088475
 20
126.546497
 40
8.000000
 50
270.000000
 51
342.207611
  0
LINE
  8
CSLAYER1
  6
CONTINUOUS
 62
     6
 10
368.499986
 20
68.546497
 11
332.499987
 21
68.546497
  0
LINE
  8
CSLAYER1
  6
CONTINUOUS
 62
     6
 10
368.499986
 20
73.546497
 11
332.499987
 21
73.546497
  0
LINE
  8
CSLAYER1
  6
CONTINUOUS
 62
     6
 10
368.499986
 20
113.546497
 11
338.999987
 21
113.546497
  0
LINE
  8
CSLAYER1
  6
CONTINUOUS
 62
     6
 10
346.499987
 20
65.546497
 11
346.499987
 21
61.546497
  0
LINE
  8
CSLAYER1
  6
CONTINUOUS
 62
     6
 10
345.499987
 20
131.546497
 11
345.499987
 21
116.546497
  0
LINE
  8
CSLAYER1
  6
CONTINUOUS
 62
     6
 10
335.999987
 20
110.546497
 11
335.999987
 21
98.447599
  0
LINE
  8
CSLAYER1
  6
CONTINUOUS
 62
     6
 10
332.499987
 20
94.546497
 11
332.499987
 21
68.546497
  0
ARC
  8
CSLAYER1
  6
CONTINUOUS
 62
     6
 10
342.499987
 20
116.546497
 40
3.000000
 50
270.000000
 51
360.000000
  0
ARC
  8
CSLAYER1
  6
CONTINUOUS
 62
     6
 10
343.499987
 20
65.546497
 40
3.000000
 50
0.000000
 51
90.000000
  0
ARC
  8
CSLAYER1
  6
CONTINUOUS
 62
     6
 10
348.499987
 20
61.546497
 40
2.000000
 50
180.000000
 51
270.000000
  0
ARC
  8
CSLAYER1
  6
CONTINUOUS
 62
     6
 10
334.499987
 20
94.546497
 40
2.000000
 50
97.180756
 51
180.000000
  0
ARC
  8
CSLAYER1
  6
CONTINUOUS
 62
     6
 10
347.499987
 20
131.546497
 40
2.000000
 50
90.000000
 51
180.000000
  0
ARC
  8
CSLAYER1
  6
CONTINUOUS
 62
     6
 10
367.516618
 20
73.123455
 40
7.572785
 50
253.933744
 51
277.394741
  0
ARC
  8
CSLAYER1
  6
CONTINUOUS
 62
     6
 10
335.516618
 20
73.123455
 40
7.572785
 50
253.933744
 51
285.823637
  0
CIRCLE
  8
CSLAYER1
  6
CONTINUOUS
 62
     3
 10
388.499986
 20
66.546497
 40
3.000000
  0
CIRCLE
  8
CSLAYER1
  6
CONTINUOUS
 62
     6
 10
388.499986
 20
66.546497
 40
2.400000
  0
LINE
  8
CSLAYER1
  6
CENTER
 62
     3
 10
388.499986
 20
71.546497
 11
388.499986
 21
61.546497
  0
LINE
  8
CSLAYER1
  6
CENTER
 62
     3
 10
393.499986
 20
66.546497
 11
383.499986
 21
66.546497
  0
CIRCLE
  8
CSLAYER1
  6
CONTINUOUS
 62
     3
 10
426.499986
 20
66.546497
 40
3.000000
  0
CIRCLE
  8
CSLAYER1
  6
CONTINUOUS
 62
     6
 10
426.499986
 20
66.546497
 40
2.400000
  0
LINE
  8
CSLAYER1
  6
CENTER
 62
     3
 10
426.499986
 20
71.546497
 11
426.499986
 21
61.546497
  0
LINE
  8
CSLAYER1
  6
CENTER
 62
     3
 10
431.499986
 20
66.546497
 11
421.499986
 21
66.546497
  0
CIRCLE
  8
CSLAYER1
  6
CONTINUOUS
 62
     3
 10
388.499986
 20
126.546497
 40
3.000000
  0
CIRCLE
  8
CSLAYER1
  6
CONTINUOUS
 62
     6
 10
388.499986
 20
126.546497
 40
2.400000
  0
LINE
  8
CSLAYER1
  6
CENTER
 62
     3
 10
388.499986
 20
121.546497
 11
388.499986
 21
131.546497
  0
LINE
  8
CSLAYER1
  6
CENTER
 62
     3
 10
393.499986
 20
126.546497
 11
383.499986
 21
126.546497
  0
CIRCLE
  8
CSLAYER1
  6
CONTINUOUS
 62
     3
 10
426.499986
 20
126.546497
 40
3.000000
  0
CIRCLE
  8
CSLAYER1
  6
CONTINUOUS
 62
     6
 10
426.499986
 20
126.546497
 40
2.400000
  0
LINE
  8
CSLAYER1
  6
CENTER
 62
     3
 10
426.499986
 20
121.546497
 11
426.499986
 21
131.546497
  0
LINE
  8
CSLAYER1
  6
CENTER
 62
     3
 10
431.499986
 20
126.546497
 11
421.499986
 21
126.546497
  0
LINE
  8
CSLAYER1
  6
CONTINUOUS
 62
     6
 10
502.164176
 20
266.614111
 11
562.164207
 21
266.614111
  0
LINE
  8
CSLAYER1
  6
CONTINUOUS
 62
     6
 10
497.164187
 20
210.614111
 11
567.164187
 21
210.614111
  0
LINE
  8
CSLAYER1
  6
CONTINUOUS
 62
     6
 10
495.164187
 20
200.614111
 11
569.164187
 21
200.614111
  0
LINE
  8
CSLAYER1
  6
CONTINUOUS
 62
     6
 10
569.164187
 20
208.614111
 11
569.164187
 21
200.614111
  0
LINE
  8
CSLAYER1
  6
CONTINUOUS
 62
     6
 10
495.164187
 20
208.614111
 11
495.164187
 21
200.614111
  0
ARC
  8
CSLAYER1
  6
CONTINUOUS
 62
     6
 10
567.164187
 20
208.614111
 40
2.000000
 50
0.000000
 51
90.000000
  0
ARC
  8
CSLAYER1
  6
CONTINUOUS
 62
     6
 10
497.164187
 20
208.614111
 40
2.000000
 50
90.000000
 51
180.000000
  0
ARC
  8
CSLAYER1
  6
CONTINUOUS
 62
     6
 10
502.164176
 20
268.614111
 40
2.000000
 50
180.000000
 51
270.000000
  0
ARC
  8
CSLAYER1
  6
CONTINUOUS
 62
     6
 10
562.164207
 20
268.614111
 40
2.000000
 50
270.000000
 51
360.000000
  0
LINE
  8
CSLAYER1
  6
CONTINUOUS
 62
     6
 10
553.164187
 20
264.614111
 11
553.164187
 21
212.614111
  0
LINE
  8
CSLAYER1
  6
CONTINUOUS
 62
     6
 10
495.164187
 20
258.614111
 11
495.164187
 21
218.614111
  0
LINE
  8
CSLAYER1
  6
CONTINUOUS
 62
     6
 10
497.164187
 20
260.614111
 11
511.164187
 21
260.614111
  0
LINE
  8
CSLAYER1
  6
CONTINUOUS
 62
     6
 10
497.164187
 20
216.614111
 11
511.164187
 21
216.614111
  0
ARC
  8
CSLAYER1
  6
CONTINUOUS
 62
     6
 10
497.164187
 20
258.614111
 40
2.000000
 50
90.000000
 51
180.000000
  0
ARC
  8
CSLAYER1
  6
CONTINUOUS
 62
     6
 10
497.164187
 20
218.614111
 40
2.000000
 50
180.000000
 51
270.000000
  0
LINE
  8
CSLAYER1
  6
CONTINUOUS
 62
     6
 10
511.164187
 20
264.614111
 11
511.164187
 21
212.614111
  0
ARC
  8
CSLAYER1
  6
CONTINUOUS
 62
     6
 10
509.164187
 20
212.614111
 40
2.000000
 50
270.000000
 51
360.000000
  0
ARC
  8
CSLAYER1
  6
CONTINUOUS
 62
     6
 10
509.164187
 20
264.614111
 40
2.000000
 50
0.000000
 51
90.000000
  0
LINE
  8
CSLAYER1
  6
CONTINUOUS
 62
     6
 10
487.164187
 20
244.614111
 11
487.164187
 21
232.614111
  0
LINE
  8
CSLAYER1
  6
CONTINUOUS
 62
     6
 10
467.164187
 20
243.114111
 11
467.164187
 21
234.614111
  0
LINE
  8
CSLAYER1
  6
CONTINUOUS
 62
     6
 10
495.164187
 20
244.614111
 11
487.164187
 21
244.614111
  0
LINE
  8
CSLAYER1
  6
CONTINUOUS
 62
     6
 10
487.164187
 20
243.614111
 11
467.664187
 21
243.614111
  0
LINE
  8
CSLAYER1
  6
CONTINUOUS
 62
     6
 10
467.664187
 20
234.114111
 11
482.164187
 21
234.114111
  0
LINE
  8
CSLAYER1
  6
CONTINUOUS
 62
     6
 10
482.164187
 20
234.114111
 11
482.164187
 21
233.614111
  0
LINE
  8
CSLAYER1
  6
CONTINUOUS
 62
     6
 10
482.164187
 20
233.614111
 11
487.164187
 21
233.614111
  0
LINE
  8
CSLAYER1
  6
CONTINUOUS
 62
     6
 10
487.164187
 20
232.614111
 11
495.164187
 21
232.614111
  0
LINE
  8
CSLAYER1
  6
CONTINUOUS
 62
     6
 10
467.664187
 20
243.614111
 11
467.164187
 21
243.114111
  0
LINE
  8
CSLAYER1
  6
CONTINUOUS
 62
     6
 10
467.164187
 20
234.614111
 11
467.664187
 21
234.114111
  0
LINE
  8
CSLAYER1
  6
CONTINUOUS
 62
     6
 10
569.164187
 20
258.614111
 11
569.164187
 21
218.614111
  0
LINE
  8
CSLAYER1
  6
CONTINUOUS
 62
     6
 10
560.164187
 20
266.614111
 11
560.164187
 21
210.614111
  0
LINE
  8
CSLAYER1
  6
CONTINUOUS
 62
     6
 10
560.164187
 20
233.175701
 11
553.164187
 21
233.175701
  0
LINE
  8
CSLAYER1
  6
CONTINUOUS
 62
     6
 10
553.164187
 20
244.052522
 11
560.164187
 21
244.052522
  0
LINE
  8
CSLAYER1
  6
CONTINUOUS
 62
     6
 10
563.164187
 20
260.614111
 11
567.164187
 21
260.614111
  0
LINE
  8
CSLAYER1
  6
CONTINUOUS
 62
     6
 10
563.164187
 20
216.614111
 11
567.164187
 21
216.614111
  0
ARC
  8
CSLAYER1
  6
CONTINUOUS
 62
     6
 10
567.164187
 20
218.614111
 40
2.000000
 50
270.000000
 51
360.000000
  0
ARC
  8
CSLAYER1
  6
CONTINUOUS
 62
     6
 10
567.164187
 20
258.614111
 40
2.000000
 50
0.000000
 51
90.000000
  0
ARC
  8
CSLAYER1
  6
CONTINUOUS
 62
     6
 10
563.164187
 20
213.614111
 40
3.000000
 50
90.000000
 51
180.000000
  0
ARC
  8
CSLAYER1
  6
CONTINUOUS
 62
     6
 10
563.164187
 20
263.614111
 40
3.000000
 50
180.000000
 51
270.000000
  0
ARC
  8
CSLAYER1
  6
CONTINUOUS
 62
     6
 10
560.892340
 20
241.510077
 40
0.104022
 50
-0.000005
 51
89.999997
  0
ARC
  8
CSLAYER1
  6
CONTINUOUS
 62
     6
 10
560.268209
 20
241.510077
 40
0.104022
 50
89.999997
 51
180.000000
  0
LINE
  8
CSLAYER1
  6
CONTINUOUS
 62
     6
 10
560.892340
 20
241.614111
 11
560.268209
 21
241.614111
  0
LINE
  8
CSLAYER1
  6
CONTINUOUS
 62
     6
 10
560.996362
 20
239.250645
 11
560.164187
 21
238.788934
  0
LINE
  8
CSLAYER1
  6
CONTINUOUS
 62
     6
 10
560.996362
 20
238.730536
 11
560.164187
 21
238.268825
  0
LINE
  8
CSLAYER1
  6
CONTINUOUS
 62
     6
 10
561.231579
 20
241.509302
 11
561.912939
 21
241.450561
  0
ARC
  8
CSLAYER1
  6
CONTINUOUS
 62
     6
 10
561.818657
 20
240.388389
 40
1.074023
 50
16.257211
 51
84.999882
  0
ARC
  8
CSLAYER1
  6
CONTINUOUS
 62
     6
 10
561.212735
 20
241.296878
 40
0.214808
 50
85.000282
 51
180.000017
  0
LINE
  8
CSLAYER1
  6
CONTINUOUS
 62
     6
 10
560.996362
 20
241.510077
 11
560.996362
 21
235.718146
  0
ARC
  8
CSLAYER1
  6
CONTINUOUS
 62
     6
 10
560.892340
 20
235.718146
 40
0.104022
 50
-89.999997
 51
0.000005
  0
ARC
  8
CSLAYER1
  6
CONTINUOUS
 62
     6
 10
560.268209
 20
235.718146
 40
0.104022
 50
180.000000
 51
270.000003
  0
LINE
  8
CSLAYER1
  6
CONTINUOUS
 62
     6
 10
560.892340
 20
235.614111
 11
560.268209
 21
235.614111
  0
LINE
  8
CSLAYER1
  6
CONTINUOUS
 62
     6
 10
561.231579
 20
235.718920
 11
561.912939
 21
235.777661
  0
ARC
  8
CSLAYER1
  6
CONTINUOUS
 62
     6
 10
561.818657
 20
236.839834
 40
1.074023
 50
275.000118
 51
343.742789
  0
ARC
  8
CSLAYER1
  6
CONTINUOUS
 62
     6
 10
561.212735
 20
235.931345
 40
0.214808
 50
179.999983
 51
274.999718
  0
ARC
  8
CSLAYER1
  6
CONTINUOUS
 62
     6
 10
555.587229
 20
238.597479
 40
7.572785
 50
-15.823637
 51
16.066256
  0
LINE
  8
CSLAYER1
  6
CENTER
 62
     3
 10
572.164187
 20
238.614111
 11
464.164187
 21
238.614111
  0
LINE
  8
CSLAYER1
  6
CONTINUOUS
 62
     6
 10
555.664187
 20
266.614111
 11
555.664187
 21
210.614111
  0
LINE
  8
CSLAYER1
  6
CENTER
 62
     3
 10
562.164187
 20
213.614111
 11
562.164187
 21
197.614111
  0
LINE
  8
CSLAYER1
  6
CENTER
 62
     3
 10
502.164187
 20
213.614111
 11
502.164187
 21
197.614111
  0
LINE
  8
CSLAYER1
  6
CONTINUOUS
 62
     3
 10
431.500008
 20
338.746710
 11
416.999978
 21
338.746710
  0
LINE
  8
CSLAYER1
  6
CONTINUOUS
 62
     3
 10
415.999978
 20
337.746710
 11
415.999978
 21
301.746725
  0
LINE
  8
CSLAYER1
  6
CONTINUOUS
 62
     3
 10
416.999978
 20
300.746725
 11
431.500008
 21
300.746725
  0
ARC
  8
CSLAYER1
  6
CONTINUOUS
 62
     3
 10
416.999978
 20
337.746710
 40
1.000000
 50
90.000005
 51
180.000001
  0
ARC
  8
CSLAYER1
  6
CONTINUOUS
 62
     3
 10
416.999978
 20
301.746725
 40
1.000000
 50
180.000001
 51
269.942691
  0
TEXT
  8
CSLAYER1
 62
     3
 10
419.385925
 20
318.789429
 40
3.500000
 41
1.125000
  1
N P
 50
0.000000
 51
10.000000
  7
JX_FONT
 72
     5
 11
429.885925
 21
318.789429
  0
LINE
  8
CSLAYER1
  6
CENTER
 62
     3
 10
426.500004
 20
292.089979
 11
426.499997
 21
263.614111
  0
ARC
  8
CSLAYER1
  6
CONTINUOUS
 62
     6
 10
429.879305
 20
286.458941
 40
0.120690
 50
0.000003
 51
90.000005
  0
ARC
  8
CSLAYER1
  6
CONTINUOUS
 62
     6
 10
423.120699
 20
286.458941
 40
0.120690
 50
90.000005
 51
180.000001
  0
ARC
  8
CSLAYER1
  6
CONTINUOUS
 62
     6
 10
429.879305
 20
285.734801
 40
0.120690
 50
-90.000000
 51
0.000003
  0
ARC
  8
CSLAYER1
  6
CONTINUOUS
 62
     6
 10
423.120699
 20
285.734801
 40
0.120690
 50
180.000001
 51
269.942691
  0
LINE
  8
CSLAYER1
  6
CONTINUOUS
 62
     6
 10
430.000009
 20
286.458941
 11
430.000009
 21
285.734801
  0
LINE
  8
CSLAYER1
  6
CONTINUOUS
 62
     6
 10
422.999995
 20
286.458941
 11
422.999995
 21
285.734801
  0
LINE
  8
CSLAYER1
  6
CONTINUOUS
 62
     6
 10
425.780769
 20
286.579630
 11
426.316463
 21
285.614111
  0
LINE
  8
CSLAYER1
  6
CONTINUOUS
 62
     6
 10
426.384218
 20
286.579630
 11
426.919912
 21
285.614111
  0
LINE
  8
CSLAYER1
  6
CONTINUOUS
 62
     6
 10
429.878406
 20
286.852538
 11
429.810253
 21
287.643078
  0
ARC
  8
CSLAYER1
  6
CONTINUOUS
 62
     6
 10
428.577881
 20
287.533688
 40
1.246121
 50
5.000118
 51
73.742789
  0
ARC
  8
CSLAYER1
  6
CONTINUOUS
 62
     6
 10
429.631944
 20
286.830675
 40
0.249229
 50
-90.000017
 51
4.999718
  0
LINE
  8
CSLAYER1
  6
CONTINUOUS
 62
     6
 10
423.121598
 20
286.852538
 11
423.189751
 21
287.643078
  0
ARC
  8
CSLAYER1
  6
CONTINUOUS
 62
     6
 10
424.422123
 20
287.533688
 40
1.246121
 50
106.257208
 51
174.999892
  0
ARC
  8
CSLAYER1
  6
CONTINUOUS
 62
     6
 10
423.368061
 20
286.830675
 40
0.249229
 50
175.000275
 51
269.942691
  0
LINE
  8
CSLAYER1
  6
CONTINUOUS
 62
     6
 10
429.879305
 20
286.579630
 11
423.120699
 21
286.579630
  0
LINE
  8
CSLAYER1
  6
CENTER
 62
     3
 10
374.499993
 20
292.089979
 11
374.499993
 21
263.614111
  0
ARC
  8
CSLAYER1
  6
CONTINUOUS
 62
     6
 10
377.879295
 20
286.458941
 40
0.120690
 50
0.000003
 51
90.000005
  0
ARC
  8
CSLAYER1
  6
CONTINUOUS
 62
     6
 10
371.120690
 20
286.458941
 40
0.120690
 50
90.000005
 51
180.000001
  0
ARC
  8
CSLAYER1
  6
CONTINUOUS
 62
     6
 10
377.879295
 20
285.734801
 40
0.120690
 50
-90.000000
 51
0.000003
  0
ARC
  8
CSLAYER1
  6
CONTINUOUS
 62
     6
 10
371.120690
 20
285.734801
 40
0.120690
 50
180.000001
 51
269.942691
  0
LINE
  8
CSLAYER1
  6
CONTINUOUS
 62
     6
 10
378.000000
 20
286.458941
 11
378.000000
 21
285.734801
  0
LINE
  8
CSLAYER1
  6
CONTINUOUS
 62
     6
 10
370.999985
 20
286.458941
 11
370.999985
 21
285.734801
  0
LINE
  8
CSLAYER1
  6
CONTINUOUS
 62
     6
 10
373.780759
 20
286.579630
 11
374.316453
 21
285.614111
  0
LINE
  8
CSLAYER1
  6
CONTINUOUS
 62
     6
 10
374.384209
 20
286.579630
 11
374.919903
 21
285.614111
  0
LINE
  8
CSLAYER1
  6
CONTINUOUS
 62
     6
 10
377.878397
 20
286.852538
 11
377.810244
 21
287.643078
  0
ARC
  8
CSLAYER1
  6
CONTINUOUS
 62
     6
 10
376.577872
 20
287.533688
 40
1.246121
 50
5.000118
 51
73.742789
  0
ARC
  8
CSLAYER1
  6
CONTINUOUS
 62
     6
 10
377.631934
 20
286.830675
 40
0.249229
 50
-90.000017
 51
4.999718
  0
LINE
  8
CSLAYER1
  6
CONTINUOUS
 62
     6
 10
371.121589
 20
286.852538
 11
371.189742
 21
287.643078
  0
ARC
  8
CSLAYER1
  6
CONTINUOUS
 62
     6
 10
372.422114
 20
287.533688
 40
1.246121
 50
106.257208
 51
174.999892
  0
ARC
  8
CSLAYER1
  6
CONTINUOUS
 62
     6
 10
371.368051
 20
286.830675
 40
0.249229
 50
175.000275
 51
269.942691
  0
LINE
  8
CSLAYER1
  6
CONTINUOUS
 62
     6
 10
377.879295
 20
286.579630
 11
371.120690
 21
286.579630
  0
LINE
  8
CSLAYER1
  6
CONTINUOUS
 62
     6
 10
370.500008
 20
285.614111
 11
370.500008
 21
286.614111
  0
ARC
  8
CSLAYER1
  6
CONTINUOUS
 62
     6
 10
430.500008
 20
283.614111
 40
2.000000
 50
0.000003
 51
89.999991
  0
ARC
  8
CSLAYER1
  6
CONTINUOUS
 62
     6
 10
370.499978
 20
283.614111
 40
2.000000
 50
90.000005
 51
179.999973
  0
LINE
  8
CSLAYER1
  6
CONTINUOUS
 62
     6
 10
430.500008
 20
285.614111
 11
370.499978
 21
285.614111
  0
LINE
  8
CSLAYER1
  6
CONTINUOUS
 62
     6
 10
430.500024
 20
285.614126
 11
430.500024
 21
286.614126
  0
LINE
  8
CSLAYER1
  6
CONTINUOUS
 62
     6
 10
432.500008
 20
283.614111
 11
432.500008
 21
268.614111
  0
LINE
  8
CSLAYER1
  6
CONTINUOUS
 62
     6
 10
432.500008
 20
276.614111
 11
368.499978
 21
276.614111
  0
LINE
  8
CSLAYER1
  6
CONTINUOUS
 62
     6
 10
368.499978
 20
283.614112
 11
368.499978
 21
268.614111
  0
LINE
  8
CSLAYER1
  6
CONTINUOUS
 62
     6
 10
431.500008
 20
286.614111
 11
429.755293
 21
286.614111
  0
LINE
  8
CSLAYER1
  6
CONTINUOUS
 62
     6
 10
431.500008
 20
368.614111
 11
369.500008
 21
368.614111
  0
LINE
  8
CSLAYER1
  6
CONTINUOUS
 62
     6
 10
431.500008
 20
286.614111
 11
431.500008
 21
368.614111
  0
LINE
  8
CSLAYER1
  6
CONTINUOUS
 62
     6
 10
369.500008
 20
286.614111
 11
369.500008
 21
368.614111
  0
LINE
  8
CSLAYER1
  6
CONTINUOUS
 62
     6
 10
423.244711
 20
286.614111
 11
377.755284
 21
286.614111
  0
LINE
  8
CSLAYER1
  6
CONTINUOUS
 62
     6
 10
371.244702
 20
286.614111
 11
369.500008
 21
286.614111
  0
LINE
  8
CSLAYER1
  6
CENTER
 62
     3
 10
413.500008
 20
379.614111
 11
349.117396
 21
379.614111
  0
CIRCLE
  8
CSLAYER1
  6
CONTINUOUS
 62
     6
 10
400.500008
 20
379.614111
 40
8.000000
  0
CIRCLE
  8
CSLAYER1
  6
CONTINUOUS
 62
     6
 10
400.500008
 20
379.614111
 40
6.000000
  0
CIRCLE
  8
CSLAYER1
  6
CONTINUOUS
 62
     3
 10
400.500008
 20
379.614111
 40
5.500000
  0
LINE
  8
CSLAYER1
  6
CONTINUOUS
 62
     6
 10
401.300011
 20
376.864111
 11
401.300011
 21
382.364111
  0
LINE
  8
CSLAYER1
  6
CONTINUOUS
 62
     6
 10
399.700005
 20
376.864111
 11
399.700005
 21
382.364111
  0
LINE
  8
CSLAYER1
  6
CONTINUOUS
 62
     6
 10
401.300011
 20
382.364111
 11
399.700005
 21
382.364111
  0
LINE
  8
CSLAYER1
  6
CONTINUOUS
 62
     6
 10
401.300011
 20
376.864111
 11
399.700005
 21
376.864111
  0
LINE
  8
CSLAYER1
  6
CONTINUOUS
 62
     6
 10
372.023674
 20
399.614111
 11
428.976342
 21
399.614111
  0
LINE
  8
CSLAYER1
  6
CONTINUOUS
 62
     6
 10
371.023674
 20
398.614111
 11
429.976342
 21
398.614111
  0
LINE
  8
CSLAYER1
  6
CONTINUOUS
 62
     6
 10
429.976342
 20
398.614111
 11
430.499993
 21
368.614096
  0
LINE
  8
CSLAYER1
  6
CONTINUOUS
 62
     6
 10
429.976342
 20
398.614111
 11
428.976342
 21
399.614111
  0
LINE
  8
CSLAYER1
  6
CONTINUOUS
 62
     6
 10
371.023674
 20
398.614111
 11
370.500023
 21
368.614096
  0
LINE
  8
CSLAYER1
  6
CONTINUOUS
 62
     6
 10
371.023674
 20
398.614111
 11
372.023674
 21
399.614111
  0
ARC
  8
CSLAYER1
  6
CONTINUOUS
 62
     6
 10
261.355243
 20
286.458941
 40
0.120690
 50
0.000003
 51
90.000005
  0
ARC
  8
CSLAYER1
  6
CONTINUOUS
 62
     6
 10
254.596638
 20
286.458941
 40
0.120690
 50
90.000005
 51
180.000001
  0
ARC
  8
CSLAYER1
  6
CONTINUOUS
 62
     6
 10
261.355243
 20
285.734801
 40
0.120690
 50
-90.000000
 51
0.000003
  0
ARC
  8
CSLAYER1
  6
CONTINUOUS
 62
     6
 10
254.596638
 20
285.734801
 40
0.120690
 50
180.000001
 51
269.942691
  0
LINE
  8
CSLAYER1
  6
CONTINUOUS
 62
     6
 10
261.475948
 20
286.458941
 11
261.475948
 21
285.734801
  0
LINE
  8
CSLAYER1
  6
CONTINUOUS
 62
     6
 10
254.475933
 20
286.458941
 11
254.475933
 21
285.734801
  0
LINE
  8
CSLAYER1
  6
CONTINUOUS
 62
     6
 10
257.256707
 20
286.579630
 11
257.792401
 21
285.614111
  0
LINE
  8
CSLAYER1
  6
CONTINUOUS
 62
     6
 10
257.860157
 20
286.579630
 11
258.395851
 21
285.614111
  0
LINE
  8
CSLAYER1
  6
CONTINUOUS
 62
     6
 10
261.354345
 20
286.852538
 11
261.286191
 21
287.643078
  0
ARC
  8
CSLAYER1
  6
CONTINUOUS
 62
     6
 10
260.053819
 20
287.533688
 40
1.246121
 50
5.000118
 51
73.742789
  0
ARC
  8
CSLAYER1
  6
CONTINUOUS
 62
     6
 10
261.107882
 20
286.830675
 40
0.249229
 50
-90.000017
 51
4.999718
  0
LINE
  8
CSLAYER1
  6
CONTINUOUS
 62
     6
 10
254.597537
 20
286.852538
 11
254.665690
 21
287.643078
  0
ARC
  8
CSLAYER1
  6
CONTINUOUS
 62
     6
 10
255.898062
 20
287.533688
 40
1.246121
 50
106.257208
 51
174.999892
  0
ARC
  8
CSLAYER1
  6
CONTINUOUS
 62
     6
 10
254.843999
 20
286.830675
 40
0.249229
 50
175.000275
 51
269.942691
  0
LINE
  8
CSLAYER1
  6
CONTINUOUS
 62
     6
 10
261.355243
 20
286.579630
 11
254.596638
 21
286.579630
  0
LINE
  8
CSLAYER1
  6
CENTER
 62
     3
 10
257.975950
 20
292.089979
 11
257.975944
 21
263.614111
  0
ARC
  8
CSLAYER1
  6
CONTINUOUS
 62
     6
 10
209.355234
 20
286.458941
 40
0.120690
 50
0.000003
 51
90.000005
  0
ARC
  8
CSLAYER1
  6
CONTINUOUS
 62
     6
 10
202.596628
 20
286.458941
 40
0.120690
 50
90.000005
 51
180.000001
  0
ARC
  8
CSLAYER1
  6
CONTINUOUS
 62
     6
 10
209.355234
 20
285.734801
 40
0.120690
 50
-90.000000
 51
0.000003
  0
ARC
  8
CSLAYER1
  6
CONTINUOUS
 62
     6
 10
202.596628
 20
285.734801
 40
0.120690
 50
180.000001
 51
269.942691
  0
LINE
  8
CSLAYER1
  6
CONTINUOUS
 62
     6
 10
209.475939
 20
286.458941
 11
209.475939
 21
285.734801
  0
LINE
  8
CSLAYER1
  6
CONTINUOUS
 62
     6
 10
202.475924
 20
286.458941
 11
202.475924
 21
285.734801
  0
LINE
  8
CSLAYER1
  6
CONTINUOUS
 62
     6
 10
205.256698
 20
286.579630
 11
205.792392
 21
285.614111
  0
LINE
  8
CSLAYER1
  6
CONTINUOUS
 62
     6
 10
205.860147
 20
286.579630
 11
206.395841
 21
285.614111
  0
LINE
  8
CSLAYER1
  6
CONTINUOUS
 62
     6
 10
209.354335
 20
286.852538
 11
209.286182
 21
287.643078
  0
ARC
  8
CSLAYER1
  6
CONTINUOUS
 62
     6
 10
208.053810
 20
287.533688
 40
1.246121
 50
5.000118
 51
73.742789
  0
ARC
  8
CSLAYER1
  6
CONTINUOUS
 62
     6
 10
209.107873
 20
286.830675
 40
0.249229
 50
-90.000017
 51
4.999718
  0
LINE
  8
CSLAYER1
  6
CONTINUOUS
 62
     6
 10
202.597527
 20
286.852538
 11
202.665680
 21
287.643078
  0
ARC
  8
CSLAYER1
  6
CONTINUOUS
 62
     6
 10
203.898052
 20
287.533688
 40
1.246121
 50
106.257208
 51
174.999892
  0
ARC
  8
CSLAYER1
  6
CONTINUOUS
 62
     6
 10
202.843990
 20
286.830675
 40
0.249229
 50
175.000275
 51
269.942691
  0
LINE
  8
CSLAYER1
  6
CONTINUOUS
 62
     6
 10
209.355234
 20
286.579630
 11
202.596628
 21
286.579630
  0
LINE
  8
CSLAYER1
  6
CENTER
 62
     3
 10
205.975940
 20
292.089979
 11
205.975940
 21
263.614111
  0
LINE
  8
CSLAYER1
  6
CONTINUOUS
 62
     6
 10
201.975946
 20
285.614111
 11
201.975946
 21
286.614111
  0
LINE
  8
CSLAYER1
  6
CONTINUOUS
 62
     6
 10
261.975946
 20
285.614111
 11
261.975946
 21
286.614111
  0
ARC
  8
CSLAYER1
  6
CONTINUOUS
 62
     6
 10
261.975946
 20
283.614111
 40
2.000000
 50
0.000003
 51
89.999991
  0
ARC
  8
CSLAYER1
  6
CONTINUOUS
 62
     6
 10
201.975916
 20
283.614111
 40
2.000000
 50
90.000005
 51
179.999973
  0
LINE
  8
CSLAYER1
  6
CONTINUOUS
 62
     6
 10
261.975946
 20
285.614111
 11
201.975916
 21
285.614111
  0
LINE
  8
CSLAYER1
  6
CONTINUOUS
 62
     6
 10
263.975946
 20
283.614111
 11
263.975946
 21
268.614111
  0
LINE
  8
CSLAYER1
  6
CONTINUOUS
 62
     6
 10
263.975946
 20
276.614111
 11
199.975916
 21
276.614111
  0
LINE
  8
CSLAYER1
  6
CONTINUOUS
 62
     6
 10
199.975916
 20
283.614112
 11
199.975916
 21
268.614111
  0
LINE
  8
CSLAYER1
  6
CONTINUOUS
 62
     6
 10
262.975946
 20
286.614111
 11
261.231231
 21
286.614111
  0
LINE
  8
CSLAYER1
  6
CONTINUOUS
 62
     6
 10
262.975946
 20
286.614111
 11
262.975946
 21
368.614111
  0
LINE
  8
CSLAYER1
  6
CONTINUOUS
 62
     6
 10
200.975946
 20
286.614111
 11
200.975946
 21
368.614111
  0
LINE
  8
CSLAYER1
  6
CONTINUOUS
 62
     6
 10
254.720650
 20
286.614111
 11
209.231222
 21
286.614111
  0
LINE
  8
CSLAYER1
  6
CONTINUOUS
 62
     6
 10
202.720640
 20
286.614111
 11
200.975946
 21
286.614111
  0
LINE
  8
CSLAYER1
  6
CENTER
 62
     3
 10
211.475943
 20
206.614111
 11
197.980135
 21
206.614111
  0
ARC
  8
CSLAYER1
  6
CONTINUOUS
 62
     6
 10
203.247790
 20
209.510077
 40
0.104022
 50
90.000003
 51
180.000005
  0
ARC
  8
CSLAYER1
  6
CONTINUOUS
 62
     6
 10
203.871921
 20
209.510077
 40
0.104022
 50
0.000000
 51
90.000003
  0
LINE
  8
CSLAYER1
  6
CONTINUOUS
 62
     6
 10
203.247790
 20
209.614111
 11
203.871921
 21
209.614111
  0
LINE
  8
CSLAYER1
  6
CONTINUOUS
 62
     6
 10
203.143768
 20
205.977577
 11
203.975943
 21
206.439288
  0
LINE
  8
CSLAYER1
  6
CONTINUOUS
 62
     6
 10
203.143768
 20
206.497686
 11
203.975943
 21
206.959397
  0
LINE
  8
CSLAYER1
  6
CONTINUOUS
 62
     6
 10
202.908551
 20
209.509302
 11
202.227191
 21
209.450561
  0
ARC
  8
CSLAYER1
  6
CONTINUOUS
 62
     6
 10
202.321473
 20
208.388389
 40
1.074023
 50
95.000118
 51
163.742789
  0
ARC
  8
CSLAYER1
  6
CONTINUOUS
 62
     6
 10
202.927395
 20
209.296878
 40
0.214808
 50
-0.000017
 51
94.999718
  0
LINE
  8
CSLAYER1
  6
CONTINUOUS
 62
     6
 10
203.143768
 20
209.510077
 11
203.143768
 21
203.718146
  0
ARC
  8
CSLAYER1
  6
CONTINUOUS
 62
     6
 10
203.247790
 20
203.718146
 40
0.104022
 50
179.999995
 51
269.999997
  0
ARC
  8
CSLAYER1
  6
CONTINUOUS
 62
     6
 10
203.871921
 20
203.718146
 40
0.104022
 50
269.999997
 51
360.000000
  0
LINE
  8
CSLAYER1
  6
CONTINUOUS
 62
     6
 10
203.247790
 20
203.614111
 11
203.871921
 21
203.614111
  0
LINE
  8
CSLAYER1
  6
CONTINUOUS
 62
     6
 10
202.908551
 20
203.718920
 11
202.227191
 21
203.777661
  0
ARC
  8
CSLAYER1
  6
CONTINUOUS
 62
     6
 10
202.321473
 20
204.839834
 40
1.074023
 50
196.257211
 51
264.999882
  0
ARC
  8
CSLAYER1
  6
CONTINUOUS
 62
     6
 10
202.927395
 20
203.931345
 40
0.214808
 50
-94.999718
 51
0.000017
  0
ARC
  8
CSLAYER1
  6
CONTINUOUS
 62
     6
 10
203.247790
 20
241.510077
 40
0.104022
 50
90.000003
 51
180.000005
  0
ARC
  8
CSLAYER1
  6
CONTINUOUS
 62
     6
 10
203.871921
 20
241.510077
 40
0.104022
 50
0.000000
 51
90.000003
  0
LINE
  8
CSLAYER1
  6
CONTINUOUS
 62
     6
 10
203.247790
 20
241.614111
 11
203.871921
 21
241.614111
  0
LINE
  8
CSLAYER1
  6
CONTINUOUS
 62
     6
 10
203.143768
 20
237.977577
 11
203.975943
 21
238.439288
  0
LINE
  8
CSLAYER1
  6
CONTINUOUS
 62
     6
 10
203.143768
 20
238.497686
 11
203.975943
 21
238.959397
  0
LINE
  8
CSLAYER1
  6
CONTINUOUS
 62
     6
 10
202.908551
 20
241.509302
 11
202.227191
 21
241.450561
  0
ARC
  8
CSLAYER1
  6
CONTINUOUS
 62
     6
 10
202.321473
 20
240.388389
 40
1.074023
 50
95.000118
 51
163.742789
  0
ARC
  8
CSLAYER1
  6
CONTINUOUS
 62
     6
 10
202.927395
 20
241.296878
 40
0.214808
 50
-0.000017
 51
94.999718
  0
LINE
  8
CSLAYER1
  6
CONTINUOUS
 62
     6
 10
203.143768
 20
241.510077
 11
203.143768
 21
235.718146
  0
ARC
  8
CSLAYER1
  6
CONTINUOUS
 62
     6
 10
203.247790
 20
235.718146
 40
0.104022
 50
179.999995
 51
269.999997
  0
ARC
  8
CSLAYER1
  6
CONTINUOUS
 62
     6
 10
203.871921
 20
235.718146
 40
0.104022
 50
269.999997
 51
360.000000
  0
LINE
  8
CSLAYER1
  6
CONTINUOUS
 62
     6
 10
203.247790
 20
235.614111
 11
203.871921
 21
235.614111
  0
LINE
  8
CSLAYER1
  6
CONTINUOUS
 62
     6
 10
202.908551
 20
235.718920
 11
202.227191
 21
235.777661
  0
ARC
  8
CSLAYER1
  6
CONTINUOUS
 62
     6
 10
202.321473
 20
236.839834
 40
1.074023
 50
196.257211
 51
264.999882
  0
ARC
  8
CSLAYER1
  6
CONTINUOUS
 62
     6
 10
202.927395
 20
235.931345
 40
0.214808
 50
-94.999718
 51
0.000017
  0
LINE
  8
CSLAYER1
  6
CENTER
 62
     3
 10
211.475943
 20
270.614111
 11
197.980135
 21
270.614111
  0
ARC
  8
CSLAYER1
  6
CONTINUOUS
 62
     6
 10
203.247790
 20
273.510077
 40
0.104022
 50
90.000003
 51
180.000005
  0
ARC
  8
CSLAYER1
  6
CONTINUOUS
 62
     6
 10
203.871921
 20
273.510077
 40
0.104022
 50
0.000000
 51
90.000003
  0
LINE
  8
CSLAYER1
  6
CONTINUOUS
 62
     6
 10
203.247790
 20
273.614111
 11
203.871921
 21
273.614111
  0
LINE
  8
CSLAYER1
  6
CONTINUOUS
 62
     6
 10
203.143768
 20
269.977577
 11
203.975943
 21
270.439288
  0
LINE
  8
CSLAYER1
  6
CONTINUOUS
 62
     6
 10
203.143768
 20
270.497686
 11
203.975943
 21
270.959397
  0
LINE
  8
CSLAYER1
  6
CONTINUOUS
 62
     6
 10
202.908551
 20
273.509302
 11
202.227191
 21
273.450561
  0
ARC
  8
CSLAYER1
  6
CONTINUOUS
 62
     6
 10
202.321473
 20
272.388389
 40
1.074023
 50
95.000118
 51
163.742789
  0
ARC
  8
CSLAYER1
  6
CONTINUOUS
 62
     6
 10
202.927395
 20
273.296878
 40
0.214808
 50
-0.000017
 51
94.999718
  0
LINE
  8
CSLAYER1
  6
CONTINUOUS
 62
     6
 10
203.143768
 20
273.510077
 11
203.143768
 21
267.718146
  0
ARC
  8
CSLAYER1
  6
CONTINUOUS
 62
     6
 10
203.247790
 20
267.718146
 40
0.104022
 50
179.999995
 51
269.999997
  0
ARC
  8
CSLAYER1
  6
CONTINUOUS
 62
     6
 10
203.871921
 20
267.718146
 40
0.104022
 50
269.999997
 51
360.000000
  0
LINE
  8
CSLAYER1
  6
CONTINUOUS
 62
     6
 10
203.247790
 20
267.614111
 11
203.871921
 21
267.614111
  0
LINE
  8
CSLAYER1
  6
CONTINUOUS
 62
     6
 10
202.908551
 20
267.718920
 11
202.227191
 21
267.777661
  0
ARC
  8
CSLAYER1
  6
CONTINUOUS
 62
     6
 10
202.321473
 20
268.839834
 40
1.074023
 50
196.257211
 51
264.999882
  0
ARC
  8
CSLAYER1
  6
CONTINUOUS
 62
     6
 10
202.927395
 20
267.931345
 40
0.214808
 50
-94.999718
 51
0.000017
  0
LINE
  8
CSLAYER1
  6
CONTINUOUS
 62
     6
 10
201.975916
 20
266.614111
 11
203.975943
 21
266.614111
  0
ARC
  8
CSLAYER1
  6
CONTINUOUS
 62
     6
 10
261.975946
 20
268.614111
 40
2.000000
 50
270.000000
 51
360.000000
  0
ARC
  8
CSLAYER1
  6
CONTINUOUS
 62
     6
 10
201.975916
 20
268.614111
 40
2.000000
 50
180.000000
 51
270.000000
  0
LINE
  8
CSLAYER1
  6
CONTINUOUS
 62
     6
 10
248.975943
 20
266.514220
 11
248.975943
 21
210.636503
  0
LINE
  8
CSLAYER1
  6
CONTINUOUS
 62
     6
 10
268.975943
 20
258.614111
 11
268.975943
 21
218.614111
  0
LINE
  8
CSLAYER1
  6
CONTINUOUS
 62
     6
 10
266.975943
 20
260.614111
 11
251.975943
 21
260.614111
  0
LINE
  8
CSLAYER1
  6
CONTINUOUS
 62
     6
 10
266.975943
 20
216.614111
 11
251.975943
 21
216.614111
  0
ARC
  8
CSLAYER1
  6
CONTINUOUS
 62
     6
 10
266.975943
 20
258.614111
 40
2.000000
 50
0.000000
 51
90.000000
  0
ARC
  8
CSLAYER1
  6
CONTINUOUS
 62
     6
 10
266.975943
 20
218.614111
 40
2.000000
 50
270.000000
 51
360.000000
  0
LINE
  8
CSLAYER1
  6
CONTINUOUS
 62
     6
 10
245.376880
 20
270.114116
 11
233.944569
 21
270.114116
  0
ARC
  8
CSLAYER1
  6
CONTINUOUS
 62
     6
 10
245.376880
 20
266.514220
 40
3.599897
 50
0.000000
 51
90.000000
  0
LINE
  8
CSLAYER1
  6
CONTINUOUS
 62
     6
 10
245.376880
 20
207.114106
 11
233.944569
 21
207.114106
  0
ARC
  8
CSLAYER1
  6
CONTINUOUS
 62
     6
 10
245.376880
 20
210.714003
 40
3.599897
 50
270.000000
 51
358.766418
  0
LINE
  8
CSLAYER1
  6
CONTINUOUS
 62
     6
 10
251.975943
 20
266.614111
 11
261.975946
 21
266.614111
  0
ARC
  8
CSLAYER1
  6
CONTINUOUS
 62
     6
 10
251.975943
 20
263.614111
 40
3.000000
 50
90.000000
 51
270.000000
  0
LINE
  8
CSLAYER1
  6
CONTINUOUS
 62
     6
 10
268.975943
 20
208.614111
 11
268.975943
 21
200.614111
  0
ARC
  8
CSLAYER1
  6
CONTINUOUS
 62
     6
 10
266.975943
 20
208.614111
 40
2.000000
 50
0.000000
 51
90.000000
  0
LINE
  8
CSLAYER1
  6
CONTINUOUS
 62
     6
 10
251.943697
 20
210.614111
 11
266.975943
 21
210.614111
  0
ARC
  8
CSLAYER1
  6
CONTINUOUS
 62
     6
 10
251.975943
 20
213.614111
 40
3.000000
 50
90.000000
 51
270.000000
  0
LINE
  8
CSLAYER1
  6
CONTINUOUS
 62
     6
 10
194.975943
 20
200.614111
 11
268.975943
 21
200.614111
  0
LINE
  8
CSLAYER1
  6
CONTINUOUS
 62
     6
 10
194.975943
 20
258.614111
 11
194.975943
 21
218.614111
  0
LINE
  8
CSLAYER1
  6
CONTINUOUS
 62
     6
 10
208.475943
 20
274.114095
 11
208.475943
 21
203.114111
  0
LINE
  8
CSLAYER1
  6
CONTINUOUS
 62
     6
 10
203.975943
 20
273.614111
 11
203.975943
 21
203.614111
  0
LINE
  8
CSLAYER1
  6
CONTINUOUS
 62
     6
 10
229.975943
 20
273.614111
 11
203.975943
 21
273.614111
  0
LINE
  8
CSLAYER1
  6
CONTINUOUS
 62
     6
 10
229.975943
 20
203.614111
 11
203.975943
 21
203.614111
  0
ARC
  8
CSLAYER1
  6
CONTINUOUS
 62
     6
 10
229.975943
 20
271.614111
 40
2.000000
 50
7.180831
 51
90.000000
  0
ARC
  8
CSLAYER1
  6
CONTINUOUS
 62
     6
 10
229.975943
 20
205.614111
 40
2.000000
 50
270.000000
 51
352.819169
  0
LINE
  8
CSLAYER1
  6
CONTINUOUS
 62
     6
 10
203.975943
 20
232.952710
 11
229.475943
 21
232.952710
  0
LINE
  8
CSLAYER1
  6
CONTINUOUS
 62
     6
 10
229.475943
 20
244.275513
 11
203.975943
 21
244.275513
  0
LINE
  8
CSLAYER1
  6
CONTINUOUS
 62
     6
 10
201.975916
 20
274.114095
 11
208.475943
 21
274.114095
  0
ARC
  8
CSLAYER1
  6
CONTINUOUS
 62
     6
 10
201.975916
 20
276.114095
 40
2.000000
 50
180.000000
 51
270.000000
  0
LINE
  8
CSLAYER1
  6
CONTINUOUS
 62
     6
 10
200.975943
 20
260.614111
 11
196.975943
 21
260.614111
  0
LINE
  8
CSLAYER1
  6
CONTINUOUS
 62
     6
 10
200.975943
 20
216.614111
 11
196.975943
 21
216.614111
  0
LINE
  8
CSLAYER1
  6
CONTINUOUS
 62
     6
 10
196.975943
 20
210.614111
 11
203.975943
 21
210.614111
  0
LINE
  8
CSLAYER1
  6
CONTINUOUS
 62
     6
 10
194.975943
 20
208.614111
 11
194.975943
 21
200.614111
  0
ARC
  8
CSLAYER1
  6
CONTINUOUS
 62
     6
 10
196.975943
 20
208.614111
 40
2.000000
 50
90.000000
 51
180.000000
  0
ARC
  8
CSLAYER1
  6
CONTINUOUS
 62
     6
 10
196.975943
 20
218.614111
 40
2.000000
 50
180.000000
 51
270.000000
  0
ARC
  8
CSLAYER1
  6
CONTINUOUS
 62
     6
 10
196.975943
 20
258.614111
 40
2.000000
 50
90.000000
 51
180.000000
  0
ARC
  8
CSLAYER1
  6
CONTINUOUS
 62
     6
 10
200.975943
 20
213.614111
 40
3.000000
 50
0.000000
 51
90.000000
  0
ARC
  8
CSLAYER1
  6
CONTINUOUS
 62
     6
 10
200.975943
 20
263.614111
 40
3.000000
 50
270.000000
 51
360.000000
  0
LINE
  8
CSLAYER1
  6
CONTINUOUS
 62
     6
 10
208.475943
 20
203.114111
 11
194.975943
 21
203.114111
  0
LINE
  8
CSLAYER1
  6
CONTINUOUS
 62
     6
 10
229.475943
 20
207.079627
 11
203.975943
 21
207.079627
  0
LINE
  8
CSLAYER1
  6
CONTINUOUS
 62
     6
 10
229.475943
 20
270.148595
 11
203.975943
 21
270.148595
  0
LINE
  8
CSLAYER1
  6
CONTINUOUS
 62
     6
 10
252.975943
 20
264.614111
 11
252.975943
 21
260.614111
  0
LINE
  8
CSLAYER1
  6
CONTINUOUS
 62
     6
 10
252.975943
 20
216.614111
 11
252.975943
 21
212.614111
  0
ARC
  8
CSLAYER1
  6
CONTINUOUS
 62
     6
 10
254.975943
 20
212.614111
 40
2.000000
 50
180.000000
 51
270.000000
  0
ARC
  8
CSLAYER1
  6
CONTINUOUS
 62
     6
 10
254.975943
 20
264.614111
 40
2.000000
 50
90.000000
 51
180.000000
  0
LINE
  8
CSLAYER1
  6
CENTER
 62
     3
 10
298.500007
 20
238.614111
 11
191.975943
 21
238.614111
  0
LINE
  8
CSLAYER1
  6
CONTINUOUS
 62
     6
 10
276.975943
 20
244.614111
 11
276.975943
 21
232.614111
  0
LINE
  8
CSLAYER1
  6
CONTINUOUS
 62
     6
 10
296.975943
 20
243.114111
 11
296.975943
 21
234.614111
  0
LINE
  8
CSLAYER1
  6
CONTINUOUS
 62
     6
 10
268.975943
 20
244.614111
 11
276.975943
 21
244.614111
  0
LINE
  8
CSLAYER1
  6
CONTINUOUS
 62
     6
 10
276.975943
 20
243.614111
 11
296.475943
 21
243.614111
  0
LINE
  8
CSLAYER1
  6
CONTINUOUS
 62
     6
 10
296.475943
 20
234.114111
 11
281.975943
 21
234.114111
  0
LINE
  8
CSLAYER1
  6
CONTINUOUS
 62
     6
 10
281.975943
 20
234.114111
 11
281.975943
 21
233.614111
  0
LINE
  8
CSLAYER1
  6
CONTINUOUS
 62
     6
 10
281.975943
 20
233.614111
 11
276.975943
 21
233.614111
  0
LINE
  8
CSLAYER1
  6
CONTINUOUS
 62
     6
 10
276.975943
 20
232.614111
 11
268.975943
 21
232.614111
  0
LINE
  8
CSLAYER1
  6
CONTINUOUS
 62
     6
 10
296.475943
 20
243.614111
 11
296.975943
 21
243.114111
  0
LINE
  8
CSLAYER1
  6
CONTINUOUS
 62
     6
 10
296.975943
 20
234.614111
 11
296.475943
 21
234.114111
  0
LINE
  8
CSLAYER1
  6
CONTINUOUS
 62
     6
 10
370.499978
 20
266.614111
 11
430.500008
 21
266.614111
  0
ARC
  8
CSLAYER1
  6
CONTINUOUS
 62
     6
 10
430.500008
 20
268.614111
 40
2.000000
 50
270.000000
 51
360.000000
  0
ARC
  8
CSLAYER1
  6
CONTINUOUS
 62
     6
 10
370.499978
 20
268.614111
 40
2.000000
 50
180.000000
 51
270.000000
  0
LINE
  8
CSLAYER1
  6
CENTER
 62
     3
 10
329.500008
 20
238.614111
 11
420.499992
 21
238.614111
  0
LINE
  8
CSLAYER1
  6
CONTINUOUS
 62
     6
 10
370.499978
 20
210.614111
 11
430.500008
 21
210.614111
  0
LINE
  8
CSLAYER1
  6
CONTINUOUS
 62
     6
 10
368.499978
 20
200.614111
 11
432.500008
 21
200.614111
  0
ARC
  8
CSLAYER1
  6
CONTINUOUS
 62
     6
 10
430.500008
 20
208.614111
 40
2.000000
 50
0.000000
 51
90.000000
  0
ARC
  8
CSLAYER1
  6
CONTINUOUS
 62
     6
 10
370.499978
 20
208.614111
 40
2.000000
 50
90.000000
 51
180.000000
  0
LINE
  8
CSLAYER1
  6
CONTINUOUS
 62
     6
 10
432.500008
 20
208.614111
 11
432.500008
 21
200.614111
  0
LINE
  8
CSLAYER1
  6
CONTINUOUS
 62
     6
 10
368.499978
 20
208.614111
 11
368.499978
 21
200.614111
  0
LINE
  8
CSLAYER1
  6
CONTINUOUS
 62
     6
 10
417.499995
 20
263.614112
 11
417.499989
 21
213.614112
  0
ARC
  8
CSLAYER1
  6
CONTINUOUS
 62
     6
 10
420.499995
 20
263.614111
 40
3.000000
 50
90.000000
 51
179.999994
  0
ARC
  8
CSLAYER1
  6
CONTINUOUS
 62
     6
 10
420.499989
 20
213.614111
 40
3.000000
 50
179.999994
 51
270.000000
  0
LINE
  8
CSLAYER1
  6
CENTER
 62
     3
 10
367.499996
 20
276.614111
 11
367.499988
 21
200.614127
  0
CIRCLE
  8
CSLAYER1
  6
CONTINUOUS
 62
     6
 10
367.499992
 20
238.614111
 40
16.000000
  0
CIRCLE
  8
CSLAYER1
  6
CONTINUOUS
 62
     6
 10
367.499992
 20
238.614111
 40
22.000000
  0
ARC
  8
CSLAYER1
  6
CONTINUOUS
 62
     6
 10
367.499972
 20
271.114116
 40
1.000000
 50
-89.999975
 51
7.552469
  0
ARC
  8
CSLAYER1
  6
CONTINUOUS
 62
     6
 10
367.499988
 20
206.114106
 40
1.000000
 50
-7.552469
 51
89.999975
  0
ARC
  8
CSLAYER1
  6
CONTINUOUS
 62
     6
 10
338.500008
 20
238.614111
 40
6.000000
 50
109.340533
 51
250.659467
  0
ARC
  8
CSLAYER1
  6
CONTINUOUS
 62
     6
 10
367.499992
 20
209.614127
 40
6.000000
 50
199.340533
 51
269.999964
  0
ARC
  8
CSLAYER1
  6
CONTINUOUS
 62
     6
 10
367.499992
 20
267.614095
 40
6.000000
 50
89.999964
 51
160.659467
  0
ARC
  8
CSLAYER1
  6
CONTINUOUS
 62
     6
 10
367.499977
 20
202.614127
 40
1.000000
 50
-7.552469
 51
89.999975
  0
ARC
  8
CSLAYER1
  6
CONTINUOUS
 62
     6
 10
367.499995
 20
274.614095
 40
1.000000
 50
-89.999975
 51
7.552469
  0
LINE
  8
CSLAYER1
  6
CENTER
 62
     3
 10
426.499987
 20
197.614111
 11
426.499987
 21
213.614111
  0
LINE
  8
CSLAYER1
  6
CENTER
 62
     3
 10
388.499987
 20
197.614111
 11
388.499987
 21
213.614111
  0
LINE
  8
CSLAYER1
  6
CONTINUOUS
 62
     6
 10
415.499995
 20
263.614112
 11
415.499989
 21
213.614112
  0
CIRCLE
  8
CSLAYER1
  6
CONTINUOUS
 62
     6
 10
367.499992
 20
238.614111
 40
5.000000
  0
CIRCLE
  8
CSLAYER1
  6
CONTINUOUS
 62
     6
 10
367.499992
 20
238.614111
 40
6.000000
  0
LINE
  8
CSLAYER1
  6
CONTINUOUS
 62
     6
 10
369.679441
 20
234.114111
 11
365.320542
 21
234.114111
  0
ARC
  8
CSLAYER1
  6
CONTINUOUS
 62
     6
 10
426.500002
 20
280.303755
 40
8.786224
 50
73.933744
 51
106.066255
  0
ARC
  8
CSLAYER1
  6
CONTINUOUS
 62
     6
 10
374.499993
 20
280.303755
 40
8.786224
 50
73.933744
 51
106.066255
  0
ARC
  8
CSLAYER1
  6
CONTINUOUS
 62
     6
 10
359.253260
 20
394.272955
 40
15.758816
 50
242.536202
 51
269.942691
  0
ARC
  8
CSLAYER1
  6
CONTINUOUS
 62
     6
 10
359.253260
 20
394.272955
 40
13.558834
 50
242.536202
 51
269.942691
  0
ARC
  8
CSLAYER1
  6
CONTINUOUS
 62
     6
 10
358.300669
 20
379.064123
 40
1.099999
 50
-29.999650
 51
30.000345
  0
ARC
  8
CSLAYER1
  6
CONTINUOUS
 62
     6
 10
358.300654
 20
380.164122
 40
1.099999
 50
-29.999650
 51
30.000345
  0
ARC
  8
CSLAYER1
  6
CONTINUOUS
 62
     6
 10
360.205912
 20
380.164130
 40
1.099999
 50
150.000362
 51
210.000350
  0
LINE
  8
CSLAYER1
  6
CONTINUOUS
 62
     6
 10
352.658304
 20
381.584555
 11
349.720232
 21
383.201712
  0
LINE
  8
CSLAYER1
  6
CONTINUOUS
 62
     6
 10
352.404169
 20
381.095633
 11
349.396754
 21
382.672415
  0
LINE
  8
CSLAYER1
  6
CONTINUOUS
 62
     6
 10
352.197214
 20
380.697500
 11
349.117411
 21
382.098990
  0
LINE
  8
CSLAYER1
  6
CONTINUOUS
 62
     6
 10
353.000101
 20
382.242178
 11
351.985483
 21
380.290121
  0
ARC
  8
CSLAYER1
  6
CONTINUOUS
 62
     6
 10
359.253260
 20
364.955267
 40
15.758816
 50
112.422068
 51
117.463868
  0
ARC
  8
CSLAYER1
  6
CONTINUOUS
 62
     6
 10
359.253260
 20
364.955267
 40
13.558834
 50
89.999978
 51
117.463868
  0
LINE
  8
CSLAYER1
  6
CONTINUOUS
 62
     6
 10
352.658274
 20
377.643667
 11
349.720217
 21
376.026495
  0
LINE
  8
CSLAYER1
  6
CONTINUOUS
 62
     6
 10
352.404154
 20
378.132590
 11
349.396754
 21
376.555807
  0
LINE
  8
CSLAYER1
  6
CONTINUOUS
 62
     6
 10
352.197214
 20
378.530722
 11
349.117396
 21
377.129217
  0
LINE
  8
CSLAYER1
  6
CONTINUOUS
 62
     6
 10
353.000086
 20
376.986044
 11
351.985468
 21
378.938101
  0
ARC
  8
CSLAYER1
  6
CONTINUOUS
 62
     6
 10
363.118128
 20
380.164099
 40
1.100006
 50
150.000007
 51
209.999995
  0
ARC
  8
CSLAYER1
  6
CONTINUOUS
 62
     6
 10
363.118128
 20
379.064093
 40
1.100006
 50
150.000007
 51
209.999995
  0
ARC
  8
CSLAYER1
  6
CONTINUOUS
 62
     6
 10
361.212855
 20
379.064093
 40
1.100006
 50
-29.999998
 51
30.000003
  0
LINE
  8
CSLAYER1
  6
CONTINUOUS
 62
     6
 10
370.672814
 20
378.514105
 11
362.165491
 21
378.514105
  0
LINE
  8
CSLAYER1
  6
CONTINUOUS
 62
     6
 10
370.711220
 20
380.714102
 11
362.165491
 21
380.714102
  0
ARC
  8
CSLAYER1
  6
CONTINUOUS
 62
     6
 10
257.975941
 20
280.303755
 40
8.786224
 50
73.933744
 51
106.066255
  0
ARC
  8
CSLAYER1
  6
CONTINUOUS
 62
     6
 10
205.975931
 20
280.303755
 40
8.786224
 50
73.933744
 51
106.066255
  0
ARC
  8
CSLAYER1
  6
CONTINUOUS
 62
     6
 10
208.552901
 20
206.597479
 40
7.572785
 50
163.933744
 51
195.823637
  0
ARC
  8
CSLAYER1
  6
CONTINUOUS
 62
     6
 10
208.552901
 20
238.597479
 40
7.572785
 50
163.933744
 51
195.823637
  0
ARC
  8
CSLAYER1
  6
CONTINUOUS
 62
     6
 10
208.552901
 20
270.597479
 40
7.572785
 50
163.933744
 51
195.823637
  0
CIRCLE
  8
CSLAYER1
  6
CONTINUOUS
 62
     6
 10
400.499992
 20
238.614111
 40
3.448276
  0
CIRCLE
  8
CSLAYER1
  6
CONTINUOUS
 62
     6
 10
400.499992
 20
238.614111
 40
4.000000
  0
LINE
  8
CSLAYER1
  6
CONTINUOUS
 62
     6
 10
402.224130
 20
238.614111
 11
402.224130
 21
236.889973
  0
LINE
  8
CSLAYER1
  6
CONTINUOUS
 62
     6
 10
398.775854
 20
238.614111
 11
398.775854
 21
240.338249
  0
LINE
  8
CSLAYER1
  6
CONTINUOUS
 62
     6
 10
402.224130
 20
236.889973
 11
397.051716
 21
238.614111
  0
LINE
  8
CSLAYER1
  6
CONTINUOUS
 62
     6
 10
397.051716
 20
238.614111
 11
398.775854
 21
238.614111
  0
LINE
  8
CSLAYER1
  6
CONTINUOUS
 62
     6
 10
398.775854
 20
240.338249
 11
403.948268
 21
238.614111
  0
LINE
  8
CSLAYER1
  6
CONTINUOUS
 62
     6
 10
403.948268
 20
238.614111
 11
402.224130
 21
238.614111
  0
LINE
  8
CSLAYER1
  6
CONTINUOUS
 62
     3
 10
409.499991
 20
225.214111
 11
409.499991
 21
231.214111
  0
LINE
  8
CSLAYER1
  6
CONTINUOUS
 62
     3
 10
409.499991
 20
231.214111
 11
391.499991
 21
231.214111
  0
LINE
  8
CSLAYER1
  6
CONTINUOUS
 62
     3
 10
391.499991
 20
231.214111
 11
391.499991
 21
225.214111
  0
LINE
  8
CSLAYER1
  6
CONTINUOUS
 62
     3
 10
391.499991
 20
225.214111
 11
409.499991
 21
225.214111
  0
LINE
  8
CSLAYER1
  6
CONTINUOUS
 62
     3
 10
410.499991
 20
224.214111
 11
410.499991
 21
232.214111
  0
LINE
  8
CSLAYER1
  6
CONTINUOUS
 62
     3
 10
410.499991
 20
232.214111
 11
390.499991
 21
232.214111
  0
LINE
  8
CSLAYER1
  6
CONTINUOUS
 62
     3
 10
390.499991
 20
232.214111
 11
390.499991
 21
224.214111
  0
LINE
  8
CSLAYER1
  6
CONTINUOUS
 62
     3
 10
390.499991
 20
224.214111
 11
410.499991
 21
224.214111
  0
TEXT
  8
CSLAYER1
 62
     3
 10
392.200012
 20
226.214142
 40
4.000000
 41
0.547826
  1
SAWAMURA
 50
0.000000
 51
0.000000
  7
JX_FONT
 72
     5
 11
409.000011
 21
226.214142
  0
LINE
  8
CSLAYER1
  6
CONTINUOUS
 62
     6
 10
467.664187
 20
243.614111
 11
467.664187
 21
234.114111
  0
LINE
  8
CSLAYER1
  6
CONTINUOUS
 62
     6
 10
296.475943
 20
243.614111
 11
296.475943
 21
234.114111
  0
ARC
  8
CSLAYER1
  6
CONTINUOUS
 62
     6
 10
333.999987
 20
98.515124
 40
2.000000
 50
277.180756
 51
360.000000
  0
ARC
  8
CSLAYER1
  6
CONTINUOUS
 62
     6
 10
338.999987
 20
110.546497
 40
3.000000
 50
90.000000
 51
180.000000
  0
ARC
  8
CSLAYER1
  6
CONTINUOUS
 62
     6
 10
367.499992
 20
238.614111
 40
31.500005
 50
89.999994
 51
269.999994
  0
ARC
  8
CSLAYER1
  6
CONTINUOUS
 62
     6
 10
333.999987
 20
495.399270
 40
2.000000
 50
0.000000
 51
82.819036
  0
ARC
  8
CSLAYER1
  6
CONTINUOUS
 62
     6
 10
233.944569
 20
272.114116
 40
2.000000
 50
187.180831
 51
270.000000
  0
ARC
  8
CSLAYER1
  6
CONTINUOUS
 62
     6
 10
233.944569
 20
205.114106
 40
2.000000
 50
90.000000
 51
172.819169
  0
LINE
  8
CSLAYER1
  6
CONTINUOUS
 62
     6
 10
361.838585
 20
94.046497
 11
361.838585
 21
68.546497
  0
LINE
  8
CSLAYER1
  6
CONTINUOUS
 62
     6
 10
341.161388
 20
94.046497
 11
341.161388
 21
68.546497
  0
LINE
  8
CSLAYER1
  6
CONTINUOUS
 62
     6
 10
339.161402
 20
499.867895
 11
339.161402
 21
525.367895
  0
LINE
  8
CSLAYER1
  6
CONTINUOUS
 62
     6
 10
359.838599
 20
499.867895
 11
359.838599
 21
525.367895
  0
ARC
  8
CSLAYER1
  6
CONTINUOUS
 62
     6
 10
555.164187
 20
212.614111
 40
2.000000
 50
180.000000
 51
270.000000
  0
ARC
  8
CSLAYER1
  6
CONTINUOUS
 62
     6
 10
555.164187
 20
264.614111
 40
2.000000
 50
90.000000
 51
180.000000
  0
LINE
  8
CSLAYER1
  6
CENTER
 62
     3
 10
201.975943
 20
213.614111
 11
201.975943
 21
197.614111
  0
LINE
  8
CSLAYER1
  6
CENTER
 62
     3
 10
261.975943
 20
213.614111
 11
261.975943
 21
197.614111
  0
ARC
  8
CSLAYER1
  6
CONTINUOUS
 62
     6
 10
409.539739
 20
70.506745
 40
4.960248
 50
270.000000
 51
360.000000
  0
ARC
  8
CSLAYER1
  6
CONTINUOUS
 62
     6
 10
401.428834
 20
70.506745
 40
4.960248
 50
197.792389
 51
270.000000
  0
ARC
  8
CSLAYER1
  6
CONTINUOUS
 62
     6
 10
409.539739
 20
122.586249
 40
4.960248
 50
0.000000
 51
90.000000
  0
ARC
  8
CSLAYER1
  6
CONTINUOUS
 62
     6
 10
401.428834
 20
122.586249
 40
4.960248
 50
90.000000
 51
162.207611
  0
LINE
  8
CSLAYER1
  6
CENTER
 62
     3
 10
220.975943
 20
379.614111
 11
242.975943
 21
379.614111
  0
LINE
  8
CSLAYER1
  6
CONTINUOUS
 62
     6
 10
231.975943
 20
379.614111
 11
231.975943
 21
385.047583
  0
LINE
  8
CSLAYER1
  6
CONTINUOUS
 62
     6
 10
234.175940
 20
379.614111
 11
234.175940
 21
385.047583
  0
ARC
  8
CSLAYER1
  6
CONTINUOUS
 62
     6
 10
247.734793
 20
387.959814
 40
15.758816
 50
152.536193
 51
179.942682
  0
ARC
  8
CSLAYER1
  6
CONTINUOUS
 62
     6
 10
247.734793
 20
387.959814
 40
13.558834
 50
152.536193
 51
179.942682
  0
ARC
  8
CSLAYER1
  6
CONTINUOUS
 62
     6
 10
233.625937
 20
384.094946
 40
1.100006
 50
59.999997
 51
119.999999
  0
ARC
  8
CSLAYER1
  6
CONTINUOUS
 62
     6
 10
232.525931
 20
384.094946
 40
1.100006
 50
59.999997
 51
119.999999
  0
ARC
  8
CSLAYER1
  6
CONTINUOUS
 62
     6
 10
232.525931
 20
386.000220
 40
1.100006
 50
239.999989
 51
299.999977
  0
ARC
  8
CSLAYER1
  6
CONTINUOUS
 62
     6
 10
216.217093
 20
387.959814
 40
13.558834
 50
-0.000025
 51
27.463872
  0
ARC
  8
CSLAYER1
  6
CONTINUOUS
 62
     6
 10
216.217108
 20
387.959784
 40
15.758816
 50
0.000003
 51
27.463872
  0
ARC
  8
CSLAYER1
  6
CONTINUOUS
 62
     6
 10
231.425924
 20
384.094946
 40
1.100006
 50
59.999997
 51
119.999999
  0
ARC
  8
CSLAYER1
  6
CONTINUOUS
 62
     6
 10
230.325918
 20
384.094946
 40
1.100006
 50
59.999997
 51
119.999999
  0
ARC
  8
CSLAYER1
  6
CONTINUOUS
 62
     6
 10
230.325918
 20
386.000220
 40
1.100006
 50
239.999989
 51
299.999977
  0
ARC
  8
CSLAYER1
  6
CONTINUOUS
 62
     6
 10
233.075949
 20
379.614111
 40
1.100006
 50
-179.999999
 51
0.000019
  0
ARC
  8
CSLAYER1
  6
CONTINUOUS
 62
     6
 10
230.875937
 20
379.614111
 40
1.100006
 50
179.999973
 51
359.999992
  0
LINE
  8
CSLAYER1
  6
CONTINUOUS
 62
     6
 10
229.775946
 20
379.614111
 11
229.775946
 21
385.047583
  0
LINE
  8
CSLAYER1
  6
CONTINUOUS
 62
     6
 10
233.075949
 20
378.514075
 11
230.875937
 21
378.514075
  0
ARC
  8
CSLAYER1
  6
CONTINUOUS
 62
     6
 10
232.525976
 20
387.639181
 40
1.099999
 50
240.000344
 51
300.000332
  0
ARC
  8
CSLAYER1
  6
CONTINUOUS
 62
     6
 10
233.625967
 20
387.639189
 40
1.099999
 50
240.000344
 51
300.000332
  0
ARC
  8
CSLAYER1
  6
CONTINUOUS
 62
     6
 10
233.625982
 20
385.733938
 40
1.099999
 50
60.000353
 51
120.000354
  0
ARC
  8
CSLAYER1
  6
CONTINUOUS
 62
     6
 10
230.325964
 20
387.639181
 40
1.099999
 50
240.000344
 51
300.000332
  0
ARC
  8
CSLAYER1
  6
CONTINUOUS
 62
     6
 10
231.425955
 20
387.639189
 40
1.099999
 50
240.000344
 51
300.000332
  0
ARC
  8
CSLAYER1
  6
CONTINUOUS
 62
     6
 10
231.425970
 20
385.733938
 40
1.099999
 50
60.000353
 51
120.000354
  0
LINE
  8
CSLAYER1
  6
CONTINUOUS
 62
     6
 10
234.175955
 20
387.959753
 11
234.175955
 21
386.686560
  0
LINE
  8
CSLAYER1
  6
CONTINUOUS
 62
     6
 10
231.975928
 20
387.959784
 11
231.975928
 21
386.686560
  0
LINE
  8
CSLAYER1
  6
CONTINUOUS
 62
     6
 10
229.775961
 20
387.959753
 11
229.775961
 21
386.686560
  0
ARC
  8
CSLAYER1
  6
CONTINUOUS
 62
     6
 10
231.975943
 20
379.614111
 40
8.000000
 50
-254.038116
 51
74.037904
  0
LINE
  8
CSLAYER1
  6
CONTINUOUS
 62
     6
 10
235.046393
 20
394.554724
 11
236.663550
 21
397.492834
  0
LINE
  8
CSLAYER1
  6
CONTINUOUS
 62
     6
 10
235.704016
 20
394.212927
 11
233.751959
 21
395.227576
  0
LINE
  8
CSLAYER1
  6
CONTINUOUS
 62
     6
 10
228.905493
 20
394.554785
 11
227.288321
 21
397.492834
  0
LINE
  8
CSLAYER1
  6
CONTINUOUS
 62
     6
 10
228.247870
 20
394.212988
 11
230.199927
 21
395.227576
  0
LINE
  8
CSLAYER1
  6
CONTINUOUS
 62
     6
 10
234.557470
 20
394.808874
 11
236.134253
 21
396.816321
  0
LINE
  8
CSLAYER1
  6
CONTINUOUS
 62
     6
 10
234.159338
 20
395.015845
 11
235.560827
 21
397.095618
  0
LINE
  8
CSLAYER1
  6
CONTINUOUS
 62
     6
 10
229.394415
 20
394.808874
 11
227.817633
 21
396.816321
  0
LINE
  8
CSLAYER1
  6
CONTINUOUS
 62
     6
 10
229.792547
 20
395.015845
 11
228.391043
 21
397.095679
  0
LINE
  8
CSLAYER1
  6
CONTINUOUS
 62
     6
 10
262.975947
 20
368.614111
 11
200.975947
 21
368.614111
  0
LINE
  8
CSLAYER1
  6
CONTINUOUS
 62
     6
 10
203.517075
 20
399.614111
 11
260.434832
 21
399.614111
  0
LINE
  8
CSLAYER1
  6
CONTINUOUS
 62
     6
 10
202.499620
 20
398.614111
 11
261.452287
 21
398.614111
  0
LINE
  8
CSLAYER1
  6
CONTINUOUS
 62
     6
 10
261.452284
 20
398.614264
 11
261.975938
 21
368.614096
  0
LINE
  8
CSLAYER1
  6
CONTINUOUS
 62
     6
 10
201.975960
 20
368.614111
 11
202.499622
 21
398.614264
  0
LINE
  8
CSLAYER1
  6
CONTINUOUS
 62
     6
 10
203.517075
 20
399.614111
 11
202.499622
 21
398.614264
  0
LINE
  8
CSLAYER1
  6
CONTINUOUS
 62
     6
 10
261.452284
 20
398.614264
 11
260.434832
 21
399.614111
  0
LINE
  8
CSLAYER1
  6
CONTINUOUS
 62
     6
 10
619.181774
 20
285.614111
 11
619.181774
 21
286.614111
  0
LINE
  8
CSLAYER1
  6
CENTER
 62
     3
 10
649.181774
 20
402.614104
 11
649.181794
 21
197.614111
  0
LINE
  8
CSLAYER1
  6
CONTINUOUS
 62
     3
 10
618.181774
 20
338.746710
 11
632.681804
 21
338.746710
  0
LINE
  8
CSLAYER1
  6
CONTINUOUS
 62
     3
 10
633.681804
 20
337.746710
 11
633.681804
 21
301.746725
  0
LINE
  8
CSLAYER1
  6
CONTINUOUS
 62
     3
 10
632.681804
 20
300.746725
 11
618.181774
 21
300.746725
  0
ARC
  8
CSLAYER1
  6
CONTINUOUS
 62
     3
 10
632.681804
 20
337.746710
 40
1.000000
 50
-0.000001
 51
89.999995
  0
ARC
  8
CSLAYER1
  6
CONTINUOUS
 62
     3
 10
632.681804
 20
301.746725
 40
1.000000
 50
270.057309
 51
359.999999
  0
TEXT
  8
CSLAYER1
 62
     3
 10
619.795898
 20
318.789459
 40
3.500000
 41
1.125000
  1
N P
 50
360.000000
 51
10.000000
  7
JX_FONT
 72
     5
 11
630.295898
 21
318.789459
  0
LINE
  8
CSLAYER1
  6
CENTER
 62
     3
 10
623.181778
 20
292.089979
 11
623.181785
 21
263.614111
  0
ARC
  8
CSLAYER1
  6
CONTINUOUS
 62
     6
 10
619.802477
 20
286.458941
 40
0.120690
 50
89.999995
 51
179.999997
  0
ARC
  8
CSLAYER1
  6
CONTINUOUS
 62
     6
 10
626.561082
 20
286.458941
 40
0.120690
 50
-0.000001
 51
89.999995
  0
ARC
  8
CSLAYER1
  6
CONTINUOUS
 62
     6
 10
619.802477
 20
285.734801
 40
0.120690
 50
179.999997
 51
270.000000
  0
ARC
  8
CSLAYER1
  6
CONTINUOUS
 62
     6
 10
626.561082
 20
285.734801
 40
0.120690
 50
270.057309
 51
359.999999
  0
LINE
  8
CSLAYER1
  6
CONTINUOUS
 62
     6
 10
619.681772
 20
286.458941
 11
619.681772
 21
285.734801
  0
LINE
  8
CSLAYER1
  6
CONTINUOUS
 62
     6
 10
626.681787
 20
286.458941
 11
626.681787
 21
285.734801
  0
LINE
  8
CSLAYER1
  6
CONTINUOUS
 62
     6
 10
622.462546
 20
286.579630
 11
622.998240
 21
285.614111
  0
LINE
  8
CSLAYER1
  6
CONTINUOUS
 62
     6
 10
623.065995
 20
286.579630
 11
623.601690
 21
285.614111
  0
LINE
  8
CSLAYER1
  6
CONTINUOUS
 62
     6
 10
619.803376
 20
286.852538
 11
619.871529
 21
287.643078
  0
ARC
  8
CSLAYER1
  6
CONTINUOUS
 62
     6
 10
621.103901
 20
287.533688
 40
1.246121
 50
106.257211
 51
174.999882
  0
ARC
  8
CSLAYER1
  6
CONTINUOUS
 62
     6
 10
620.049838
 20
286.830675
 40
0.249229
 50
175.000282
 51
270.000017
  0
LINE
  8
CSLAYER1
  6
CONTINUOUS
 62
     6
 10
626.560184
 20
286.852538
 11
626.492030
 21
287.643078
  0
ARC
  8
CSLAYER1
  6
CONTINUOUS
 62
     6
 10
625.259659
 20
287.533688
 40
1.246121
 50
5.000108
 51
73.742792
  0
ARC
  8
CSLAYER1
  6
CONTINUOUS
 62
     6
 10
626.313721
 20
286.830675
 40
0.249229
 50
-89.942691
 51
4.999725
  0
LINE
  8
CSLAYER1
  6
CONTINUOUS
 62
     6
 10
619.802477
 20
286.579630
 11
626.561082
 21
286.579630
  0
LINE
  8
CSLAYER1
  6
CENTER
 62
     3
 10
675.181789
 20
292.089979
 11
675.181789
 21
263.614111
  0
ARC
  8
CSLAYER1
  6
CONTINUOUS
 62
     6
 10
671.802486
 20
286.458941
 40
0.120690
 50
89.999995
 51
179.999997
  0
ARC
  8
CSLAYER1
  6
CONTINUOUS
 62
     6
 10
678.561092
 20
286.458941
 40
0.120690
 50
-0.000001
 51
89.999995
  0
ARC
  8
CSLAYER1
  6
CONTINUOUS
 62
     6
 10
671.802486
 20
285.734801
 40
0.120690
 50
179.999997
 51
270.000000
  0
ARC
  8
CSLAYER1
  6
CONTINUOUS
 62
     6
 10
678.561092
 20
285.734801
 40
0.120690
 50
270.057309
 51
359.999999
  0
LINE
  8
CSLAYER1
  6
CONTINUOUS
 62
     6
 10
671.681782
 20
286.458941
 11
671.681782
 21
285.734801
  0
LINE
  8
CSLAYER1
  6
CONTINUOUS
 62
     6
 10
678.681796
 20
286.458941
 11
678.681796
 21
285.734801
  0
LINE
  8
CSLAYER1
  6
CONTINUOUS
 62
     6
 10
674.462556
 20
286.579630
 11
674.998250
 21
285.614111
  0
LINE
  8
CSLAYER1
  6
CONTINUOUS
 62
     6
 10
675.066005
 20
286.579630
 11
675.601699
 21
285.614111
  0
LINE
  8
CSLAYER1
  6
CONTINUOUS
 62
     6
 10
671.803385
 20
286.852538
 11
671.871538
 21
287.643078
  0
ARC
  8
CSLAYER1
  6
CONTINUOUS
 62
     6
 10
673.103910
 20
287.533688
 40
1.246121
 50
106.257211
 51
174.999882
  0
ARC
  8
CSLAYER1
  6
CONTINUOUS
 62
     6
 10
672.049848
 20
286.830675
 40
0.249229
 50
175.000282
 51
270.000017
  0
LINE
  8
CSLAYER1
  6
CONTINUOUS
 62
     6
 10
678.560193
 20
286.852538
 11
678.492040
 21
287.643078
  0
ARC
  8
CSLAYER1
  6
CONTINUOUS
 62
     6
 10
677.259668
 20
287.533688
 40
1.246121
 50
5.000108
 51
73.742792
  0
ARC
  8
CSLAYER1
  6
CONTINUOUS
 62
     6
 10
678.313730
 20
286.830675
 40
0.249229
 50
-89.942691
 51
4.999725
  0
LINE
  8
CSLAYER1
  6
CONTINUOUS
 62
     6
 10
671.802486
 20
286.579630
 11
678.561092
 21
286.579630
  0
LINE
  8
CSLAYER1
  6
CONTINUOUS
 62
     6
 10
679.181774
 20
285.614111
 11
679.181774
 21
286.614111
  0
ARC
  8
CSLAYER1
  6
CONTINUOUS
 62
     6
 10
619.181774
 20
283.614111
 40
2.000000
 50
90.000009
 51
179.999997
  0
ARC
  8
CSLAYER1
  6
CONTINUOUS
 62
     6
 10
679.181804
 20
283.614111
 40
2.000000
 50
0.000027
 51
89.999995
  0
LINE
  8
CSLAYER1
  6
CONTINUOUS
 62
     6
 10
619.181774
 20
285.614111
 11
679.181804
 21
285.614111
  0
LINE
  8
CSLAYER1
  6
CONTINUOUS
 62
     6
 10
619.181758
 20
285.614126
 11
619.181758
 21
286.614126
  0
LINE
  8
CSLAYER1
  6
CONTINUOUS
 62
     6
 10
617.181774
 20
283.614111
 11
617.181774
 21
268.614111
  0
LINE
  8
CSLAYER1
  6
CONTINUOUS
 62
     6
 10
617.181774
 20
276.614111
 11
681.181804
 21
276.614111
  0
LINE
  8
CSLAYER1
  6
CONTINUOUS
 62
     6
 10
681.181804
 20
283.614112
 11
681.181804
 21
273.530177
  0
LINE
  8
CSLAYER1
  6
CONTINUOUS
 62
     6
 10
618.181774
 20
286.614111
 11
619.926489
 21
286.614111
  0
LINE
  8
CSLAYER1
  6
CONTINUOUS
 62
     6
 10
618.181774
 20
368.614111
 11
680.181774
 21
368.614111
  0
LINE
  8
CSLAYER1
  6
CONTINUOUS
 62
     6
 10
618.181774
 20
286.614111
 11
618.181774
 21
368.614111
  0
LINE
  8
CSLAYER1
  6
CONTINUOUS
 62
     6
 10
680.181774
 20
286.614111
 11
680.181774
 21
368.614111
  0
LINE
  8
CSLAYER1
  6
CONTINUOUS
 62
     6
 10
626.437071
 20
286.614111
 11
671.926498
 21
286.614111
  0
LINE
  8
CSLAYER1
  6
CONTINUOUS
 62
     6
 10
678.437080
 20
286.614111
 11
680.181774
 21
286.614111
  0
LINE
  8
CSLAYER1
  6
CENTER
 62
     3
 10
636.181774
 20
379.614111
 11
700.564386
 21
379.614111
  0
CIRCLE
  8
CSLAYER1
  6
CONTINUOUS
 62
     6
 10
649.181774
 20
379.614111
 40
8.000000
  0
CIRCLE
  8
CSLAYER1
  6
CONTINUOUS
 62
     6
 10
649.181774
 20
379.614111
 40
6.000000
  0
CIRCLE
  8
CSLAYER1
  6
CONTINUOUS
 62
     3
 10
649.181774
 20
379.614111
 40
5.500000
  0
LINE
  8
CSLAYER1
  6
CONTINUOUS
 62
     6
 10
648.381771
 20
376.864111
 11
648.381771
 21
382.364111
  0
LINE
  8
CSLAYER1
  6
CONTINUOUS
 62
     6
 10
649.981777
 20
376.864111
 11
649.981777
 21
382.364111
  0
LINE
  8
CSLAYER1
  6
CONTINUOUS
 62
     6
 10
648.381771
 20
382.364111
 11
649.981777
 21
382.364111
  0
LINE
  8
CSLAYER1
  6
CONTINUOUS
 62
     6
 10
648.381771
 20
376.864111
 11
649.981777
 21
376.864111
  0
LINE
  8
CSLAYER1
  6
CONTINUOUS
 62
     6
 10
677.658107
 20
399.614111
 11
620.705440
 21
399.614111
  0
LINE
  8
CSLAYER1
  6
CONTINUOUS
 62
     6
 10
678.658107
 20
398.614111
 11
619.705440
 21
398.614111
  0
LINE
  8
CSLAYER1
  6
CONTINUOUS
 62
     6
 10
619.705440
 20
398.614111
 11
619.181789
 21
368.614096
  0
LINE
  8
CSLAYER1
  6
CONTINUOUS
 62
     6
 10
619.705440
 20
398.614111
 11
620.705440
 21
399.614111
  0
LINE
  8
CSLAYER1
  6
CONTINUOUS
 62
     6
 10
678.658107
 20
398.614111
 11
679.181758
 21
368.614096
  0
LINE
  8
CSLAYER1
  6
CONTINUOUS
 62
     6
 10
678.658107
 20
398.614111
 11
677.658107
 21
399.614111
  0
LINE
  8
CSLAYER1
  6
CONTINUOUS
 62
     6
 10
661.548071
 20
266.614111
 11
619.181774
 21
266.614111
  0
ARC
  8
CSLAYER1
  6
CONTINUOUS
 62
     6
 10
619.181774
 20
268.614111
 40
2.000000
 50
180.000000
 51
270.000000
  0
LINE
  8
CSLAYER1
  6
CENTER
 62
     3
 10
720.181774
 20
238.614111
 11
629.181790
 21
238.614111
  0
LINE
  8
CSLAYER1
  6
CONTINUOUS
 62
     6
 10
661.548071
 20
210.614111
 11
619.181774
 21
210.614111
  0
LINE
  8
CSLAYER1
  6
CONTINUOUS
 62
     6
 10
681.181804
 20
200.614111
 11
617.181774
 21
200.614111
  0
ARC
  8
CSLAYER1
  6
CONTINUOUS
 62
     6
 10
619.181774
 20
208.614111
 40
2.000000
 50
90.000000
 51
180.000000
  0
LINE
  8
CSLAYER1
  6
CONTINUOUS
 62
     6
 10
617.181774
 20
208.614111
 11
617.181774
 21
200.614111
  0
LINE
  8
CSLAYER1
  6
CONTINUOUS
 62
     6
 10
681.181804
 20
203.698045
 11
681.181804
 21
200.614111
  0
LINE
  8
CSLAYER1
  6
CONTINUOUS
 62
     6
 10
632.181787
 20
263.614112
 11
632.181793
 21
213.614112
  0
ARC
  8
CSLAYER1
  6
CONTINUOUS
 62
     6
 10
629.181787
 20
263.614111
 40
3.000000
 50
0.000006
 51
90.000000
  0
ARC
  8
CSLAYER1
  6
CONTINUOUS
 62
     6
 10
629.181793
 20
213.614111
 40
3.000000
 50
-90.000000
 51
0.000006
  0
LINE
  8
CSLAYER1
  6
CENTER
 62
     3
 10
682.181786
 20
276.614111
 11
682.181794
 21
200.614127
  0
CIRCLE
  8
CSLAYER1
  6
CONTINUOUS
 62
     6
 10
682.181790
 20
238.614111
 40
16.000000
  0
CIRCLE
  8
CSLAYER1
  6
CONTINUOUS
 62
     6
 10
682.181790
 20
238.614111
 40
21.000005
  0
ARC
  8
CSLAYER1
  6
CONTINUOUS
 62
     6
 10
711.181774
 20
238.614111
 40
6.000000
 50
-70.659467
 51
70.659467
  0
ARC
  8
CSLAYER1
  6
CONTINUOUS
 62
     6
 10
682.181790
 20
209.614127
 40
6.000000
 50
199.340533
 51
340.659467
  0
ARC
  8
CSLAYER1
  6
CONTINUOUS
 62
     6
 10
682.181790
 20
267.614095
 40
6.000000
 50
19.340533
 51
160.659467
  0
LINE
  8
CSLAYER1
  6
CENTER
 62
     3
 10
623.181794
 20
197.614111
 11
623.181794
 21
213.614111
  0
LINE
  8
CSLAYER1
  6
CENTER
 62
     3
 10
661.181794
 20
197.614111
 11
661.181794
 21
213.614111
  0
LINE
  8
CSLAYER1
  6
CONTINUOUS
 62
     6
 10
634.181787
 20
263.614112
 11
634.181793
 21
213.614112
  0
ARC
  8
CSLAYER1
  6
CONTINUOUS
 62
     6
 10
623.181780
 20
280.303755
 40
8.786224
 50
73.933745
 51
106.066256
  0
ARC
  8
CSLAYER1
  6
CONTINUOUS
 62
     6
 10
675.181789
 20
280.303755
 40
8.786224
 50
73.933745
 51
106.066256
  0
ARC
  8
CSLAYER1
  6
CONTINUOUS
 62
     6
 10
690.428522
 20
394.272955
 40
15.758816
 50
270.057309
 51
297.463798
  0
ARC
  8
CSLAYER1
  6
CONTINUOUS
 62
     6
 10
690.428522
 20
394.272955
 40
13.558834
 50
270.057309
 51
297.463798
  0
ARC
  8
CSLAYER1
  6
CONTINUOUS
 62
     6
 10
691.381113
 20
379.064123
 40
1.099999
 50
149.999655
 51
209.999650
  0
ARC
  8
CSLAYER1
  6
CONTINUOUS
 62
     6
 10
691.381128
 20
380.164122
 40
1.099999
 50
149.999655
 51
209.999650
  0
ARC
  8
CSLAYER1
  6
CONTINUOUS
 62
     6
 10
689.475870
 20
380.164130
 40
1.099999
 50
-30.000350
 51
29.999638
  0
LINE
  8
CSLAYER1
  6
CONTINUOUS
 62
     6
 10
697.023477
 20
381.584555
 11
699.961550
 21
383.201712
  0
LINE
  8
CSLAYER1
  6
CONTINUOUS
 62
     6
 10
697.277612
 20
381.095633
 11
700.285028
 21
382.672415
  0
LINE
  8
CSLAYER1
  6
CONTINUOUS
 62
     6
 10
697.484567
 20
380.697500
 11
700.564371
 21
382.098990
  0
LINE
  8
CSLAYER1
  6
CONTINUOUS
 62
     6
 10
696.681680
 20
382.242178
 11
697.696298
 21
380.290121
  0
ARC
  8
CSLAYER1
  6
CONTINUOUS
 62
     6
 10
690.428522
 20
364.955267
 40
15.758816
 50
62.536132
 51
67.577932
  0
ARC
  8
CSLAYER1
  6
CONTINUOUS
 62
     6
 10
690.428522
 20
364.955267
 40
13.558834
 50
62.536132
 51
90.000022
  0
LINE
  8
CSLAYER1
  6
CONTINUOUS
 62
     6
 10
697.023508
 20
377.643667
 11
699.961565
 21
376.026495
  0
LINE
  8
CSLAYER1
  6
CONTINUOUS
 62
     6
 10
697.277628
 20
378.132590
 11
700.285028
 21
376.555807
  0
LINE
  8
CSLAYER1
  6
CONTINUOUS
 62
     6
 10
697.484567
 20
378.530722
 11
700.564386
 21
377.129217
  0
LINE
  8
CSLAYER1
  6
CONTINUOUS
 62
     6
 10
696.681696
 20
376.986044
 11
697.696314
 21
378.938101
  0
ARC
  8
CSLAYER1
  6
CONTINUOUS
 62
     6
 10
686.563654
 20
380.164099
 40
1.100006
 50
-29.999995
 51
29.999993
  0
ARC
  8
CSLAYER1
  6
CONTINUOUS
 62
     6
 10
686.563654
 20
379.064093
 40
1.100006
 50
-29.999995
 51
29.999993
  0
ARC
  8
CSLAYER1
  6
CONTINUOUS
 62
     6
 10
688.468927
 20
379.064093
 40
1.100006
 50
149.999997
 51
209.999998
  0
LINE
  8
CSLAYER1
  6
CONTINUOUS
 62
     6
 10
679.008968
 20
378.514105
 11
687.516290
 21
378.514105
  0
LINE
  8
CSLAYER1
  6
CONTINUOUS
 62
     6
 10
678.970562
 20
380.714102
 11
687.516290
 21
380.714102
  0
ARC
  8
CSLAYER1
  6
CONTINUOUS
 62
     6
 10
682.181790
 20
238.614111
 40
31.500005
 50
10.353859
 51
79.646141
  0
ARC
  8
CSLAYER1
  6
CONTINUOUS
 62
     6
 10
682.181790
 20
238.614111
 40
31.500005
 50
280.353859
 51
349.646141
  0
ARC
  8
CSLAYER1
  6
CONTINUOUS
 62
     6
 10
653.181806
 20
238.614105
 40
6.000000
 50
109.340545
 51
250.659479
  0
ARC
  8
CSLAYER1
  6
CONTINUOUS
 62
     6
 10
682.181790
 20
238.614111
 40
31.500005
 50
190.353871
 51
259.646141
  0
ARC
  8
CSLAYER1
  6
CONTINUOUS
 62
     6
 10
682.181790
 20
238.614111
 40
31.500005
 50
100.353859
 51
169.646154
  0
ARC
  8
CSLAYER1
  6
CONTINUOUS
 62
     6
 10
682.181790
 20
238.614111
 40
34.500005
 50
235.029207
 51
263.128143
  0
ARC
  8
CSLAYER1
  6
CONTINUOUS
 62
     6
 10
661.548071
 20
209.114111
 40
1.500000
 50
55.029207
 51
90.000000
  0
ARC
  8
CSLAYER1
  6
CONTINUOUS
 62
     6
 10
682.181790
 20
209.614127
 40
6.500000
 50
237.423757
 51
251.790151
  0
ARC
  8
CSLAYER1
  6
CONTINUOUS
 62
     6
 10
677.874418
 20
202.872722
 40
1.500000
 50
57.423757
 51
83.128143
  0
ARC
  8
CSLAYER1
  6
CONTINUOUS
 62
     6
 10
679.681804
 20
202.014781
 40
1.500000
 50
0.000000
 51
71.790151
  0
CIRCLE
  8
CSLAYER1
  6
CONTINUOUS
 62
     6
 10
682.181782
 20
206.614113
 40
2.750000
  0
ARC
  8
CSLAYER1
  6
CONTINUOUS
 62
     6
 10
682.181781
 20
206.614102
 40
1.527778
 50
253.398391
 51
286.601553
  0
ARC
  8
CSLAYER1
  6
CONTINUOUS
 62
     6
 10
682.181781
 20
206.614102
 40
1.527778
 50
-16.601603
 51
16.601559
  0
ARC
  8
CSLAYER1
  6
CONTINUOUS
 62
     6
 10
682.181781
 20
206.614102
 40
1.527778
 50
73.398414
 51
106.601548
  0
ARC
  8
CSLAYER1
  6
CONTINUOUS
 62
     6
 10
682.181781
 20
206.614102
 40
1.527778
 50
163.398382
 51
196.601571
  0
LINE
  8
CSLAYER1
  6
CONTINUOUS
 62
     6
 10
682.618295
 20
207.487129
 11
682.618295
 21
208.078188
  0
LINE
  8
CSLAYER1
  6
CONTINUOUS
 62
     6
 10
682.618294
 20
205.741076
 11
682.618294
 21
205.150017
  0
LINE
  8
CSLAYER1
  6
CONTINUOUS
 62
     6
 10
681.745268
 20
207.487129
 11
681.745268
 21
208.078188
  0
LINE
  8
CSLAYER1
  6
CONTINUOUS
 62
     6
 10
681.745267
 20
205.741076
 11
681.745267
 21
205.150017
  0
LINE
  8
CSLAYER1
  6
CONTINUOUS
 62
     6
 10
683.054785
 20
206.177589
 11
683.645889
 21
206.177589
  0
LINE
  8
CSLAYER1
  6
CONTINUOUS
 62
     6
 10
681.308777
 20
206.177590
 11
680.717673
 21
206.177590
  0
LINE
  8
CSLAYER1
  6
CONTINUOUS
 62
     6
 10
683.054785
 20
207.050615
 11
683.645889
 21
207.050615
  0
LINE
  8
CSLAYER1
  6
CONTINUOUS
 62
     6
 10
681.308777
 20
207.050616
 11
680.717673
 21
207.050616
  0
ARC
  8
CSLAYER1
  6
CONTINUOUS
 62
     6
 10
683.054785
 20
207.487129
 40
0.436508
 50
179.999976
 51
269.942667
  0
ARC
  8
CSLAYER1
  6
CONTINUOUS
 62
     6
 10
681.308778
 20
207.487130
 40
0.436508
 50
269.999986
 51
359.999992
  0
ARC
  8
CSLAYER1
  6
CONTINUOUS
 62
     6
 10
681.308777
 20
205.741076
 40
0.436508
 50
-0.000008
 51
89.999981
  0
ARC
  8
CSLAYER1
  6
CONTINUOUS
 62
     6
 10
683.054785
 20
205.741075
 40
0.436508
 50
89.999981
 51
179.942630
  0
ARC
  8
CSLAYER1
  6
CENTER
 62
     3
 10
682.181790
 20
238.614111
 40
32.000005
 50
261.493044
 51
278.506926
  0
CIRCLE
  8
CSLAYER1
  6
CONTINUOUS
 62
     6
 10
714.181789
 20
238.614103
 40
2.750000
  0
ARC
  8
CSLAYER1
  6
CONTINUOUS
 62
     6
 10
714.181799
 20
238.614102
 40
1.527778
 50
-16.601609
 51
16.601553
  0
ARC
  8
CSLAYER1
  6
CONTINUOUS
 62
     6
 10
714.181799
 20
238.614102
 40
1.527778
 50
73.398397
 51
106.601559
  0
ARC
  8
CSLAYER1
  6
CONTINUOUS
 62
     6
 10
714.181799
 20
238.614102
 40
1.527778
 50
163.398414
 51
196.601548
  0
ARC
  8
CSLAYER1
  6
CONTINUOUS
 62
     6
 10
714.181799
 20
238.614102
 40
1.527778
 50
253.398382
 51
286.601571
  0
LINE
  8
CSLAYER1
  6
CONTINUOUS
 62
     6
 10
713.308772
 20
239.050616
 11
712.717713
 21
239.050616
  0
LINE
  8
CSLAYER1
  6
CONTINUOUS
 62
     6
 10
715.054825
 20
239.050615
 11
715.645884
 21
239.050615
  0
LINE
  8
CSLAYER1
  6
CONTINUOUS
 62
     6
 10
713.308772
 20
238.177589
 11
712.717713
 21
238.177590
  0
LINE
  8
CSLAYER1
  6
CONTINUOUS
 62
     6
 10
715.054825
 20
238.177589
 11
715.645884
 21
238.177588
  0
LINE
  8
CSLAYER1
  6
CONTINUOUS
 62
     6
 10
714.618312
 20
239.487106
 11
714.618313
 21
240.078210
  0
LINE
  8
CSLAYER1
  6
CONTINUOUS
 62
     6
 10
714.618312
 20
237.741098
 11
714.618311
 21
237.149994
  0
LINE
  8
CSLAYER1
  6
CONTINUOUS
 62
     6
 10
713.745286
 20
239.487106
 11
713.745286
 21
240.078211
  0
LINE
  8
CSLAYER1
  6
CONTINUOUS
 62
     6
 10
713.745285
 20
237.741099
 11
713.745285
 21
237.149994
  0
ARC
  8
CSLAYER1
  6
CONTINUOUS
 62
     6
 10
713.308772
 20
239.487107
 40
0.436508
 50
269.999976
 51
359.942667
  0
ARC
  8
CSLAYER1
  6
CONTINUOUS
 62
     6
 10
713.308772
 20
237.741099
 40
0.436508
 50
-0.000014
 51
89.999992
  0
ARC
  8
CSLAYER1
  6
CONTINUOUS
 62
     6
 10
715.054825
 20
237.741098
 40
0.436508
 50
89.999992
 51
179.999981
  0
ARC
  8
CSLAYER1
  6
CONTINUOUS
 62
     6
 10
715.054826
 20
239.487106
 40
0.436508
 50
179.999981
 51
269.942630
  0
ARC
  8
CSLAYER1
  6
CENTER
 62
     3
 10
682.181790
 20
238.614111
 40
32.000005
 50
-8.506956
 51
8.506926
  0
CIRCLE
  8
CSLAYER1
  6
CONTINUOUS
 62
     6
 10
682.181798
 20
270.614110
 40
2.750000
  0
ARC
  8
CSLAYER1
  6
CONTINUOUS
 62
     6
 10
682.181799
 20
270.614120
 40
1.527778
 50
73.398391
 51
106.601553
  0
ARC
  8
CSLAYER1
  6
CONTINUOUS
 62
     6
 10
682.181799
 20
270.614120
 40
1.527778
 50
163.398397
 51
196.601559
  0
ARC
  8
CSLAYER1
  6
CONTINUOUS
 62
     6
 10
682.181799
 20
270.614120
 40
1.527778
 50
253.398414
 51
286.601548
  0
ARC
  8
CSLAYER1
  6
CONTINUOUS
 62
     6
 10
682.181799
 20
270.614120
 40
1.527778
 50
-16.601618
 51
16.601571
  0
LINE
  8
CSLAYER1
  6
CONTINUOUS
 62
     6
 10
681.745285
 20
269.741093
 11
681.745285
 21
269.150035
  0
LINE
  8
CSLAYER1
  6
CONTINUOUS
 62
     6
 10
681.745286
 20
271.487147
 11
681.745286
 21
272.078205
  0
LINE
  8
CSLAYER1
  6
CONTINUOUS
 62
     6
 10
682.618312
 20
269.741093
 11
682.618311
 21
269.150034
  0
LINE
  8
CSLAYER1
  6
CONTINUOUS
 62
     6
 10
682.618312
 20
271.487146
 11
682.618313
 21
272.078205
  0
LINE
  8
CSLAYER1
  6
CONTINUOUS
 62
     6
 10
681.308795
 20
271.050634
 11
680.717691
 21
271.050634
  0
LINE
  8
CSLAYER1
  6
CONTINUOUS
 62
     6
 10
683.054803
 20
271.050633
 11
683.645907
 21
271.050633
  0
LINE
  8
CSLAYER1
  6
CONTINUOUS
 62
     6
 10
681.308795
 20
270.177607
 11
680.717691
 21
270.177607
  0
LINE
  8
CSLAYER1
  6
CONTINUOUS
 62
     6
 10
683.054802
 20
270.177606
 11
683.645907
 21
270.177606
  0
ARC
  8
CSLAYER1
  6
CONTINUOUS
 62
     6
 10
681.308795
 20
269.741094
 40
0.436508
 50
-0.000024
 51
89.942667
  0
ARC
  8
CSLAYER1
  6
CONTINUOUS
 62
     6
 10
683.054802
 20
269.741093
 40
0.436508
 50
89.999986
 51
179.999992
  0
ARC
  8
CSLAYER1
  6
CONTINUOUS
 62
     6
 10
683.054803
 20
271.487146
 40
0.436508
 50
179.999992
 51
269.999981
  0
ARC
  8
CSLAYER1
  6
CONTINUOUS
 62
     6
 10
681.308795
 20
271.487147
 40
0.436508
 50
269.999981
 51
359.942630
  0
ARC
  8
CSLAYER1
  6
CENTER
 62
     3
 10
682.181790
 20
238.614111
 40
32.000005
 50
81.493044
 51
98.506926
  0
CIRCLE
  8
CSLAYER1
  6
CONTINUOUS
 62
     6
 10
650.181791
 20
238.614120
 40
2.750000
  0
ARC
  8
CSLAYER1
  6
CONTINUOUS
 62
     6
 10
650.181781
 20
238.614120
 40
1.527778
 50
163.398391
 51
196.601553
  0
ARC
  8
CSLAYER1
  6
CONTINUOUS
 62
     6
 10
650.181781
 20
238.614120
 40
1.527778
 50
253.398397
 51
286.601559
  0
ARC
  8
CSLAYER1
  6
CONTINUOUS
 62
     6
 10
650.181781
 20
238.614120
 40
1.527778
 50
-16.601586
 51
16.601548
  0
ARC
  8
CSLAYER1
  6
CONTINUOUS
 62
     6
 10
650.181781
 20
238.614120
 40
1.527778
 50
73.398382
 51
106.601571
  0
LINE
  8
CSLAYER1
  6
CONTINUOUS
 62
     6
 10
651.054808
 20
238.177606
 11
651.645866
 21
238.177606
  0
LINE
  8
CSLAYER1
  6
CONTINUOUS
 62
     6
 10
649.308754
 20
238.177607
 11
648.717696
 21
238.177607
  0
LINE
  8
CSLAYER1
  6
CONTINUOUS
 62
     6
 10
651.054808
 20
239.050633
 11
651.645867
 21
239.050633
  0
LINE
  8
CSLAYER1
  6
CONTINUOUS
 62
     6
 10
649.308755
 20
239.050634
 11
648.717696
 21
239.050634
  0
LINE
  8
CSLAYER1
  6
CONTINUOUS
 62
     6
 10
649.745268
 20
237.741116
 11
649.745267
 21
237.150012
  0
LINE
  8
CSLAYER1
  6
CONTINUOUS
 62
     6
 10
649.745268
 20
239.487124
 11
649.745269
 21
240.078228
  0
LINE
  8
CSLAYER1
  6
CONTINUOUS
 62
     6
 10
650.618294
 20
237.741116
 11
650.618294
 21
237.150012
  0
LINE
  8
CSLAYER1
  6
CONTINUOUS
 62
     6
 10
650.618295
 20
239.487124
 11
650.618295
 21
240.078228
  0
ARC
  8
CSLAYER1
  6
CONTINUOUS
 62
     6
 10
651.054807
 20
237.741116
 40
0.436508
 50
89.999976
 51
179.942667
  0
ARC
  8
CSLAYER1
  6
CONTINUOUS
 62
     6
 10
651.054808
 20
239.487124
 40
0.436508
 50
179.999986
 51
269.999992
  0
ARC
  8
CSLAYER1
  6
CONTINUOUS
 62
     6
 10
649.308755
 20
239.487124
 40
0.436508
 50
269.999992
 51
359.999981
  0
ARC
  8
CSLAYER1
  6
CONTINUOUS
 62
     6
 10
649.308754
 20
237.741117
 40
0.436508
 50
-0.000019
 51
89.942630
  0
ARC
  8
CSLAYER1
  6
CENTER
 62
     3
 10
682.181790
 20
238.614111
 40
32.000005
 50
171.493044
 51
188.506926
  0
ARC
  8
CSLAYER1
  6
CONTINUOUS
 62
     6
 10
682.181790
 20
238.614111
 40
34.500005
 50
96.871857
 51
124.970793
  0
ARC
  8
CSLAYER1
  6
CONTINUOUS
 62
     6
 10
661.548071
 20
268.114111
 40
1.500000
 50
270.000000
 51
304.970793
  0
ARC
  8
CSLAYER1
  6
CONTINUOUS
 62
     6
 10
682.181790
 20
267.614095
 40
6.500000
 50
108.209849
 51
122.576243
  0
ARC
  8
CSLAYER1
  6
CONTINUOUS
 62
     6
 10
677.874418
 20
274.355501
 40
1.500000
 50
276.871857
 51
302.576243
  0
ARC
  8
CSLAYER1
  6
CONTINUOUS
 62
     6
 10
679.681804
 20
275.213442
 40
1.500000
 50
288.209849
 51
360.000000
  0
LINE
  8
CSLAYER1
  6
CONTINUOUS
 62
     3
 10
699.572961
 20
218.175066
 11
700.334930
 21
218.937034
  0
LINE
  8
CSLAYER1
  6
CONTINUOUS
 62
     3
 10
700.334930
 20
218.937034
 11
699.572961
 21
219.699003
  0
LINE
  8
CSLAYER1
  6
CONTINUOUS
 62
     3
 10
699.572961
 20
219.699003
 11
702.620835
 21
221.222940
  0
LINE
  8
CSLAYER1
  6
CONTINUOUS
 62
     3
 10
702.620835
 20
221.222940
 11
701.858867
 21
220.460971
  0
LINE
  8
CSLAYER1
  6
CONTINUOUS
 62
     3
 10
701.858867
 20
220.460971
 11
702.620835
 21
219.699003
  0
LINE
  8
CSLAYER1
  6
CONTINUOUS
 62
     3
 10
702.620835
 20
219.699003
 11
699.572961
 21
218.175066
  0
CIRCLE
  8
CSLAYER1
  6
CONTINUOUS
 62
     3
 10
701.096898
 20
219.699003
 40
2.155172
  0
CIRCLE
  8
CSLAYER1
  6
CONTINUOUS
 62
     3
 10
701.096898
 20
219.699003
 40
2.500000
  0
ENDSEC
  0
EOF
