  0
SECTION
  2
HEADER
  9
$ACADVER
  1
AC1006
  9
$INSBASE
 10
0.000000
 20
0.000000
 30
0.0
  9
$EXTMIN
 10
0.000000
 20
0.000000
  9
$EXTMAX
 10
841.000000
 20
594.000000
  9
$LIMMIN
 10
0.000000
 20
0.000000
  9
$LIMMAX
 10
841.000000
 20
594.000000
  9
$VIEWCTR
 10
420.500000
 20
297.000000
  9
$VIEWSIZE
 40
594.000000
  9
$SNAPMODE
 70
     0
  9
$SNAPUNIT
 10
1.0
 20
1.0
  9
$SNAPBASE
 10
0.0
 20
0.0
  9
$SNAPANG
 50
0.0
  9
$SNAPSTYLE
 70
     0
  9
$SNAPISOPAIR
 70
     0
  9
$GRIDMODE
 70
     0
  9
$GRIDUNIT
 10
0.0
 20
0.0
  9
$ORTHOMODE
 70
     0
  9
$REGENMODE
 70
     1
  9
$FILLMODE
 70
     1
  9
$QTEXTMODE
 70
     0
  9
$DRAGMODE
 70
     2
  9
$LTSCALE
 40
15.000000
  9
$OSMODE
 70
     0
  9
$ATTMODE
 70
     1
  9
$TEXTSIZE
 40
0.2
  9
$TRACEWID
 40
0.05
  9
$TEXTSTYLE
  7
STANDARD
  9
$CLAYER
  8
CSLAYER1
  9
$CELTYPE
  6
BYLAYER
  9
$CECOLOR
 62
   256
  9
$DIMSCALE
 40
1.0
  9
$DIMASZ
 40
0.18
  9
$DIMEXO
 40
0.0625
  9
$DIMDLI
 40
0.38
  9
$DIMRND
 40
0.0
  9
$DIMDLE
 40
0.0
  9
$DIMEXE
 40
0.18
  9
$DIMTP
 40
0.0
  9
$DIMTM
 40
0.0
  9
$DIMTXT
 40
0.18
  9
$DIMCEN
 40
0.09
  9
$DIMTSZ
 40
0.0
  9
$DIMTOL
 70
     0
  9
$DIMLIM
 70
     0
  9
$DIMTIH
 70
     1
  9
$DIMTOH
 70
     1
  9
$DIMSE1
 70
     0
  9
$DIMSE2
 70
     0
  9
$DIMTAD
 70
     0
  9
$DIMZIN
 70
     0
  9
$DIMBLK
  1

  9
$LUNITS
 70
     2
  9
$LUPREC
 70
     4
  9
$AXISMODE
 70
     0
  9
$AXISUNIT
 10
0.0
 20
0.0
  9
$SKETCHINC
 40
0.1
  9
$FILLETRAD
 40
0.0
  9
$AUNITS
 70
     0
  9
$AUPREC
 70
     0
  9
$MENU
  1
ACAD
  9
$ELEVATION
 40
0.0
  9
$THICKNESS
 40
0.0
  9
$VIEWDIR
 10
0.0
 20
0.0
 30
1.0
  9
$LIMCHECK
 70
     0
  9
$BLIPMODE
 70
     1
  9
$CHAMFERA
 40
0.0
  9
$CHAMFERB
 40
0.0
  9
$FASTZOOM
 70
     1
  9
$SKPOLY
 70
     0
  9
$TDCREATE
 40
0.000000
  9
$TDUPDATE
 40
0.000000
  9
$TDINDWG
 40
0.0
  9
$TDUSRTIMER
 40
0.0
  9
$USRTIMER
 70
     1
  9
$ANGBASE
 50
0.0
  9
$ANGDIR
 70
     0
  9
$PDMODE
 70
     0
  9
$PDSIZE
 40
0.0
  9
$PLINEWID
 40
0.0
  9
$COORDS
 70
     0
  9
$USERI1
 70
     0
  9
$USERI2
 70
     0
  9
$USERI3
 70
     0
  9
$USERI4
 70
     0
  9
$USERI5
 70
     0
  9
$USERR1
 40
0.0
  9
$USERR2
 40
0.0
  9
$USERR3
 40
0.0
  9
$USERR4
 40
0.0
  9
$USERR5
 40
0.0
  0
ENDSEC
  0
SECTION
  2
TABLES
  0
TABLE
  2
LTYPE
 70
     9
  0
LTYPE
  2
CONTINUOUS
 70
    64
  3
Solid line
 72
    65
 73
     0
 40
0.0
  0
LTYPE
  2
DASHED
 70
    64
  3
__ __ __ __ __ __ __ __ __ __ __ __ __ __ __
 72
    65
 73
     2
 40
0.75
 49
0.5
 49
-0.25
  0
LTYPE
  2
HIDDEN
 70
    64
  3
_ _ _ _ _ _ _ _ _ _ _ _ _ _ _ _ _ _ _ _ _ _ _
 72
    65
 73
     2
 40
0.375
 49
0.25
 49
-0.125
  0
LTYPE
  2
DOT
 70
    64
  3
...............................................
 72
    65
 73
     2
 40
0.25
 49
0.0
 49
-0.25
  0
LTYPE
  2
DASHDOT
 70
    64
  3
__ . __ . __ . __ . __ . __ . __ . __ . __ . __
 72
    65
 73
     4
 40
1.0
 49
0.5
 49
-0.25
 49
0.0
 49
-0.25
  0
LTYPE
  2
DIVIDE
 70
    64
  3
__ . . __ . . __ . . __ . . __ . . __ . . __
 72
    65
 73
     6
 40
1.25
 49
0.5
 49
-0.25
 49
0.0
 49
-0.25
 49
0.0
 49
-0.25
  0
LTYPE
  2
CENTER
 70
    64
  3
____ _ ____ _ ____ _ ____ _ ____ _ ____ _ ____ 
 72
    65
 73
     4
 40
2.0
 49
1.25
 49
-0.25
 49
0.25
 49
-0.25
  0
LTYPE
  2
PHANTOM
 70
    64
  3
______  __  __  ______  __  __  ______  __  __ 
 72
    65
 73
     6
 40
2.5
 49
1.25
 49
-0.25
 49
0.25
 49
-0.25
 49
0.25
 49
-0.25
  0
LTYPE
  2
BORDER
 70
    64
  3
__ __ . __ __ . __ __ . __ __ . __ __ . __ __ .
 72
    65
 73
     6
 40
1.75
 49
0.5
 49
-0.25
 49
0.5
 49
-0.25
 49
0.0
 49
-0.25
  0
ENDTAB
  0
TABLE
  2
LAYER
 70
    16
  0
LAYER
  2
CSLAYER1
 70
    64
 62
     7
  6
CONTINUOUS
  0
LAYER
  2
CSLAYER2
 70
    64
 62
     7
  6
CONTINUOUS
  0
LAYER
  2
CSLAYER3
 70
    64
 62
     7
  6
CONTINUOUS
  0
LAYER
  2
CSLAYER4
 70
    64
 62
     7
  6
CONTINUOUS
  0
LAYER
  2
CSLAYER5
 70
    64
 62
     7
  6
CONTINUOUS
  0
LAYER
  2
CSLAYER6
 70
    64
 62
     7
  6
CONTINUOUS
  0
LAYER
  2
CSLAYER7
 70
    64
 62
     7
  6
CONTINUOUS
  0
LAYER
  2
CSLAYER8
 70
    64
 62
     7
  6
CONTINUOUS
  0
LAYER
  2
CSLAYER9
 70
    64
 62
     7
  6
CONTINUOUS
  0
LAYER
  2
CSLAYER10
 70
    64
 62
     7
  6
CONTINUOUS
  0
LAYER
  2
CSLAYER11
 70
    64
 62
     7
  6
CONTINUOUS
  0
LAYER
  2
CSLAYER12
 70
    64
 62
     7
  6
CONTINUOUS
  0
LAYER
  2
CSLAYER13
 70
    64
 62
     7
  6
CONTINUOUS
  0
LAYER
  2
CSLAYER14
 70
    64
 62
     7
  6
CONTINUOUS
  0
LAYER
  2
CSLAYER15
 70
    64
 62
     7
  6
CONTINUOUS
  0
LAYER
  2
CSLAYER16
 70
    64
 62
     7
  6
CONTINUOUS
  0
ENDTAB
  0
TABLE
  2
STYLE
 70
     1
  0
STYLE
  2
JX_FONT
 70
     0
 40
1.0
 41
1.0
 50
0.0
 71
     0
 42
1.0
  3
monotxt
  4
bigfont
  0
ENDTAB
  0
TABLE
  2
VIEW
 70
     0
  0
ENDTAB
  0
ENDSEC
  0
SECTION
  2
BLOCKS
  0
ENDSEC
  0
SECTION
  2
ENTITIES
  0
LINE
  8
CSLAYER1
  6
CONTINUOUS
 62
     6
 10
663.109612
 20
285.614111
 11
663.109612
 21
286.614111
  0
LINE
  8
CSLAYER1
  6
CENTER
 62
     3
 10
633.109612
 20
402.614104
 11
633.109592
 21
197.614111
  0
LINE
  8
CSLAYER1
  6
CENTER
 62
     3
 10
502.251597
 20
402.614104
 11
502.251597
 21
197.614111
  0
LINE
  8
CSLAYER1
  6
CONTINUOUS
 62
     6
 10
532.251616
 20
285.614126
 11
532.251616
 21
286.614126
  0
LINE
  8
CSLAYER1
  6
CENTER
 62
     3
 10
215.394513
 20
402.614111
 11
215.394513
 21
197.614111
  0
LINE
  8
CSLAYER1
  6
CONTINUOUS
 62
     6
 10
184.394509
 20
286.614111
 11
184.394509
 21
368.614111
  0
LINE
  8
CSLAYER1
  6
CONTINUOUS
 62
     6
 10
246.394509
 20
286.614111
 11
246.394509
 21
368.614111
  0
LINE
  8
CSLAYER1
  6
CONTINUOUS
 62
     3
 10
188.547733
 20
301.746725
 11
188.547733
 21
337.746725
  0
ARC
  8
CSLAYER1
  6
CONTINUOUS
 62
     3
 10
189.547733
 20
301.746725
 40
1.000000
 50
179.999999
 51
269.999995
  0
ARC
  8
CSLAYER1
  6
CONTINUOUS
 62
     3
 10
189.547733
 20
337.746725
 40
1.000000
 50
90.057309
 51
179.999999
  0
LINE
  8
CSLAYER1
  6
CONTINUOUS
 62
     3
 10
241.241301
 20
300.746725
 11
189.547733
 21
300.746725
  0
LINE
  8
CSLAYER1
  6
CONTINUOUS
 62
     3
 10
241.241301
 20
338.746725
 11
189.547733
 21
338.746725
  0
TEXT
  8
CSLAYER1
 62
     3
 10
210.392914
 20
318.525696
 40
3.500000
 41
1.125000
  1
N P
 50
0.000000
 51
10.000000
  7
JX_FONT
 72
     5
 11
220.892914
 21
318.525696
  0
LINE
  8
CSLAYER1
  6
CONTINUOUS
 62
     3
 10
242.241301
 20
301.746725
 11
242.241301
 21
337.746725
  0
ARC
  8
CSLAYER1
  6
CONTINUOUS
 62
     3
 10
241.241301
 20
301.746725
 40
1.000000
 50
269.999995
 51
359.999991
  0
ARC
  8
CSLAYER1
  6
CONTINUOUS
 62
     3
 10
241.241301
 20
337.746725
 40
1.000000
 50
-0.000009
 51
89.942681
  0
LINE
  8
CSLAYER1
  6
CONTINUOUS
 62
     6
 10
184.394509
 20
368.614111
 11
246.394509
 21
368.614111
  0
LINE
  8
CSLAYER1
  6
CONTINUOUS
 62
     6
 10
243.853381
 20
399.614111
 11
186.935624
 21
399.614111
  0
LINE
  8
CSLAYER1
  6
CONTINUOUS
 62
     6
 10
244.870836
 20
398.614111
 11
185.918169
 21
398.614111
  0
LINE
  8
CSLAYER1
  6
CONTINUOUS
 62
     6
 10
185.918172
 20
398.614264
 11
185.394518
 21
368.614096
  0
LINE
  8
CSLAYER1
  6
CONTINUOUS
 62
     6
 10
245.394496
 20
368.614111
 11
244.870834
 21
398.614264
  0
LINE
  8
CSLAYER1
  6
CONTINUOUS
 62
     6
 10
243.853381
 20
399.614111
 11
244.870834
 21
398.614264
  0
LINE
  8
CSLAYER1
  6
CONTINUOUS
 62
     6
 10
185.918172
 20
398.614264
 11
186.935624
 21
399.614111
  0
LINE
  8
CSLAYER1
  6
CONTINUOUS
 62
     6
 10
184.394509
 20
286.614111
 11
246.394509
 21
286.614111
  0
LINE
  8
CSLAYER1
  6
CONTINUOUS
 62
     6
 10
185.394520
 20
286.614111
 11
185.394520
 21
285.614111
  0
LINE
  8
CSLAYER1
  6
CONTINUOUS
 62
     6
 10
245.394520
 20
286.614111
 11
245.394520
 21
285.614111
  0
LINE
  8
CSLAYER1
  6
CENTER
 62
     3
 10
189.394513
 20
292.203896
 11
189.394516
 21
263.614097
  0
LINE
  8
CSLAYER1
  6
CENTER
 62
     3
 10
241.394513
 20
292.203902
 11
241.394516
 21
263.614103
  0
ARC
  8
CSLAYER1
  6
CONTINUOUS
 62
     6
 10
237.894513
 20
286.489114
 40
0.125000
 50
90.000017
 51
180.000068
  0
ARC
  8
CSLAYER1
  6
CONTINUOUS
 62
     6
 10
244.894513
 20
286.489115
 40
0.125000
 50
0.000022
 51
90.000004
  0
ARC
  8
CSLAYER1
  6
CONTINUOUS
 62
     6
 10
237.894514
 20
285.739114
 40
0.125000
 50
180.000068
 51
270.000022
  0
ARC
  8
CSLAYER1
  6
CONTINUOUS
 62
     6
 10
244.894514
 20
285.739115
 40
0.125000
 50
-89.942641
 51
0.000022
  0
LINE
  8
CSLAYER1
  6
CONTINUOUS
 62
     6
 10
237.769513
 20
286.489114
 11
237.769514
 21
285.739114
  0
LINE
  8
CSLAYER1
  6
CONTINUOUS
 62
     6
 10
245.019513
 20
286.489115
 11
245.019514
 21
285.739115
  0
LINE
  8
CSLAYER1
  6
CONTINUOUS
 62
     6
 10
237.895490
 20
286.896767
 11
237.966046
 21
287.715524
  0
ARC
  8
CSLAYER1
  6
CONTINUOUS
 62
     6
 10
239.242414
 20
287.602243
 40
1.290623
 50
106.257234
 51
174.999932
  0
ARC
  8
CSLAYER1
  6
CONTINUOUS
 62
     6
 10
238.150739
 20
286.874123
 40
0.258129
 50
175.000315
 51
270.000022
  0
LINE
  8
CSLAYER1
  6
CONTINUOUS
 62
     6
 10
244.893537
 20
286.896769
 11
244.822980
 21
287.715525
  0
ARC
  8
CSLAYER1
  6
CONTINUOUS
 62
     6
 10
243.546613
 20
287.602244
 40
1.290623
 50
5.000103
 51
73.742842
  0
ARC
  8
CSLAYER1
  6
CONTINUOUS
 62
     6
 10
244.638288
 20
286.874125
 40
0.258129
 50
-89.942641
 51
4.999775
  0
ARC
  8
CSLAYER1
  6
CONTINUOUS
 62
     6
 10
241.394515
 20
280.114114
 40
9.089782
 50
73.970970
 51
106.034611
  0
LINE
  8
CSLAYER1
  6
CONTINUOUS
 62
     6
 10
242.139387
 20
285.614145
 11
241.584577
 21
286.614145
  0
LINE
  8
CSLAYER1
  6
CONTINUOUS
 62
     6
 10
241.514387
 20
285.614145
 11
240.959577
 21
286.614145
  0
ARC
  8
CSLAYER1
  6
CONTINUOUS
 62
     6
 10
185.894513
 20
286.489114
 40
0.125000
 50
90.000017
 51
180.000068
  0
ARC
  8
CSLAYER1
  6
CONTINUOUS
 62
     6
 10
192.894513
 20
286.489115
 40
0.125000
 50
0.000022
 51
90.000004
  0
ARC
  8
CSLAYER1
  6
CONTINUOUS
 62
     6
 10
185.894514
 20
285.739114
 40
0.125000
 50
180.000068
 51
270.000022
  0
ARC
  8
CSLAYER1
  6
CONTINUOUS
 62
     6
 10
192.894514
 20
285.739115
 40
0.125000
 50
-89.942641
 51
0.000022
  0
LINE
  8
CSLAYER1
  6
CONTINUOUS
 62
     6
 10
185.769513
 20
286.489114
 11
185.769514
 21
285.739114
  0
LINE
  8
CSLAYER1
  6
CONTINUOUS
 62
     6
 10
193.019513
 20
286.489115
 11
193.019514
 21
285.739115
  0
LINE
  8
CSLAYER1
  6
CONTINUOUS
 62
     6
 10
185.895490
 20
286.896767
 11
185.966046
 21
287.715524
  0
ARC
  8
CSLAYER1
  6
CONTINUOUS
 62
     6
 10
187.242414
 20
287.602243
 40
1.290623
 50
106.257234
 51
174.999932
  0
ARC
  8
CSLAYER1
  6
CONTINUOUS
 62
     6
 10
186.150739
 20
286.874123
 40
0.258129
 50
175.000315
 51
270.000022
  0
LINE
  8
CSLAYER1
  6
CONTINUOUS
 62
     6
 10
192.893537
 20
286.896769
 11
192.822980
 21
287.715525
  0
ARC
  8
CSLAYER1
  6
CONTINUOUS
 62
     6
 10
191.546613
 20
287.602244
 40
1.290623
 50
5.000103
 51
73.742842
  0
ARC
  8
CSLAYER1
  6
CONTINUOUS
 62
     6
 10
192.638288
 20
286.874125
 40
0.258129
 50
-89.942641
 51
4.999775
  0
ARC
  8
CSLAYER1
  6
CONTINUOUS
 62
     6
 10
189.394515
 20
280.114114
 40
9.089782
 50
73.970970
 51
106.034611
  0
LINE
  8
CSLAYER1
  6
CONTINUOUS
 62
     6
 10
190.139387
 20
285.614145
 11
189.584577
 21
286.614145
  0
LINE
  8
CSLAYER1
  6
CONTINUOUS
 62
     6
 10
189.514387
 20
285.614145
 11
188.959577
 21
286.614145
  0
LINE
  8
CSLAYER1
  6
CONTINUOUS
 62
     6
 10
247.394533
 20
276.614111
 11
183.394502
 21
276.614111
  0
LINE
  8
CSLAYER1
  6
CONTINUOUS
 62
     6
 10
185.394502
 20
285.614114
 11
185.394502
 21
286.614114
  0
ARC
  8
CSLAYER1
  6
CONTINUOUS
 62
     6
 10
185.394502
 20
283.614114
 40
2.000000
 50
90.000009
 51
179.999997
  0
LINE
  8
CSLAYER1
  6
CONTINUOUS
 62
     6
 10
183.394502
 20
283.614114
 11
183.394502
 21
268.614111
  0
ARC
  8
CSLAYER1
  6
CONTINUOUS
 62
     6
 10
245.394533
 20
283.614114
 40
2.000000
 50
0.000027
 51
89.999995
  0
LINE
  8
CSLAYER1
  6
CONTINUOUS
 62
     6
 10
247.394533
 20
283.614114
 11
247.394533
 21
268.614111
  0
LINE
  8
CSLAYER1
  6
CONTINUOUS
 62
     6
 10
185.394502
 20
285.614114
 11
245.394533
 21
285.614114
  0
LINE
  8
CSLAYER1
  6
CONTINUOUS
 62
     6
 10
185.394502
 20
266.614111
 11
245.394533
 21
266.614111
  0
LINE
  8
CSLAYER1
  6
CONTINUOUS
 62
     6
 10
180.394513
 20
210.614111
 11
250.394513
 21
210.614111
  0
LINE
  8
CSLAYER1
  6
CONTINUOUS
 62
     6
 10
178.394513
 20
200.614111
 11
252.394513
 21
200.614111
  0
LINE
  8
CSLAYER1
  6
CONTINUOUS
 62
     6
 10
252.394513
 20
208.614111
 11
252.394513
 21
200.614111
  0
LINE
  8
CSLAYER1
  6
CONTINUOUS
 62
     6
 10
178.394513
 20
208.614111
 11
178.394513
 21
200.614111
  0
ARC
  8
CSLAYER1
  6
CONTINUOUS
 62
     6
 10
250.394513
 20
208.614111
 40
2.000000
 50
0.000000
 51
90.000000
  0
ARC
  8
CSLAYER1
  6
CONTINUOUS
 62
     6
 10
180.394513
 20
208.614111
 40
2.000000
 50
90.000000
 51
180.000000
  0
ARC
  8
CSLAYER1
  6
CONTINUOUS
 62
     6
 10
185.394502
 20
268.614111
 40
2.000000
 50
180.000000
 51
270.000000
  0
ARC
  8
CSLAYER1
  6
CONTINUOUS
 62
     6
 10
245.394533
 20
268.614111
 40
2.000000
 50
270.000000
 51
360.000000
  0
LINE
  8
CSLAYER1
  6
CONTINUOUS
 62
     6
 10
236.394513
 20
264.614111
 11
236.394513
 21
212.614111
  0
LINE
  8
CSLAYER1
  6
CONTINUOUS
 62
     6
 10
178.394513
 20
258.614111
 11
178.394513
 21
218.614111
  0
LINE
  8
CSLAYER1
  6
CONTINUOUS
 62
     6
 10
180.394513
 20
260.614111
 11
194.394513
 21
260.614111
  0
LINE
  8
CSLAYER1
  6
CONTINUOUS
 62
     6
 10
180.394513
 20
216.614111
 11
194.394513
 21
216.614111
  0
ARC
  8
CSLAYER1
  6
CONTINUOUS
 62
     6
 10
180.394513
 20
258.614111
 40
2.000000
 50
90.000000
 51
180.000000
  0
ARC
  8
CSLAYER1
  6
CONTINUOUS
 62
     6
 10
180.394513
 20
218.614111
 40
2.000000
 50
180.000000
 51
270.000000
  0
LINE
  8
CSLAYER1
  6
CONTINUOUS
 62
     6
 10
194.394513
 20
264.614111
 11
194.394513
 21
212.614111
  0
ARC
  8
CSLAYER1
  6
CONTINUOUS
 62
     6
 10
192.394513
 20
212.614111
 40
2.000000
 50
270.000000
 51
360.000000
  0
ARC
  8
CSLAYER1
  6
CONTINUOUS
 62
     6
 10
192.394513
 20
264.614111
 40
2.000000
 50
0.000000
 51
90.000000
  0
LINE
  8
CSLAYER1
  6
CONTINUOUS
 62
     6
 10
260.394513
 20
244.614111
 11
260.394513
 21
232.614111
  0
LINE
  8
CSLAYER1
  6
CONTINUOUS
 62
     6
 10
280.394513
 20
243.114111
 11
280.394513
 21
234.614111
  0
LINE
  8
CSLAYER1
  6
CONTINUOUS
 62
     6
 10
252.394513
 20
244.614111
 11
260.394513
 21
244.614111
  0
LINE
  8
CSLAYER1
  6
CONTINUOUS
 62
     6
 10
260.394513
 20
243.614111
 11
279.894513
 21
243.614111
  0
LINE
  8
CSLAYER1
  6
CONTINUOUS
 62
     6
 10
279.894513
 20
234.114111
 11
265.394513
 21
234.114111
  0
LINE
  8
CSLAYER1
  6
CONTINUOUS
 62
     6
 10
265.394513
 20
234.114111
 11
265.394513
 21
233.614111
  0
LINE
  8
CSLAYER1
  6
CONTINUOUS
 62
     6
 10
265.394513
 20
233.614111
 11
260.394513
 21
233.614111
  0
LINE
  8
CSLAYER1
  6
CONTINUOUS
 62
     6
 10
260.394513
 20
232.614111
 11
252.394513
 21
232.614111
  0
LINE
  8
CSLAYER1
  6
CONTINUOUS
 62
     6
 10
279.894513
 20
243.614111
 11
280.394513
 21
243.114111
  0
LINE
  8
CSLAYER1
  6
CONTINUOUS
 62
     6
 10
280.394513
 20
234.614111
 11
279.894513
 21
234.114111
  0
LINE
  8
CSLAYER1
  6
CONTINUOUS
 62
     6
 10
252.394513
 20
258.614111
 11
252.394513
 21
218.614111
  0
LINE
  8
CSLAYER1
  6
CONTINUOUS
 62
     6
 10
243.394513
 20
266.614111
 11
243.394513
 21
210.614111
  0
LINE
  8
CSLAYER1
  6
CONTINUOUS
 62
     6
 10
243.394513
 20
233.175701
 11
236.394513
 21
233.175701
  0
LINE
  8
CSLAYER1
  6
CONTINUOUS
 62
     6
 10
236.394513
 20
244.052522
 11
243.394513
 21
244.052522
  0
LINE
  8
CSLAYER1
  6
CONTINUOUS
 62
     6
 10
246.394513
 20
260.614111
 11
250.394513
 21
260.614111
  0
LINE
  8
CSLAYER1
  6
CONTINUOUS
 62
     6
 10
246.394513
 20
216.614111
 11
250.394513
 21
216.614111
  0
ARC
  8
CSLAYER1
  6
CONTINUOUS
 62
     6
 10
250.394513
 20
218.614111
 40
2.000000
 50
270.000000
 51
360.000000
  0
ARC
  8
CSLAYER1
  6
CONTINUOUS
 62
     6
 10
250.394513
 20
258.614111
 40
2.000000
 50
0.000000
 51
90.000000
  0
ARC
  8
CSLAYER1
  6
CONTINUOUS
 62
     6
 10
246.394513
 20
213.614111
 40
3.000000
 50
90.000000
 51
180.000000
  0
ARC
  8
CSLAYER1
  6
CONTINUOUS
 62
     6
 10
246.394513
 20
263.614111
 40
3.000000
 50
180.000000
 51
270.000000
  0
ARC
  8
CSLAYER1
  6
CONTINUOUS
 62
     6
 10
244.122666
 20
241.510077
 40
0.104022
 50
-0.000005
 51
89.999997
  0
ARC
  8
CSLAYER1
  6
CONTINUOUS
 62
     6
 10
243.498535
 20
241.510077
 40
0.104022
 50
89.999997
 51
180.000000
  0
LINE
  8
CSLAYER1
  6
CONTINUOUS
 62
     6
 10
244.122666
 20
241.614111
 11
243.498535
 21
241.614111
  0
LINE
  8
CSLAYER1
  6
CONTINUOUS
 62
     6
 10
244.226688
 20
239.250645
 11
243.394513
 21
238.788934
  0
LINE
  8
CSLAYER1
  6
CONTINUOUS
 62
     6
 10
244.226688
 20
238.730536
 11
243.394513
 21
238.268825
  0
LINE
  8
CSLAYER1
  6
CONTINUOUS
 62
     6
 10
244.461905
 20
241.509302
 11
245.143265
 21
241.450561
  0
ARC
  8
CSLAYER1
  6
CONTINUOUS
 62
     6
 10
245.048983
 20
240.388389
 40
1.074023
 50
16.257211
 51
84.999882
  0
ARC
  8
CSLAYER1
  6
CONTINUOUS
 62
     6
 10
244.443061
 20
241.296878
 40
0.214808
 50
85.000282
 51
180.000017
  0
LINE
  8
CSLAYER1
  6
CONTINUOUS
 62
     6
 10
244.226688
 20
241.510077
 11
244.226688
 21
235.718146
  0
ARC
  8
CSLAYER1
  6
CONTINUOUS
 62
     6
 10
244.122666
 20
235.718146
 40
0.104022
 50
-89.999997
 51
0.000005
  0
ARC
  8
CSLAYER1
  6
CONTINUOUS
 62
     6
 10
243.498535
 20
235.718146
 40
0.104022
 50
180.000000
 51
270.000003
  0
LINE
  8
CSLAYER1
  6
CONTINUOUS
 62
     6
 10
244.122666
 20
235.614111
 11
243.498535
 21
235.614111
  0
LINE
  8
CSLAYER1
  6
CONTINUOUS
 62
     6
 10
244.461905
 20
235.718920
 11
245.143265
 21
235.777661
  0
ARC
  8
CSLAYER1
  6
CONTINUOUS
 62
     6
 10
245.048983
 20
236.839834
 40
1.074023
 50
275.000118
 51
343.742789
  0
ARC
  8
CSLAYER1
  6
CONTINUOUS
 62
     6
 10
244.443061
 20
235.931345
 40
0.214808
 50
179.999983
 51
274.999718
  0
ARC
  8
CSLAYER1
  6
CONTINUOUS
 62
     6
 10
238.817555
 20
238.597479
 40
7.572785
 50
-15.823637
 51
16.066256
  0
LINE
  8
CSLAYER1
  6
CENTER
 62
     3
 10
175.394513
 20
238.614111
 11
283.394513
 21
238.614111
  0
LINE
  8
CSLAYER1
  6
CONTINUOUS
 62
     6
 10
238.894513
 20
266.614111
 11
238.894513
 21
210.614111
  0
LINE
  8
CSLAYER1
  6
CENTER
 62
     3
 10
245.394513
 20
213.614111
 11
245.394513
 21
197.614111
  0
LINE
  8
CSLAYER1
  6
CENTER
 62
     3
 10
185.394513
 20
213.614111
 11
185.394513
 21
197.614111
  0
LINE
  8
CSLAYER1
  6
CONTINUOUS
 62
     3
 10
664.109612
 20
338.746710
 11
649.609582
 21
338.746710
  0
LINE
  8
CSLAYER1
  6
CONTINUOUS
 62
     3
 10
648.609582
 20
337.746710
 11
648.609582
 21
301.746725
  0
LINE
  8
CSLAYER1
  6
CONTINUOUS
 62
     3
 10
649.609582
 20
300.746725
 11
664.109612
 21
300.746725
  0
ARC
  8
CSLAYER1
  6
CONTINUOUS
 62
     3
 10
649.609582
 20
337.746710
 40
1.000000
 50
90.000005
 51
180.000001
  0
ARC
  8
CSLAYER1
  6
CONTINUOUS
 62
     3
 10
649.609582
 20
301.746725
 40
1.000000
 50
180.000001
 51
269.942691
  0
TEXT
  8
CSLAYER1
 62
     3
 10
651.995483
 20
318.789429
 40
3.500000
 41
1.125000
  1
N P
 50
0.000000
 51
10.000000
  7
JX_FONT
 72
     5
 11
662.495483
 21
318.789429
  0
LINE
  8
CSLAYER1
  6
CENTER
 62
     3
 10
659.109608
 20
292.089979
 11
659.109601
 21
263.614111
  0
ARC
  8
CSLAYER1
  6
CONTINUOUS
 62
     6
 10
662.488909
 20
286.458941
 40
0.120690
 50
0.000003
 51
90.000005
  0
ARC
  8
CSLAYER1
  6
CONTINUOUS
 62
     6
 10
655.730304
 20
286.458941
 40
0.120690
 50
90.000005
 51
180.000001
  0
ARC
  8
CSLAYER1
  6
CONTINUOUS
 62
     6
 10
662.488909
 20
285.734801
 40
0.120690
 50
-90.000000
 51
0.000003
  0
ARC
  8
CSLAYER1
  6
CONTINUOUS
 62
     6
 10
655.730304
 20
285.734801
 40
0.120690
 50
180.000001
 51
269.942691
  0
LINE
  8
CSLAYER1
  6
CONTINUOUS
 62
     6
 10
662.609614
 20
286.458941
 11
662.609614
 21
285.734801
  0
LINE
  8
CSLAYER1
  6
CONTINUOUS
 62
     6
 10
655.609599
 20
286.458941
 11
655.609599
 21
285.734801
  0
LINE
  8
CSLAYER1
  6
CONTINUOUS
 62
     6
 10
658.390373
 20
286.579630
 11
658.926067
 21
285.614111
  0
LINE
  8
CSLAYER1
  6
CONTINUOUS
 62
     6
 10
658.993823
 20
286.579630
 11
659.529517
 21
285.614111
  0
LINE
  8
CSLAYER1
  6
CONTINUOUS
 62
     6
 10
662.488011
 20
286.852538
 11
662.419857
 21
287.643078
  0
ARC
  8
CSLAYER1
  6
CONTINUOUS
 62
     6
 10
661.187485
 20
287.533688
 40
1.246121
 50
5.000118
 51
73.742789
  0
ARC
  8
CSLAYER1
  6
CONTINUOUS
 62
     6
 10
662.241548
 20
286.830675
 40
0.249229
 50
-90.000017
 51
4.999718
  0
LINE
  8
CSLAYER1
  6
CONTINUOUS
 62
     6
 10
655.731203
 20
286.852538
 11
655.799356
 21
287.643078
  0
ARC
  8
CSLAYER1
  6
CONTINUOUS
 62
     6
 10
657.031728
 20
287.533688
 40
1.246121
 50
106.257208
 51
174.999892
  0
ARC
  8
CSLAYER1
  6
CONTINUOUS
 62
     6
 10
655.977665
 20
286.830675
 40
0.249229
 50
175.000275
 51
269.942691
  0
LINE
  8
CSLAYER1
  6
CONTINUOUS
 62
     6
 10
662.488909
 20
286.579630
 11
655.730304
 21
286.579630
  0
LINE
  8
CSLAYER1
  6
CENTER
 62
     3
 10
607.109597
 20
292.089979
 11
607.109597
 21
263.614111
  0
ARC
  8
CSLAYER1
  6
CONTINUOUS
 62
     6
 10
610.488900
 20
286.458941
 40
0.120690
 50
0.000003
 51
90.000005
  0
ARC
  8
CSLAYER1
  6
CONTINUOUS
 62
     6
 10
603.730294
 20
286.458941
 40
0.120690
 50
90.000005
 51
180.000001
  0
ARC
  8
CSLAYER1
  6
CONTINUOUS
 62
     6
 10
610.488900
 20
285.734801
 40
0.120690
 50
-90.000000
 51
0.000003
  0
ARC
  8
CSLAYER1
  6
CONTINUOUS
 62
     6
 10
603.730294
 20
285.734801
 40
0.120690
 50
180.000001
 51
269.942691
  0
LINE
  8
CSLAYER1
  6
CONTINUOUS
 62
     6
 10
610.609605
 20
286.458941
 11
610.609605
 21
285.734801
  0
LINE
  8
CSLAYER1
  6
CONTINUOUS
 62
     6
 10
603.609590
 20
286.458941
 11
603.609590
 21
285.734801
  0
LINE
  8
CSLAYER1
  6
CONTINUOUS
 62
     6
 10
606.390364
 20
286.579630
 11
606.926058
 21
285.614111
  0
LINE
  8
CSLAYER1
  6
CONTINUOUS
 62
     6
 10
606.993813
 20
286.579630
 11
607.529507
 21
285.614111
  0
LINE
  8
CSLAYER1
  6
CONTINUOUS
 62
     6
 10
610.488001
 20
286.852538
 11
610.419848
 21
287.643078
  0
ARC
  8
CSLAYER1
  6
CONTINUOUS
 62
     6
 10
609.187476
 20
287.533688
 40
1.246121
 50
5.000118
 51
73.742789
  0
ARC
  8
CSLAYER1
  6
CONTINUOUS
 62
     6
 10
610.241539
 20
286.830675
 40
0.249229
 50
-90.000017
 51
4.999718
  0
LINE
  8
CSLAYER1
  6
CONTINUOUS
 62
     6
 10
603.731193
 20
286.852538
 11
603.799346
 21
287.643078
  0
ARC
  8
CSLAYER1
  6
CONTINUOUS
 62
     6
 10
605.031718
 20
287.533688
 40
1.246121
 50
106.257208
 51
174.999892
  0
ARC
  8
CSLAYER1
  6
CONTINUOUS
 62
     6
 10
603.977656
 20
286.830675
 40
0.249229
 50
175.000275
 51
269.942691
  0
LINE
  8
CSLAYER1
  6
CONTINUOUS
 62
     6
 10
610.488900
 20
286.579630
 11
603.730294
 21
286.579630
  0
LINE
  8
CSLAYER1
  6
CONTINUOUS
 62
     6
 10
603.109612
 20
285.614111
 11
603.109612
 21
286.614111
  0
ARC
  8
CSLAYER1
  6
CONTINUOUS
 62
     6
 10
663.109612
 20
283.614111
 40
2.000000
 50
0.000003
 51
89.999991
  0
ARC
  8
CSLAYER1
  6
CONTINUOUS
 62
     6
 10
603.109582
 20
283.614111
 40
2.000000
 50
90.000005
 51
179.999973
  0
LINE
  8
CSLAYER1
  6
CONTINUOUS
 62
     6
 10
663.109612
 20
285.614111
 11
603.109582
 21
285.614111
  0
LINE
  8
CSLAYER1
  6
CONTINUOUS
 62
     6
 10
663.109628
 20
285.614126
 11
663.109628
 21
286.614126
  0
LINE
  8
CSLAYER1
  6
CONTINUOUS
 62
     6
 10
665.109612
 20
283.614111
 11
665.109612
 21
268.614111
  0
LINE
  8
CSLAYER1
  6
CONTINUOUS
 62
     6
 10
665.109612
 20
276.614111
 11
601.109582
 21
276.614111
  0
LINE
  8
CSLAYER1
  6
CONTINUOUS
 62
     6
 10
601.109582
 20
283.614112
 11
601.109582
 21
268.614111
  0
LINE
  8
CSLAYER1
  6
CONTINUOUS
 62
     6
 10
664.109612
 20
286.614111
 11
662.364897
 21
286.614111
  0
LINE
  8
CSLAYER1
  6
CONTINUOUS
 62
     6
 10
664.109612
 20
368.614111
 11
602.109612
 21
368.614111
  0
LINE
  8
CSLAYER1
  6
CONTINUOUS
 62
     6
 10
664.109612
 20
286.614111
 11
664.109612
 21
368.614111
  0
LINE
  8
CSLAYER1
  6
CONTINUOUS
 62
     6
 10
602.109612
 20
286.614111
 11
602.109612
 21
368.614111
  0
LINE
  8
CSLAYER1
  6
CONTINUOUS
 62
     6
 10
655.854316
 20
286.614111
 11
610.364888
 21
286.614111
  0
LINE
  8
CSLAYER1
  6
CONTINUOUS
 62
     6
 10
603.854306
 20
286.614111
 11
602.109612
 21
286.614111
  0
LINE
  8
CSLAYER1
  6
CENTER
 62
     3
 10
646.109612
 20
379.614111
 11
581.727000
 21
379.614111
  0
CIRCLE
  8
CSLAYER1
  6
CONTINUOUS
 62
     6
 10
633.109612
 20
379.614111
 40
8.000000
  0
CIRCLE
  8
CSLAYER1
  6
CONTINUOUS
 62
     6
 10
633.109612
 20
379.614111
 40
6.000000
  0
CIRCLE
  8
CSLAYER1
  6
CONTINUOUS
 62
     3
 10
633.109612
 20
379.614111
 40
5.500000
  0
LINE
  8
CSLAYER1
  6
CONTINUOUS
 62
     6
 10
633.909616
 20
376.864111
 11
633.909616
 21
382.364111
  0
LINE
  8
CSLAYER1
  6
CONTINUOUS
 62
     6
 10
632.309609
 20
376.864111
 11
632.309609
 21
382.364111
  0
LINE
  8
CSLAYER1
  6
CONTINUOUS
 62
     6
 10
633.909616
 20
382.364111
 11
632.309609
 21
382.364111
  0
LINE
  8
CSLAYER1
  6
CONTINUOUS
 62
     6
 10
633.909616
 20
376.864111
 11
632.309609
 21
376.864111
  0
LINE
  8
CSLAYER1
  6
CONTINUOUS
 62
     6
 10
604.633279
 20
399.614111
 11
661.585946
 21
399.614111
  0
LINE
  8
CSLAYER1
  6
CONTINUOUS
 62
     6
 10
603.633279
 20
398.614111
 11
662.585946
 21
398.614111
  0
LINE
  8
CSLAYER1
  6
CONTINUOUS
 62
     6
 10
662.585946
 20
398.614111
 11
663.109597
 21
368.614096
  0
LINE
  8
CSLAYER1
  6
CONTINUOUS
 62
     6
 10
662.585946
 20
398.614111
 11
661.585946
 21
399.614111
  0
LINE
  8
CSLAYER1
  6
CONTINUOUS
 62
     6
 10
603.633279
 20
398.614111
 11
603.109628
 21
368.614096
  0
LINE
  8
CSLAYER1
  6
CONTINUOUS
 62
     6
 10
603.633279
 20
398.614111
 11
604.633279
 21
399.614111
  0
ARC
  8
CSLAYER1
  6
CONTINUOUS
 62
     6
 10
531.630898
 20
286.458941
 40
0.120690
 50
0.000003
 51
90.000005
  0
ARC
  8
CSLAYER1
  6
CONTINUOUS
 62
     6
 10
524.872292
 20
286.458941
 40
0.120690
 50
90.000005
 51
180.000001
  0
ARC
  8
CSLAYER1
  6
CONTINUOUS
 62
     6
 10
531.630898
 20
285.734801
 40
0.120690
 50
-90.000000
 51
0.000003
  0
ARC
  8
CSLAYER1
  6
CONTINUOUS
 62
     6
 10
524.872292
 20
285.734801
 40
0.120690
 50
180.000001
 51
269.942691
  0
LINE
  8
CSLAYER1
  6
CONTINUOUS
 62
     6
 10
531.751602
 20
286.458941
 11
531.751602
 21
285.734801
  0
LINE
  8
CSLAYER1
  6
CONTINUOUS
 62
     6
 10
524.751588
 20
286.458941
 11
524.751588
 21
285.734801
  0
LINE
  8
CSLAYER1
  6
CONTINUOUS
 62
     6
 10
527.532361
 20
286.579630
 11
528.068056
 21
285.614111
  0
LINE
  8
CSLAYER1
  6
CONTINUOUS
 62
     6
 10
528.135811
 20
286.579630
 11
528.671505
 21
285.614111
  0
LINE
  8
CSLAYER1
  6
CONTINUOUS
 62
     6
 10
531.629999
 20
286.852538
 11
531.561846
 21
287.643078
  0
ARC
  8
CSLAYER1
  6
CONTINUOUS
 62
     6
 10
530.329474
 20
287.533688
 40
1.246121
 50
5.000118
 51
73.742789
  0
ARC
  8
CSLAYER1
  6
CONTINUOUS
 62
     6
 10
531.383536
 20
286.830675
 40
0.249229
 50
-90.000017
 51
4.999718
  0
LINE
  8
CSLAYER1
  6
CONTINUOUS
 62
     6
 10
524.873191
 20
286.852538
 11
524.941344
 21
287.643078
  0
ARC
  8
CSLAYER1
  6
CONTINUOUS
 62
     6
 10
526.173716
 20
287.533688
 40
1.246121
 50
106.257208
 51
174.999892
  0
ARC
  8
CSLAYER1
  6
CONTINUOUS
 62
     6
 10
525.119653
 20
286.830675
 40
0.249229
 50
175.000275
 51
269.942691
  0
LINE
  8
CSLAYER1
  6
CONTINUOUS
 62
     6
 10
531.630898
 20
286.579630
 11
524.872292
 21
286.579630
  0
LINE
  8
CSLAYER1
  6
CENTER
 62
     3
 10
528.251605
 20
292.089979
 11
528.251598
 21
263.614111
  0
ARC
  8
CSLAYER1
  6
CONTINUOUS
 62
     6
 10
479.630888
 20
286.458941
 40
0.120690
 50
0.000003
 51
90.000005
  0
ARC
  8
CSLAYER1
  6
CONTINUOUS
 62
     6
 10
472.872283
 20
286.458941
 40
0.120690
 50
90.000005
 51
180.000001
  0
ARC
  8
CSLAYER1
  6
CONTINUOUS
 62
     6
 10
479.630888
 20
285.734801
 40
0.120690
 50
-90.000000
 51
0.000003
  0
ARC
  8
CSLAYER1
  6
CONTINUOUS
 62
     6
 10
472.872283
 20
285.734801
 40
0.120690
 50
180.000001
 51
269.942691
  0
LINE
  8
CSLAYER1
  6
CONTINUOUS
 62
     6
 10
479.751593
 20
286.458941
 11
479.751593
 21
285.734801
  0
LINE
  8
CSLAYER1
  6
CONTINUOUS
 62
     6
 10
472.751578
 20
286.458941
 11
472.751578
 21
285.734801
  0
LINE
  8
CSLAYER1
  6
CONTINUOUS
 62
     6
 10
475.532352
 20
286.579630
 11
476.068046
 21
285.614111
  0
LINE
  8
CSLAYER1
  6
CONTINUOUS
 62
     6
 10
476.135802
 20
286.579630
 11
476.671496
 21
285.614111
  0
LINE
  8
CSLAYER1
  6
CONTINUOUS
 62
     6
 10
479.629990
 20
286.852538
 11
479.561836
 21
287.643078
  0
ARC
  8
CSLAYER1
  6
CONTINUOUS
 62
     6
 10
478.329465
 20
287.533688
 40
1.246121
 50
5.000118
 51
73.742789
  0
ARC
  8
CSLAYER1
  6
CONTINUOUS
 62
     6
 10
479.383527
 20
286.830675
 40
0.249229
 50
-90.000017
 51
4.999718
  0
LINE
  8
CSLAYER1
  6
CONTINUOUS
 62
     6
 10
472.873182
 20
286.852538
 11
472.941335
 21
287.643078
  0
ARC
  8
CSLAYER1
  6
CONTINUOUS
 62
     6
 10
474.173707
 20
287.533688
 40
1.246121
 50
106.257208
 51
174.999892
  0
ARC
  8
CSLAYER1
  6
CONTINUOUS
 62
     6
 10
473.119644
 20
286.830675
 40
0.249229
 50
175.000275
 51
269.942691
  0
LINE
  8
CSLAYER1
  6
CONTINUOUS
 62
     6
 10
479.630888
 20
286.579630
 11
472.872283
 21
286.579630
  0
LINE
  8
CSLAYER1
  6
CENTER
 62
     3
 10
476.251594
 20
292.089979
 11
476.251594
 21
263.614111
  0
LINE
  8
CSLAYER1
  6
CONTINUOUS
 62
     6
 10
472.251601
 20
285.614111
 11
472.251601
 21
286.614111
  0
LINE
  8
CSLAYER1
  6
CONTINUOUS
 62
     6
 10
532.251601
 20
285.614111
 11
532.251601
 21
286.614111
  0
ARC
  8
CSLAYER1
  6
CONTINUOUS
 62
     6
 10
532.251601
 20
283.614111
 40
2.000000
 50
0.000003
 51
89.999991
  0
ARC
  8
CSLAYER1
  6
CONTINUOUS
 62
     6
 10
472.251570
 20
283.614111
 40
2.000000
 50
90.000005
 51
179.999973
  0
LINE
  8
CSLAYER1
  6
CONTINUOUS
 62
     6
 10
532.251601
 20
285.614111
 11
472.251570
 21
285.614111
  0
LINE
  8
CSLAYER1
  6
CONTINUOUS
 62
     6
 10
534.251601
 20
283.614111
 11
534.251601
 21
268.614111
  0
LINE
  8
CSLAYER1
  6
CONTINUOUS
 62
     6
 10
534.251601
 20
276.614111
 11
470.251570
 21
276.614111
  0
LINE
  8
CSLAYER1
  6
CONTINUOUS
 62
     6
 10
470.251570
 20
283.614112
 11
470.251570
 21
268.614111
  0
LINE
  8
CSLAYER1
  6
CONTINUOUS
 62
     6
 10
533.251601
 20
286.614111
 11
531.506886
 21
286.614111
  0
LINE
  8
CSLAYER1
  6
CONTINUOUS
 62
     6
 10
533.251601
 20
286.614111
 11
533.251601
 21
368.614111
  0
LINE
  8
CSLAYER1
  6
CONTINUOUS
 62
     6
 10
471.251601
 20
286.614111
 11
471.251601
 21
368.614111
  0
LINE
  8
CSLAYER1
  6
CONTINUOUS
 62
     6
 10
524.996304
 20
286.614111
 11
479.506876
 21
286.614111
  0
LINE
  8
CSLAYER1
  6
CONTINUOUS
 62
     6
 10
472.996295
 20
286.614111
 11
471.251601
 21
286.614111
  0
LINE
  8
CSLAYER1
  6
CENTER
 62
     3
 10
481.751597
 20
206.614111
 11
468.255789
 21
206.614111
  0
ARC
  8
CSLAYER1
  6
CONTINUOUS
 62
     6
 10
473.523445
 20
209.510077
 40
0.104022
 50
90.000003
 51
180.000005
  0
ARC
  8
CSLAYER1
  6
CONTINUOUS
 62
     6
 10
474.147575
 20
209.510077
 40
0.104022
 50
0.000000
 51
90.000003
  0
LINE
  8
CSLAYER1
  6
CONTINUOUS
 62
     6
 10
473.523445
 20
209.614111
 11
474.147575
 21
209.614111
  0
LINE
  8
CSLAYER1
  6
CONTINUOUS
 62
     6
 10
473.419423
 20
205.977577
 11
474.251597
 21
206.439288
  0
LINE
  8
CSLAYER1
  6
CONTINUOUS
 62
     6
 10
473.419423
 20
206.497686
 11
474.251597
 21
206.959397
  0
LINE
  8
CSLAYER1
  6
CONTINUOUS
 62
     6
 10
473.184206
 20
209.509302
 11
472.502845
 21
209.450561
  0
ARC
  8
CSLAYER1
  6
CONTINUOUS
 62
     6
 10
472.597128
 20
208.388389
 40
1.074023
 50
95.000118
 51
163.742789
  0
ARC
  8
CSLAYER1
  6
CONTINUOUS
 62
     6
 10
473.203049
 20
209.296878
 40
0.214808
 50
-0.000017
 51
94.999718
  0
LINE
  8
CSLAYER1
  6
CONTINUOUS
 62
     6
 10
473.419423
 20
209.510077
 11
473.419423
 21
203.718146
  0
ARC
  8
CSLAYER1
  6
CONTINUOUS
 62
     6
 10
473.523445
 20
203.718146
 40
0.104022
 50
179.999995
 51
269.999997
  0
ARC
  8
CSLAYER1
  6
CONTINUOUS
 62
     6
 10
474.147575
 20
203.718146
 40
0.104022
 50
269.999997
 51
360.000000
  0
LINE
  8
CSLAYER1
  6
CONTINUOUS
 62
     6
 10
473.523445
 20
203.614111
 11
474.147575
 21
203.614111
  0
LINE
  8
CSLAYER1
  6
CONTINUOUS
 62
     6
 10
473.184206
 20
203.718920
 11
472.502845
 21
203.777661
  0
ARC
  8
CSLAYER1
  6
CONTINUOUS
 62
     6
 10
472.597128
 20
204.839834
 40
1.074023
 50
196.257211
 51
264.999882
  0
ARC
  8
CSLAYER1
  6
CONTINUOUS
 62
     6
 10
473.203049
 20
203.931345
 40
0.214808
 50
-94.999718
 51
0.000017
  0
ARC
  8
CSLAYER1
  6
CONTINUOUS
 62
     6
 10
473.523445
 20
241.510077
 40
0.104022
 50
90.000003
 51
180.000005
  0
ARC
  8
CSLAYER1
  6
CONTINUOUS
 62
     6
 10
474.147575
 20
241.510077
 40
0.104022
 50
0.000000
 51
90.000003
  0
LINE
  8
CSLAYER1
  6
CONTINUOUS
 62
     6
 10
473.523445
 20
241.614111
 11
474.147575
 21
241.614111
  0
LINE
  8
CSLAYER1
  6
CONTINUOUS
 62
     6
 10
473.419423
 20
237.977577
 11
474.251597
 21
238.439288
  0
LINE
  8
CSLAYER1
  6
CONTINUOUS
 62
     6
 10
473.419423
 20
238.497686
 11
474.251597
 21
238.959397
  0
LINE
  8
CSLAYER1
  6
CONTINUOUS
 62
     6
 10
473.184206
 20
241.509302
 11
472.502845
 21
241.450561
  0
ARC
  8
CSLAYER1
  6
CONTINUOUS
 62
     6
 10
472.597128
 20
240.388389
 40
1.074023
 50
95.000118
 51
163.742789
  0
ARC
  8
CSLAYER1
  6
CONTINUOUS
 62
     6
 10
473.203049
 20
241.296878
 40
0.214808
 50
-0.000017
 51
94.999718
  0
LINE
  8
CSLAYER1
  6
CONTINUOUS
 62
     6
 10
473.419423
 20
241.510077
 11
473.419423
 21
235.718146
  0
ARC
  8
CSLAYER1
  6
CONTINUOUS
 62
     6
 10
473.523445
 20
235.718146
 40
0.104022
 50
179.999995
 51
269.999997
  0
ARC
  8
CSLAYER1
  6
CONTINUOUS
 62
     6
 10
474.147575
 20
235.718146
 40
0.104022
 50
269.999997
 51
360.000000
  0
LINE
  8
CSLAYER1
  6
CONTINUOUS
 62
     6
 10
473.523445
 20
235.614111
 11
474.147575
 21
235.614111
  0
LINE
  8
CSLAYER1
  6
CONTINUOUS
 62
     6
 10
473.184206
 20
235.718920
 11
472.502845
 21
235.777661
  0
ARC
  8
CSLAYER1
  6
CONTINUOUS
 62
     6
 10
472.597128
 20
236.839834
 40
1.074023
 50
196.257211
 51
264.999882
  0
ARC
  8
CSLAYER1
  6
CONTINUOUS
 62
     6
 10
473.203049
 20
235.931345
 40
0.214808
 50
-94.999718
 51
0.000017
  0
LINE
  8
CSLAYER1
  6
CENTER
 62
     3
 10
481.751597
 20
270.614111
 11
468.255789
 21
270.614111
  0
ARC
  8
CSLAYER1
  6
CONTINUOUS
 62
     6
 10
473.523445
 20
273.510077
 40
0.104022
 50
90.000003
 51
180.000005
  0
ARC
  8
CSLAYER1
  6
CONTINUOUS
 62
     6
 10
474.147575
 20
273.510077
 40
0.104022
 50
0.000000
 51
90.000003
  0
LINE
  8
CSLAYER1
  6
CONTINUOUS
 62
     6
 10
473.523445
 20
273.614111
 11
474.147575
 21
273.614111
  0
LINE
  8
CSLAYER1
  6
CONTINUOUS
 62
     6
 10
473.419423
 20
269.977577
 11
474.251597
 21
270.439288
  0
LINE
  8
CSLAYER1
  6
CONTINUOUS
 62
     6
 10
473.419423
 20
270.497686
 11
474.251597
 21
270.959397
  0
LINE
  8
CSLAYER1
  6
CONTINUOUS
 62
     6
 10
473.184206
 20
273.509302
 11
472.502845
 21
273.450561
  0
ARC
  8
CSLAYER1
  6
CONTINUOUS
 62
     6
 10
472.597128
 20
272.388389
 40
1.074023
 50
95.000118
 51
163.742789
  0
ARC
  8
CSLAYER1
  6
CONTINUOUS
 62
     6
 10
473.203049
 20
273.296878
 40
0.214808
 50
-0.000017
 51
94.999718
  0
LINE
  8
CSLAYER1
  6
CONTINUOUS
 62
     6
 10
473.419423
 20
273.510077
 11
473.419423
 21
267.718146
  0
ARC
  8
CSLAYER1
  6
CONTINUOUS
 62
     6
 10
473.523445
 20
267.718146
 40
0.104022
 50
179.999995
 51
269.999997
  0
ARC
  8
CSLAYER1
  6
CONTINUOUS
 62
     6
 10
474.147575
 20
267.718146
 40
0.104022
 50
269.999997
 51
360.000000
  0
LINE
  8
CSLAYER1
  6
CONTINUOUS
 62
     6
 10
473.523445
 20
267.614111
 11
474.147575
 21
267.614111
  0
LINE
  8
CSLAYER1
  6
CONTINUOUS
 62
     6
 10
473.184206
 20
267.718920
 11
472.502845
 21
267.777661
  0
ARC
  8
CSLAYER1
  6
CONTINUOUS
 62
     6
 10
472.597128
 20
268.839834
 40
1.074023
 50
196.257211
 51
264.999882
  0
ARC
  8
CSLAYER1
  6
CONTINUOUS
 62
     6
 10
473.203049
 20
267.931345
 40
0.214808
 50
-94.999718
 51
0.000017
  0
LINE
  8
CSLAYER1
  6
CONTINUOUS
 62
     6
 10
472.251570
 20
266.614111
 11
474.251597
 21
266.614111
  0
ARC
  8
CSLAYER1
  6
CONTINUOUS
 62
     6
 10
532.251601
 20
268.614111
 40
2.000000
 50
270.000000
 51
360.000000
  0
ARC
  8
CSLAYER1
  6
CONTINUOUS
 62
     6
 10
472.251570
 20
268.614111
 40
2.000000
 50
180.000000
 51
270.000000
  0
LINE
  8
CSLAYER1
  6
CONTINUOUS
 62
     6
 10
519.251597
 20
266.514220
 11
519.251597
 21
210.636503
  0
LINE
  8
CSLAYER1
  6
CONTINUOUS
 62
     6
 10
539.251597
 20
258.614111
 11
539.251597
 21
218.614111
  0
LINE
  8
CSLAYER1
  6
CONTINUOUS
 62
     6
 10
537.251597
 20
260.614111
 11
522.251597
 21
260.614111
  0
LINE
  8
CSLAYER1
  6
CONTINUOUS
 62
     6
 10
537.251597
 20
216.614111
 11
522.251597
 21
216.614111
  0
ARC
  8
CSLAYER1
  6
CONTINUOUS
 62
     6
 10
537.251597
 20
258.614111
 40
2.000000
 50
0.000000
 51
90.000000
  0
ARC
  8
CSLAYER1
  6
CONTINUOUS
 62
     6
 10
537.251597
 20
218.614111
 40
2.000000
 50
270.000000
 51
360.000000
  0
LINE
  8
CSLAYER1
  6
CONTINUOUS
 62
     6
 10
515.652535
 20
270.114116
 11
504.220223
 21
270.114116
  0
ARC
  8
CSLAYER1
  6
CONTINUOUS
 62
     6
 10
515.652535
 20
266.514220
 40
3.599897
 50
0.000000
 51
90.000000
  0
LINE
  8
CSLAYER1
  6
CONTINUOUS
 62
     6
 10
515.652535
 20
207.114106
 11
504.220223
 21
207.114106
  0
ARC
  8
CSLAYER1
  6
CONTINUOUS
 62
     6
 10
515.652535
 20
210.714003
 40
3.599897
 50
270.000000
 51
358.766418
  0
LINE
  8
CSLAYER1
  6
CONTINUOUS
 62
     6
 10
522.251597
 20
266.614111
 11
532.251601
 21
266.614111
  0
ARC
  8
CSLAYER1
  6
CONTINUOUS
 62
     6
 10
522.251597
 20
263.614111
 40
3.000000
 50
90.000000
 51
270.000000
  0
LINE
  8
CSLAYER1
  6
CONTINUOUS
 62
     6
 10
539.251597
 20
208.614111
 11
539.251597
 21
200.614111
  0
ARC
  8
CSLAYER1
  6
CONTINUOUS
 62
     6
 10
537.251597
 20
208.614111
 40
2.000000
 50
0.000000
 51
90.000000
  0
LINE
  8
CSLAYER1
  6
CONTINUOUS
 62
     6
 10
522.219351
 20
210.614111
 11
537.251597
 21
210.614111
  0
ARC
  8
CSLAYER1
  6
CONTINUOUS
 62
     6
 10
522.251597
 20
213.614111
 40
3.000000
 50
90.000000
 51
270.000000
  0
LINE
  8
CSLAYER1
  6
CONTINUOUS
 62
     6
 10
465.251597
 20
200.614111
 11
539.251597
 21
200.614111
  0
LINE
  8
CSLAYER1
  6
CONTINUOUS
 62
     6
 10
465.251597
 20
258.614111
 11
465.251597
 21
218.614111
  0
LINE
  8
CSLAYER1
  6
CONTINUOUS
 62
     6
 10
478.751597
 20
274.114095
 11
478.751597
 21
203.114111
  0
LINE
  8
CSLAYER1
  6
CONTINUOUS
 62
     6
 10
474.251597
 20
273.614111
 11
474.251597
 21
203.614111
  0
LINE
  8
CSLAYER1
  6
CONTINUOUS
 62
     6
 10
500.251597
 20
273.614111
 11
474.251597
 21
273.614111
  0
LINE
  8
CSLAYER1
  6
CONTINUOUS
 62
     6
 10
500.251597
 20
203.614111
 11
474.251597
 21
203.614111
  0
ARC
  8
CSLAYER1
  6
CONTINUOUS
 62
     6
 10
500.251597
 20
271.614111
 40
2.000000
 50
7.180831
 51
90.000000
  0
ARC
  8
CSLAYER1
  6
CONTINUOUS
 62
     6
 10
500.251597
 20
205.614111
 40
2.000000
 50
270.000000
 51
352.819169
  0
LINE
  8
CSLAYER1
  6
CONTINUOUS
 62
     6
 10
474.251597
 20
232.952710
 11
499.751597
 21
232.952710
  0
LINE
  8
CSLAYER1
  6
CONTINUOUS
 62
     6
 10
499.751597
 20
244.275513
 11
474.251597
 21
244.275513
  0
LINE
  8
CSLAYER1
  6
CONTINUOUS
 62
     6
 10
472.251570
 20
274.114095
 11
478.751597
 21
274.114095
  0
ARC
  8
CSLAYER1
  6
CONTINUOUS
 62
     6
 10
472.251570
 20
276.114095
 40
2.000000
 50
180.000000
 51
270.000000
  0
LINE
  8
CSLAYER1
  6
CONTINUOUS
 62
     6
 10
471.251597
 20
260.614111
 11
467.251597
 21
260.614111
  0
LINE
  8
CSLAYER1
  6
CONTINUOUS
 62
     6
 10
471.251597
 20
216.614111
 11
467.251597
 21
216.614111
  0
LINE
  8
CSLAYER1
  6
CONTINUOUS
 62
     6
 10
467.251597
 20
210.614111
 11
474.251597
 21
210.614111
  0
LINE
  8
CSLAYER1
  6
CONTINUOUS
 62
     6
 10
465.251597
 20
208.614111
 11
465.251597
 21
200.614111
  0
ARC
  8
CSLAYER1
  6
CONTINUOUS
 62
     6
 10
467.251597
 20
208.614111
 40
2.000000
 50
90.000000
 51
180.000000
  0
ARC
  8
CSLAYER1
  6
CONTINUOUS
 62
     6
 10
467.251597
 20
218.614111
 40
2.000000
 50
180.000000
 51
270.000000
  0
ARC
  8
CSLAYER1
  6
CONTINUOUS
 62
     6
 10
467.251597
 20
258.614111
 40
2.000000
 50
90.000000
 51
180.000000
  0
ARC
  8
CSLAYER1
  6
CONTINUOUS
 62
     6
 10
471.251597
 20
213.614111
 40
3.000000
 50
0.000000
 51
90.000000
  0
ARC
  8
CSLAYER1
  6
CONTINUOUS
 62
     6
 10
471.251597
 20
263.614111
 40
3.000000
 50
270.000000
 51
360.000000
  0
LINE
  8
CSLAYER1
  6
CONTINUOUS
 62
     6
 10
478.751597
 20
203.114111
 11
465.251597
 21
203.114111
  0
LINE
  8
CSLAYER1
  6
CONTINUOUS
 62
     6
 10
499.751597
 20
207.079627
 11
474.251597
 21
207.079627
  0
LINE
  8
CSLAYER1
  6
CONTINUOUS
 62
     6
 10
499.751597
 20
270.148595
 11
474.251597
 21
270.148595
  0
LINE
  8
CSLAYER1
  6
CONTINUOUS
 62
     6
 10
523.251597
 20
264.614111
 11
523.251597
 21
260.614111
  0
LINE
  8
CSLAYER1
  6
CONTINUOUS
 62
     6
 10
523.251597
 20
216.614111
 11
523.251597
 21
212.614111
  0
ARC
  8
CSLAYER1
  6
CONTINUOUS
 62
     6
 10
525.251597
 20
212.614111
 40
2.000000
 50
180.000000
 51
270.000000
  0
ARC
  8
CSLAYER1
  6
CONTINUOUS
 62
     6
 10
525.251597
 20
264.614111
 40
2.000000
 50
90.000000
 51
180.000000
  0
LINE
  8
CSLAYER1
  6
CENTER
 62
     3
 10
435.727533
 20
238.614111
 11
542.251597
 21
238.614111
  0
LINE
  8
CSLAYER1
  6
CONTINUOUS
 62
     6
 10
457.251597
 20
244.614111
 11
457.251597
 21
232.614111
  0
LINE
  8
CSLAYER1
  6
CONTINUOUS
 62
     6
 10
437.251597
 20
243.114111
 11
437.251597
 21
234.614111
  0
LINE
  8
CSLAYER1
  6
CONTINUOUS
 62
     6
 10
465.251597
 20
244.614111
 11
457.251597
 21
244.614111
  0
LINE
  8
CSLAYER1
  6
CONTINUOUS
 62
     6
 10
457.251597
 20
243.614111
 11
437.751597
 21
243.614111
  0
LINE
  8
CSLAYER1
  6
CONTINUOUS
 62
     6
 10
437.751597
 20
234.114111
 11
452.251597
 21
234.114111
  0
LINE
  8
CSLAYER1
  6
CONTINUOUS
 62
     6
 10
452.251597
 20
234.114111
 11
452.251597
 21
233.614111
  0
LINE
  8
CSLAYER1
  6
CONTINUOUS
 62
     6
 10
452.251597
 20
233.614111
 11
457.251597
 21
233.614111
  0
LINE
  8
CSLAYER1
  6
CONTINUOUS
 62
     6
 10
457.251597
 20
232.614111
 11
465.251597
 21
232.614111
  0
LINE
  8
CSLAYER1
  6
CONTINUOUS
 62
     6
 10
437.751597
 20
243.614111
 11
437.251597
 21
243.114111
  0
LINE
  8
CSLAYER1
  6
CONTINUOUS
 62
     6
 10
437.251597
 20
234.614111
 11
437.751597
 21
234.114111
  0
LINE
  8
CSLAYER1
  6
CONTINUOUS
 62
     6
 10
603.109582
 20
266.614111
 11
663.109612
 21
266.614111
  0
ARC
  8
CSLAYER1
  6
CONTINUOUS
 62
     6
 10
663.109612
 20
268.614111
 40
2.000000
 50
270.000000
 51
360.000000
  0
ARC
  8
CSLAYER1
  6
CONTINUOUS
 62
     6
 10
603.109582
 20
268.614111
 40
2.000000
 50
180.000000
 51
270.000000
  0
LINE
  8
CSLAYER1
  6
CENTER
 62
     3
 10
562.109612
 20
238.614111
 11
653.109596
 21
238.614111
  0
LINE
  8
CSLAYER1
  6
CONTINUOUS
 62
     6
 10
603.109582
 20
210.614111
 11
663.109612
 21
210.614111
  0
LINE
  8
CSLAYER1
  6
CONTINUOUS
 62
     6
 10
601.109582
 20
200.614111
 11
665.109612
 21
200.614111
  0
ARC
  8
CSLAYER1
  6
CONTINUOUS
 62
     6
 10
663.109612
 20
208.614111
 40
2.000000
 50
0.000000
 51
90.000000
  0
ARC
  8
CSLAYER1
  6
CONTINUOUS
 62
     6
 10
603.109582
 20
208.614111
 40
2.000000
 50
90.000000
 51
180.000000
  0
LINE
  8
CSLAYER1
  6
CONTINUOUS
 62
     6
 10
665.109612
 20
208.614111
 11
665.109612
 21
200.614111
  0
LINE
  8
CSLAYER1
  6
CONTINUOUS
 62
     6
 10
601.109582
 20
208.614111
 11
601.109582
 21
200.614111
  0
LINE
  8
CSLAYER1
  6
CONTINUOUS
 62
     6
 10
650.109599
 20
263.614112
 11
650.109594
 21
213.614112
  0
ARC
  8
CSLAYER1
  6
CONTINUOUS
 62
     6
 10
653.109599
 20
263.614111
 40
3.000000
 50
90.000000
 51
179.999994
  0
ARC
  8
CSLAYER1
  6
CONTINUOUS
 62
     6
 10
653.109594
 20
213.614111
 40
3.000000
 50
179.999994
 51
270.000000
  0
LINE
  8
CSLAYER1
  6
CENTER
 62
     3
 10
600.109600
 20
276.614111
 11
600.109592
 21
200.614127
  0
CIRCLE
  8
CSLAYER1
  6
CONTINUOUS
 62
     6
 10
600.109596
 20
238.614111
 40
16.000000
  0
CIRCLE
  8
CSLAYER1
  6
CONTINUOUS
 62
     6
 10
600.109596
 20
238.614111
 40
22.000000
  0
ARC
  8
CSLAYER1
  6
CONTINUOUS
 62
     6
 10
600.109576
 20
271.114116
 40
1.000000
 50
-89.999975
 51
7.552469
  0
ARC
  8
CSLAYER1
  6
CONTINUOUS
 62
     6
 10
600.109592
 20
206.114106
 40
1.000000
 50
-7.552469
 51
89.999975
  0
ARC
  8
CSLAYER1
  6
CONTINUOUS
 62
     6
 10
571.109612
 20
238.614111
 40
6.000000
 50
109.340533
 51
250.659467
  0
ARC
  8
CSLAYER1
  6
CONTINUOUS
 62
     6
 10
600.109596
 20
209.614127
 40
6.000000
 50
199.340533
 51
269.999964
  0
ARC
  8
CSLAYER1
  6
CONTINUOUS
 62
     6
 10
600.109596
 20
267.614095
 40
6.000000
 50
89.999964
 51
160.659467
  0
ARC
  8
CSLAYER1
  6
CONTINUOUS
 62
     6
 10
600.109582
 20
202.614127
 40
1.000000
 50
-7.552469
 51
89.999975
  0
ARC
  8
CSLAYER1
  6
CONTINUOUS
 62
     6
 10
600.109600
 20
274.614095
 40
1.000000
 50
-89.999975
 51
7.552469
  0
LINE
  8
CSLAYER1
  6
CENTER
 62
     3
 10
659.109592
 20
197.614111
 11
659.109592
 21
213.614111
  0
LINE
  8
CSLAYER1
  6
CENTER
 62
     3
 10
621.109592
 20
197.614111
 11
621.109592
 21
213.614111
  0
LINE
  8
CSLAYER1
  6
CONTINUOUS
 62
     6
 10
648.109599
 20
263.614112
 11
648.109594
 21
213.614112
  0
ARC
  8
CSLAYER1
  6
CONTINUOUS
 62
     6
 10
659.109607
 20
280.303755
 40
8.786224
 50
73.933744
 51
106.066255
  0
ARC
  8
CSLAYER1
  6
CONTINUOUS
 62
     6
 10
607.109597
 20
280.303755
 40
8.786224
 50
73.933744
 51
106.066255
  0
ARC
  8
CSLAYER1
  6
CONTINUOUS
 62
     6
 10
591.862864
 20
394.272955
 40
15.758816
 50
242.536202
 51
269.942691
  0
ARC
  8
CSLAYER1
  6
CONTINUOUS
 62
     6
 10
591.862864
 20
394.272955
 40
13.558834
 50
242.536202
 51
269.942691
  0
ARC
  8
CSLAYER1
  6
CONTINUOUS
 62
     6
 10
590.910273
 20
379.064123
 40
1.099999
 50
-29.999650
 51
30.000345
  0
ARC
  8
CSLAYER1
  6
CONTINUOUS
 62
     6
 10
590.910258
 20
380.164122
 40
1.099999
 50
-29.999650
 51
30.000345
  0
ARC
  8
CSLAYER1
  6
CONTINUOUS
 62
     6
 10
592.815516
 20
380.164130
 40
1.099999
 50
150.000362
 51
210.000350
  0
LINE
  8
CSLAYER1
  6
CONTINUOUS
 62
     6
 10
585.267909
 20
381.584555
 11
582.329837
 21
383.201712
  0
LINE
  8
CSLAYER1
  6
CONTINUOUS
 62
     6
 10
585.013774
 20
381.095633
 11
582.006358
 21
382.672415
  0
LINE
  8
CSLAYER1
  6
CONTINUOUS
 62
     6
 10
584.806819
 20
380.697500
 11
581.727015
 21
382.098990
  0
LINE
  8
CSLAYER1
  6
CONTINUOUS
 62
     6
 10
585.609706
 20
382.242178
 11
584.595088
 21
380.290121
  0
ARC
  8
CSLAYER1
  6
CONTINUOUS
 62
     6
 10
591.862864
 20
364.955267
 40
15.758816
 50
112.422068
 51
117.463868
  0
ARC
  8
CSLAYER1
  6
CONTINUOUS
 62
     6
 10
591.862864
 20
364.955267
 40
13.558834
 50
89.999978
 51
117.463868
  0
LINE
  8
CSLAYER1
  6
CONTINUOUS
 62
     6
 10
585.267878
 20
377.643667
 11
582.329821
 21
376.026495
  0
LINE
  8
CSLAYER1
  6
CONTINUOUS
 62
     6
 10
585.013758
 20
378.132590
 11
582.006358
 21
376.555807
  0
LINE
  8
CSLAYER1
  6
CONTINUOUS
 62
     6
 10
584.806819
 20
378.530722
 11
581.727000
 21
377.129217
  0
LINE
  8
CSLAYER1
  6
CONTINUOUS
 62
     6
 10
585.609690
 20
376.986044
 11
584.595073
 21
378.938101
  0
ARC
  8
CSLAYER1
  6
CONTINUOUS
 62
     6
 10
595.727732
 20
380.164099
 40
1.100006
 50
150.000007
 51
209.999995
  0
ARC
  8
CSLAYER1
  6
CONTINUOUS
 62
     6
 10
595.727732
 20
379.064093
 40
1.100006
 50
150.000007
 51
209.999995
  0
ARC
  8
CSLAYER1
  6
CONTINUOUS
 62
     6
 10
593.822459
 20
379.064093
 40
1.100006
 50
-29.999998
 51
30.000003
  0
LINE
  8
CSLAYER1
  6
CONTINUOUS
 62
     6
 10
603.282418
 20
378.514105
 11
594.775096
 21
378.514105
  0
LINE
  8
CSLAYER1
  6
CONTINUOUS
 62
     6
 10
603.320825
 20
380.714102
 11
594.775096
 21
380.714102
  0
ARC
  8
CSLAYER1
  6
CONTINUOUS
 62
     6
 10
528.251595
 20
280.303755
 40
8.786224
 50
73.933744
 51
106.066255
  0
ARC
  8
CSLAYER1
  6
CONTINUOUS
 62
     6
 10
476.251586
 20
280.303755
 40
8.786224
 50
73.933744
 51
106.066255
  0
ARC
  8
CSLAYER1
  6
CONTINUOUS
 62
     6
 10
478.828556
 20
206.597479
 40
7.572785
 50
163.933744
 51
195.823637
  0
ARC
  8
CSLAYER1
  6
CONTINUOUS
 62
     6
 10
478.828556
 20
238.597479
 40
7.572785
 50
163.933744
 51
195.823637
  0
ARC
  8
CSLAYER1
  6
CONTINUOUS
 62
     6
 10
478.828556
 20
270.597479
 40
7.572785
 50
163.933744
 51
195.823637
  0
CIRCLE
  8
CSLAYER1
  6
CONTINUOUS
 62
     6
 10
633.109596
 20
238.614111
 40
3.448276
  0
CIRCLE
  8
CSLAYER1
  6
CONTINUOUS
 62
     6
 10
633.109596
 20
238.614111
 40
4.000000
  0
LINE
  8
CSLAYER1
  6
CONTINUOUS
 62
     6
 10
634.833734
 20
238.614111
 11
634.833734
 21
236.889973
  0
LINE
  8
CSLAYER1
  6
CONTINUOUS
 62
     6
 10
631.385458
 20
238.614111
 11
631.385458
 21
240.338249
  0
LINE
  8
CSLAYER1
  6
CONTINUOUS
 62
     6
 10
634.833734
 20
236.889973
 11
629.661320
 21
238.614111
  0
LINE
  8
CSLAYER1
  6
CONTINUOUS
 62
     6
 10
629.661320
 20
238.614111
 11
631.385458
 21
238.614111
  0
LINE
  8
CSLAYER1
  6
CONTINUOUS
 62
     6
 10
631.385458
 20
240.338249
 11
636.557872
 21
238.614111
  0
LINE
  8
CSLAYER1
  6
CONTINUOUS
 62
     6
 10
636.557872
 20
238.614111
 11
634.833734
 21
238.614111
  0
LINE
  8
CSLAYER1
  6
CONTINUOUS
 62
     3
 10
642.109596
 20
225.214111
 11
642.109596
 21
231.214111
  0
LINE
  8
CSLAYER1
  6
CONTINUOUS
 62
     3
 10
642.109596
 20
231.214111
 11
624.109596
 21
231.214111
  0
LINE
  8
CSLAYER1
  6
CONTINUOUS
 62
     3
 10
624.109596
 20
231.214111
 11
624.109596
 21
225.214111
  0
LINE
  8
CSLAYER1
  6
CONTINUOUS
 62
     3
 10
624.109596
 20
225.214111
 11
642.109596
 21
225.214111
  0
LINE
  8
CSLAYER1
  6
CONTINUOUS
 62
     3
 10
643.109596
 20
224.214111
 11
643.109596
 21
232.214111
  0
LINE
  8
CSLAYER1
  6
CONTINUOUS
 62
     3
 10
643.109596
 20
232.214111
 11
623.109596
 21
232.214111
  0
LINE
  8
CSLAYER1
  6
CONTINUOUS
 62
     3
 10
623.109596
 20
232.214111
 11
623.109596
 21
224.214111
  0
LINE
  8
CSLAYER1
  6
CONTINUOUS
 62
     3
 10
623.109596
 20
224.214111
 11
643.109596
 21
224.214111
  0
TEXT
  8
CSLAYER1
 62
     3
 10
624.809570
 20
226.214142
 40
4.000000
 41
0.547826
  1
SAWAMURA
 50
0.000000
 51
0.000000
  7
JX_FONT
 72
     5
 11
641.609570
 21
226.214142
  0
LINE
  8
CSLAYER1
  6
CONTINUOUS
 62
     6
 10
279.894513
 20
243.614111
 11
279.894513
 21
234.114111
  0
LINE
  8
CSLAYER1
  6
CONTINUOUS
 62
     6
 10
437.751597
 20
243.614111
 11
437.751597
 21
234.114111
  0
ARC
  8
CSLAYER1
  6
CONTINUOUS
 62
     6
 10
600.109596
 20
238.614111
 40
31.500005
 50
89.999994
 51
269.999994
  0
ARC
  8
CSLAYER1
  6
CONTINUOUS
 62
     6
 10
504.220223
 20
272.114116
 40
2.000000
 50
187.180831
 51
270.000000
  0
ARC
  8
CSLAYER1
  6
CONTINUOUS
 62
     6
 10
504.220223
 20
205.114106
 40
2.000000
 50
90.000000
 51
172.819169
  0
ARC
  8
CSLAYER1
  6
CONTINUOUS
 62
     6
 10
238.394513
 20
212.614111
 40
2.000000
 50
180.000000
 51
270.000000
  0
ARC
  8
CSLAYER1
  6
CONTINUOUS
 62
     6
 10
238.394513
 20
264.614111
 40
2.000000
 50
90.000000
 51
180.000000
  0
LINE
  8
CSLAYER1
  6
CENTER
 62
     3
 10
472.251597
 20
213.614111
 11
472.251597
 21
197.614111
  0
LINE
  8
CSLAYER1
  6
CENTER
 62
     3
 10
532.251597
 20
213.614111
 11
532.251597
 21
197.614111
  0
LINE
  8
CSLAYER1
  6
CENTER
 62
     3
 10
491.251597
 20
379.614111
 11
513.251597
 21
379.614111
  0
LINE
  8
CSLAYER1
  6
CONTINUOUS
 62
     6
 10
502.251597
 20
379.614111
 11
502.251597
 21
385.047583
  0
LINE
  8
CSLAYER1
  6
CONTINUOUS
 62
     6
 10
504.451594
 20
379.614111
 11
504.451594
 21
385.047583
  0
ARC
  8
CSLAYER1
  6
CONTINUOUS
 62
     6
 10
518.010447
 20
387.959814
 40
15.758816
 50
152.536193
 51
179.942682
  0
ARC
  8
CSLAYER1
  6
CONTINUOUS
 62
     6
 10
518.010447
 20
387.959814
 40
13.558834
 50
152.536193
 51
179.942682
  0
ARC
  8
CSLAYER1
  6
CONTINUOUS
 62
     6
 10
503.901591
 20
384.094946
 40
1.100006
 50
59.999997
 51
119.999999
  0
ARC
  8
CSLAYER1
  6
CONTINUOUS
 62
     6
 10
502.801585
 20
384.094946
 40
1.100006
 50
59.999997
 51
119.999999
  0
ARC
  8
CSLAYER1
  6
CONTINUOUS
 62
     6
 10
502.801585
 20
386.000220
 40
1.100006
 50
239.999989
 51
299.999977
  0
ARC
  8
CSLAYER1
  6
CONTINUOUS
 62
     6
 10
486.492747
 20
387.959814
 40
13.558834
 50
-0.000025
 51
27.463872
  0
ARC
  8
CSLAYER1
  6
CONTINUOUS
 62
     6
 10
486.492762
 20
387.959784
 40
15.758816
 50
0.000003
 51
27.463872
  0
ARC
  8
CSLAYER1
  6
CONTINUOUS
 62
     6
 10
501.701579
 20
384.094946
 40
1.100006
 50
59.999997
 51
119.999999
  0
ARC
  8
CSLAYER1
  6
CONTINUOUS
 62
     6
 10
500.601573
 20
384.094946
 40
1.100006
 50
59.999997
 51
119.999999
  0
ARC
  8
CSLAYER1
  6
CONTINUOUS
 62
     6
 10
500.601573
 20
386.000220
 40
1.100006
 50
239.999989
 51
299.999977
  0
ARC
  8
CSLAYER1
  6
CONTINUOUS
 62
     6
 10
503.351603
 20
379.614111
 40
1.100006
 50
-179.999999
 51
0.000019
  0
ARC
  8
CSLAYER1
  6
CONTINUOUS
 62
     6
 10
501.151591
 20
379.614111
 40
1.100006
 50
179.999973
 51
359.999992
  0
LINE
  8
CSLAYER1
  6
CONTINUOUS
 62
     6
 10
500.051600
 20
379.614111
 11
500.051600
 21
385.047583
  0
LINE
  8
CSLAYER1
  6
CONTINUOUS
 62
     6
 10
503.351603
 20
378.514075
 11
501.151591
 21
378.514075
  0
ARC
  8
CSLAYER1
  6
CONTINUOUS
 62
     6
 10
502.801631
 20
387.639181
 40
1.099999
 50
240.000344
 51
300.000332
  0
ARC
  8
CSLAYER1
  6
CONTINUOUS
 62
     6
 10
503.901622
 20
387.639189
 40
1.099999
 50
240.000344
 51
300.000332
  0
ARC
  8
CSLAYER1
  6
CONTINUOUS
 62
     6
 10
503.901637
 20
385.733938
 40
1.099999
 50
60.000353
 51
120.000354
  0
ARC
  8
CSLAYER1
  6
CONTINUOUS
 62
     6
 10
500.601619
 20
387.639181
 40
1.099999
 50
240.000344
 51
300.000332
  0
ARC
  8
CSLAYER1
  6
CONTINUOUS
 62
     6
 10
501.701609
 20
387.639189
 40
1.099999
 50
240.000344
 51
300.000332
  0
ARC
  8
CSLAYER1
  6
CONTINUOUS
 62
     6
 10
501.701625
 20
385.733938
 40
1.099999
 50
60.000353
 51
120.000354
  0
LINE
  8
CSLAYER1
  6
CONTINUOUS
 62
     6
 10
504.451609
 20
387.959753
 11
504.451609
 21
386.686560
  0
LINE
  8
CSLAYER1
  6
CONTINUOUS
 62
     6
 10
502.251582
 20
387.959784
 11
502.251582
 21
386.686560
  0
LINE
  8
CSLAYER1
  6
CONTINUOUS
 62
     6
 10
500.051615
 20
387.959753
 11
500.051615
 21
386.686560
  0
ARC
  8
CSLAYER1
  6
CONTINUOUS
 62
     6
 10
502.251597
 20
379.614111
 40
8.000000
 50
-254.038116
 51
74.037904
  0
LINE
  8
CSLAYER1
  6
CONTINUOUS
 62
     6
 10
505.322047
 20
394.554724
 11
506.939204
 21
397.492834
  0
LINE
  8
CSLAYER1
  6
CONTINUOUS
 62
     6
 10
505.979670
 20
394.212927
 11
504.027613
 21
395.227576
  0
LINE
  8
CSLAYER1
  6
CONTINUOUS
 62
     6
 10
499.181147
 20
394.554785
 11
497.563975
 21
397.492834
  0
LINE
  8
CSLAYER1
  6
CONTINUOUS
 62
     6
 10
498.523524
 20
394.212988
 11
500.475581
 21
395.227576
  0
LINE
  8
CSLAYER1
  6
CONTINUOUS
 62
     6
 10
504.833125
 20
394.808874
 11
506.409907
 21
396.816321
  0
LINE
  8
CSLAYER1
  6
CONTINUOUS
 62
     6
 10
504.434993
 20
395.015845
 11
505.836482
 21
397.095618
  0
LINE
  8
CSLAYER1
  6
CONTINUOUS
 62
     6
 10
499.670069
 20
394.808874
 11
498.093287
 21
396.816321
  0
LINE
  8
CSLAYER1
  6
CONTINUOUS
 62
     6
 10
500.068202
 20
395.015845
 11
498.666697
 21
397.095679
  0
LINE
  8
CSLAYER1
  6
CONTINUOUS
 62
     6
 10
533.251601
 20
368.614111
 11
471.251601
 21
368.614111
  0
LINE
  8
CSLAYER1
  6
CONTINUOUS
 62
     6
 10
473.792729
 20
399.614111
 11
530.710486
 21
399.614111
  0
LINE
  8
CSLAYER1
  6
CONTINUOUS
 62
     6
 10
472.775274
 20
398.614111
 11
531.727941
 21
398.614111
  0
LINE
  8
CSLAYER1
  6
CONTINUOUS
 62
     6
 10
531.727939
 20
398.614264
 11
532.251592
 21
368.614096
  0
LINE
  8
CSLAYER1
  6
CONTINUOUS
 62
     6
 10
472.251615
 20
368.614111
 11
472.775277
 21
398.614264
  0
LINE
  8
CSLAYER1
  6
CONTINUOUS
 62
     6
 10
473.792729
 20
399.614111
 11
472.775277
 21
398.614264
  0
LINE
  8
CSLAYER1
  6
CONTINUOUS
 62
     6
 10
531.727939
 20
398.614264
 11
530.710486
 21
399.614111
  0
LINE
  8
CSLAYER1
  6
CONTINUOUS
 62
     6
 10
312.412100
 20
285.614111
 11
312.412100
 21
286.614111
  0
LINE
  8
CSLAYER1
  6
CENTER
 62
     3
 10
342.412100
 20
402.614104
 11
342.412120
 21
197.614111
  0
LINE
  8
CSLAYER1
  6
CONTINUOUS
 62
     3
 10
311.412100
 20
338.746710
 11
325.912130
 21
338.746710
  0
LINE
  8
CSLAYER1
  6
CONTINUOUS
 62
     3
 10
326.912130
 20
337.746710
 11
326.912130
 21
301.746725
  0
LINE
  8
CSLAYER1
  6
CONTINUOUS
 62
     3
 10
325.912130
 20
300.746725
 11
311.412100
 21
300.746725
  0
ARC
  8
CSLAYER1
  6
CONTINUOUS
 62
     3
 10
325.912130
 20
337.746710
 40
1.000000
 50
-0.000001
 51
89.999995
  0
ARC
  8
CSLAYER1
  6
CONTINUOUS
 62
     3
 10
325.912130
 20
301.746725
 40
1.000000
 50
270.057309
 51
359.999999
  0
TEXT
  8
CSLAYER1
 62
     3
 10
313.026245
 20
318.789459
 40
3.500000
 41
1.125000
  1
N P
 50
360.000000
 51
10.000000
  7
JX_FONT
 72
     5
 11
323.526245
 21
318.789459
  0
LINE
  8
CSLAYER1
  6
CENTER
 62
     3
 10
316.412104
 20
292.089979
 11
316.412111
 21
263.614111
  0
ARC
  8
CSLAYER1
  6
CONTINUOUS
 62
     6
 10
313.032803
 20
286.458941
 40
0.120690
 50
89.999995
 51
179.999997
  0
ARC
  8
CSLAYER1
  6
CONTINUOUS
 62
     6
 10
319.791408
 20
286.458941
 40
0.120690
 50
-0.000001
 51
89.999995
  0
ARC
  8
CSLAYER1
  6
CONTINUOUS
 62
     6
 10
313.032803
 20
285.734801
 40
0.120690
 50
179.999997
 51
270.000000
  0
ARC
  8
CSLAYER1
  6
CONTINUOUS
 62
     6
 10
319.791408
 20
285.734801
 40
0.120690
 50
270.057309
 51
359.999999
  0
LINE
  8
CSLAYER1
  6
CONTINUOUS
 62
     6
 10
312.912098
 20
286.458941
 11
312.912098
 21
285.734801
  0
LINE
  8
CSLAYER1
  6
CONTINUOUS
 62
     6
 10
319.912113
 20
286.458941
 11
319.912113
 21
285.734801
  0
LINE
  8
CSLAYER1
  6
CONTINUOUS
 62
     6
 10
315.692872
 20
286.579630
 11
316.228566
 21
285.614111
  0
LINE
  8
CSLAYER1
  6
CONTINUOUS
 62
     6
 10
316.296321
 20
286.579630
 11
316.832016
 21
285.614111
  0
LINE
  8
CSLAYER1
  6
CONTINUOUS
 62
     6
 10
313.033702
 20
286.852538
 11
313.101855
 21
287.643078
  0
ARC
  8
CSLAYER1
  6
CONTINUOUS
 62
     6
 10
314.334227
 20
287.533688
 40
1.246121
 50
106.257211
 51
174.999882
  0
ARC
  8
CSLAYER1
  6
CONTINUOUS
 62
     6
 10
313.280164
 20
286.830675
 40
0.249229
 50
175.000282
 51
270.000017
  0
LINE
  8
CSLAYER1
  6
CONTINUOUS
 62
     6
 10
319.790510
 20
286.852538
 11
319.722356
 21
287.643078
  0
ARC
  8
CSLAYER1
  6
CONTINUOUS
 62
     6
 10
318.489985
 20
287.533688
 40
1.246121
 50
5.000108
 51
73.742792
  0
ARC
  8
CSLAYER1
  6
CONTINUOUS
 62
     6
 10
319.544047
 20
286.830675
 40
0.249229
 50
-89.942691
 51
4.999725
  0
LINE
  8
CSLAYER1
  6
CONTINUOUS
 62
     6
 10
313.032803
 20
286.579630
 11
319.791408
 21
286.579630
  0
LINE
  8
CSLAYER1
  6
CENTER
 62
     3
 10
368.412115
 20
292.089979
 11
368.412115
 21
263.614111
  0
ARC
  8
CSLAYER1
  6
CONTINUOUS
 62
     6
 10
365.032812
 20
286.458941
 40
0.120690
 50
89.999995
 51
179.999997
  0
ARC
  8
CSLAYER1
  6
CONTINUOUS
 62
     6
 10
371.791418
 20
286.458941
 40
0.120690
 50
-0.000001
 51
89.999995
  0
ARC
  8
CSLAYER1
  6
CONTINUOUS
 62
     6
 10
365.032812
 20
285.734801
 40
0.120690
 50
179.999997
 51
270.000000
  0
ARC
  8
CSLAYER1
  6
CONTINUOUS
 62
     6
 10
371.791418
 20
285.734801
 40
0.120690
 50
270.057309
 51
359.999999
  0
LINE
  8
CSLAYER1
  6
CONTINUOUS
 62
     6
 10
364.912108
 20
286.458941
 11
364.912108
 21
285.734801
  0
LINE
  8
CSLAYER1
  6
CONTINUOUS
 62
     6
 10
371.912122
 20
286.458941
 11
371.912122
 21
285.734801
  0
LINE
  8
CSLAYER1
  6
CONTINUOUS
 62
     6
 10
367.692882
 20
286.579630
 11
368.228576
 21
285.614111
  0
LINE
  8
CSLAYER1
  6
CONTINUOUS
 62
     6
 10
368.296331
 20
286.579630
 11
368.832025
 21
285.614111
  0
LINE
  8
CSLAYER1
  6
CONTINUOUS
 62
     6
 10
365.033711
 20
286.852538
 11
365.101864
 21
287.643078
  0
ARC
  8
CSLAYER1
  6
CONTINUOUS
 62
     6
 10
366.334236
 20
287.533688
 40
1.246121
 50
106.257211
 51
174.999882
  0
ARC
  8
CSLAYER1
  6
CONTINUOUS
 62
     6
 10
365.280174
 20
286.830675
 40
0.249229
 50
175.000282
 51
270.000017
  0
LINE
  8
CSLAYER1
  6
CONTINUOUS
 62
     6
 10
371.790519
 20
286.852538
 11
371.722366
 21
287.643078
  0
ARC
  8
CSLAYER1
  6
CONTINUOUS
 62
     6
 10
370.489994
 20
287.533688
 40
1.246121
 50
5.000108
 51
73.742792
  0
ARC
  8
CSLAYER1
  6
CONTINUOUS
 62
     6
 10
371.544056
 20
286.830675
 40
0.249229
 50
-89.942691
 51
4.999725
  0
LINE
  8
CSLAYER1
  6
CONTINUOUS
 62
     6
 10
365.032812
 20
286.579630
 11
371.791418
 21
286.579630
  0
LINE
  8
CSLAYER1
  6
CONTINUOUS
 62
     6
 10
372.412100
 20
285.614111
 11
372.412100
 21
286.614111
  0
ARC
  8
CSLAYER1
  6
CONTINUOUS
 62
     6
 10
312.412100
 20
283.614111
 40
2.000000
 50
90.000009
 51
179.999997
  0
ARC
  8
CSLAYER1
  6
CONTINUOUS
 62
     6
 10
372.412130
 20
283.614111
 40
2.000000
 50
0.000027
 51
89.999995
  0
LINE
  8
CSLAYER1
  6
CONTINUOUS
 62
     6
 10
312.412100
 20
285.614111
 11
372.412130
 21
285.614111
  0
LINE
  8
CSLAYER1
  6
CONTINUOUS
 62
     6
 10
312.412084
 20
285.614126
 11
312.412084
 21
286.614126
  0
LINE
  8
CSLAYER1
  6
CONTINUOUS
 62
     6
 10
310.412100
 20
283.614111
 11
310.412100
 21
268.614111
  0
LINE
  8
CSLAYER1
  6
CONTINUOUS
 62
     6
 10
310.412100
 20
276.614111
 11
374.412130
 21
276.614111
  0
LINE
  8
CSLAYER1
  6
CONTINUOUS
 62
     6
 10
374.412130
 20
283.614112
 11
374.412130
 21
273.530177
  0
LINE
  8
CSLAYER1
  6
CONTINUOUS
 62
     6
 10
311.412100
 20
286.614111
 11
313.156815
 21
286.614111
  0
LINE
  8
CSLAYER1
  6
CONTINUOUS
 62
     6
 10
311.412100
 20
368.614111
 11
373.412100
 21
368.614111
  0
LINE
  8
CSLAYER1
  6
CONTINUOUS
 62
     6
 10
311.412100
 20
286.614111
 11
311.412100
 21
368.614111
  0
LINE
  8
CSLAYER1
  6
CONTINUOUS
 62
     6
 10
373.412100
 20
286.614111
 11
373.412100
 21
368.614111
  0
LINE
  8
CSLAYER1
  6
CONTINUOUS
 62
     6
 10
319.667397
 20
286.614111
 11
365.156824
 21
286.614111
  0
LINE
  8
CSLAYER1
  6
CONTINUOUS
 62
     6
 10
371.667406
 20
286.614111
 11
373.412100
 21
286.614111
  0
LINE
  8
CSLAYER1
  6
CENTER
 62
     3
 10
329.412100
 20
379.614111
 11
393.794712
 21
379.614111
  0
CIRCLE
  8
CSLAYER1
  6
CONTINUOUS
 62
     6
 10
342.412100
 20
379.614111
 40
8.000000
  0
CIRCLE
  8
CSLAYER1
  6
CONTINUOUS
 62
     6
 10
342.412100
 20
379.614111
 40
6.000000
  0
CIRCLE
  8
CSLAYER1
  6
CONTINUOUS
 62
     3
 10
342.412100
 20
379.614111
 40
5.500000
  0
LINE
  8
CSLAYER1
  6
CONTINUOUS
 62
     6
 10
341.612097
 20
376.864111
 11
341.612097
 21
382.364111
  0
LINE
  8
CSLAYER1
  6
CONTINUOUS
 62
     6
 10
343.212103
 20
376.864111
 11
343.212103
 21
382.364111
  0
LINE
  8
CSLAYER1
  6
CONTINUOUS
 62
     6
 10
341.612097
 20
382.364111
 11
343.212103
 21
382.364111
  0
LINE
  8
CSLAYER1
  6
CONTINUOUS
 62
     6
 10
341.612097
 20
376.864111
 11
343.212103
 21
376.864111
  0
LINE
  8
CSLAYER1
  6
CONTINUOUS
 62
     6
 10
370.888433
 20
399.614111
 11
313.935766
 21
399.614111
  0
LINE
  8
CSLAYER1
  6
CONTINUOUS
 62
     6
 10
371.888433
 20
398.614111
 11
312.935766
 21
398.614111
  0
LINE
  8
CSLAYER1
  6
CONTINUOUS
 62
     6
 10
312.935766
 20
398.614111
 11
312.412115
 21
368.614096
  0
LINE
  8
CSLAYER1
  6
CONTINUOUS
 62
     6
 10
312.935766
 20
398.614111
 11
313.935766
 21
399.614111
  0
LINE
  8
CSLAYER1
  6
CONTINUOUS
 62
     6
 10
371.888433
 20
398.614111
 11
372.412084
 21
368.614096
  0
LINE
  8
CSLAYER1
  6
CONTINUOUS
 62
     6
 10
371.888433
 20
398.614111
 11
370.888433
 21
399.614111
  0
LINE
  8
CSLAYER1
  6
CONTINUOUS
 62
     6
 10
354.778397
 20
266.614111
 11
312.412100
 21
266.614111
  0
ARC
  8
CSLAYER1
  6
CONTINUOUS
 62
     6
 10
312.412100
 20
268.614111
 40
2.000000
 50
180.000000
 51
270.000000
  0
LINE
  8
CSLAYER1
  6
CENTER
 62
     3
 10
413.412100
 20
238.614111
 11
322.412116
 21
238.614111
  0
LINE
  8
CSLAYER1
  6
CONTINUOUS
 62
     6
 10
354.778397
 20
210.614111
 11
312.412100
 21
210.614111
  0
LINE
  8
CSLAYER1
  6
CONTINUOUS
 62
     6
 10
374.412130
 20
200.614111
 11
310.412100
 21
200.614111
  0
ARC
  8
CSLAYER1
  6
CONTINUOUS
 62
     6
 10
312.412100
 20
208.614111
 40
2.000000
 50
90.000000
 51
180.000000
  0
LINE
  8
CSLAYER1
  6
CONTINUOUS
 62
     6
 10
310.412100
 20
208.614111
 11
310.412100
 21
200.614111
  0
LINE
  8
CSLAYER1
  6
CONTINUOUS
 62
     6
 10
374.412130
 20
203.698045
 11
374.412130
 21
200.614111
  0
LINE
  8
CSLAYER1
  6
CONTINUOUS
 62
     6
 10
325.412113
 20
263.614112
 11
325.412119
 21
213.614112
  0
ARC
  8
CSLAYER1
  6
CONTINUOUS
 62
     6
 10
322.412113
 20
263.614111
 40
3.000000
 50
0.000006
 51
90.000000
  0
ARC
  8
CSLAYER1
  6
CONTINUOUS
 62
     6
 10
322.412119
 20
213.614111
 40
3.000000
 50
-90.000000
 51
0.000006
  0
LINE
  8
CSLAYER1
  6
CENTER
 62
     3
 10
375.412112
 20
276.614111
 11
375.412120
 21
200.614127
  0
CIRCLE
  8
CSLAYER1
  6
CONTINUOUS
 62
     6
 10
375.412116
 20
238.614111
 40
16.000000
  0
CIRCLE
  8
CSLAYER1
  6
CONTINUOUS
 62
     6
 10
375.412116
 20
238.614111
 40
21.000005
  0
ARC
  8
CSLAYER1
  6
CONTINUOUS
 62
     6
 10
404.412100
 20
238.614111
 40
6.000000
 50
-70.659467
 51
70.659467
  0
ARC
  8
CSLAYER1
  6
CONTINUOUS
 62
     6
 10
375.412116
 20
209.614127
 40
6.000000
 50
199.340533
 51
340.659467
  0
ARC
  8
CSLAYER1
  6
CONTINUOUS
 62
     6
 10
375.412116
 20
267.614095
 40
6.000000
 50
19.340533
 51
160.659467
  0
LINE
  8
CSLAYER1
  6
CENTER
 62
     3
 10
316.412120
 20
197.614111
 11
316.412120
 21
213.614111
  0
LINE
  8
CSLAYER1
  6
CENTER
 62
     3
 10
354.412120
 20
197.614111
 11
354.412120
 21
213.614111
  0
LINE
  8
CSLAYER1
  6
CONTINUOUS
 62
     6
 10
327.412113
 20
263.614112
 11
327.412119
 21
213.614112
  0
ARC
  8
CSLAYER1
  6
CONTINUOUS
 62
     6
 10
316.412106
 20
280.303755
 40
8.786224
 50
73.933745
 51
106.066256
  0
ARC
  8
CSLAYER1
  6
CONTINUOUS
 62
     6
 10
368.412115
 20
280.303755
 40
8.786224
 50
73.933745
 51
106.066256
  0
ARC
  8
CSLAYER1
  6
CONTINUOUS
 62
     6
 10
383.658848
 20
394.272955
 40
15.758816
 50
270.057309
 51
297.463798
  0
ARC
  8
CSLAYER1
  6
CONTINUOUS
 62
     6
 10
383.658848
 20
394.272955
 40
13.558834
 50
270.057309
 51
297.463798
  0
ARC
  8
CSLAYER1
  6
CONTINUOUS
 62
     6
 10
384.611439
 20
379.064123
 40
1.099999
 50
149.999655
 51
209.999650
  0
ARC
  8
CSLAYER1
  6
CONTINUOUS
 62
     6
 10
384.611454
 20
380.164122
 40
1.099999
 50
149.999655
 51
209.999650
  0
ARC
  8
CSLAYER1
  6
CONTINUOUS
 62
     6
 10
382.706196
 20
380.164130
 40
1.099999
 50
-30.000350
 51
29.999638
  0
LINE
  8
CSLAYER1
  6
CONTINUOUS
 62
     6
 10
390.253803
 20
381.584555
 11
393.191876
 21
383.201712
  0
LINE
  8
CSLAYER1
  6
CONTINUOUS
 62
     6
 10
390.507938
 20
381.095633
 11
393.515354
 21
382.672415
  0
LINE
  8
CSLAYER1
  6
CONTINUOUS
 62
     6
 10
390.714893
 20
380.697500
 11
393.794697
 21
382.098990
  0
LINE
  8
CSLAYER1
  6
CONTINUOUS
 62
     6
 10
389.912006
 20
382.242178
 11
390.926624
 21
380.290121
  0
ARC
  8
CSLAYER1
  6
CONTINUOUS
 62
     6
 10
383.658848
 20
364.955267
 40
15.758816
 50
62.536132
 51
67.577932
  0
ARC
  8
CSLAYER1
  6
CONTINUOUS
 62
     6
 10
383.658848
 20
364.955267
 40
13.558834
 50
62.536132
 51
90.000022
  0
LINE
  8
CSLAYER1
  6
CONTINUOUS
 62
     6
 10
390.253834
 20
377.643667
 11
393.191891
 21
376.026495
  0
LINE
  8
CSLAYER1
  6
CONTINUOUS
 62
     6
 10
390.507954
 20
378.132590
 11
393.515354
 21
376.555807
  0
LINE
  8
CSLAYER1
  6
CONTINUOUS
 62
     6
 10
390.714893
 20
378.530722
 11
393.794712
 21
377.129217
  0
LINE
  8
CSLAYER1
  6
CONTINUOUS
 62
     6
 10
389.912022
 20
376.986044
 11
390.926640
 21
378.938101
  0
ARC
  8
CSLAYER1
  6
CONTINUOUS
 62
     6
 10
379.793980
 20
380.164099
 40
1.100006
 50
-29.999995
 51
29.999993
  0
ARC
  8
CSLAYER1
  6
CONTINUOUS
 62
     6
 10
379.793980
 20
379.064093
 40
1.100006
 50
-29.999995
 51
29.999993
  0
ARC
  8
CSLAYER1
  6
CONTINUOUS
 62
     6
 10
381.699253
 20
379.064093
 40
1.100006
 50
149.999997
 51
209.999998
  0
LINE
  8
CSLAYER1
  6
CONTINUOUS
 62
     6
 10
372.239294
 20
378.514105
 11
380.746616
 21
378.514105
  0
LINE
  8
CSLAYER1
  6
CONTINUOUS
 62
     6
 10
372.200888
 20
380.714102
 11
380.746616
 21
380.714102
  0
ARC
  8
CSLAYER1
  6
CONTINUOUS
 62
     6
 10
375.412116
 20
238.614111
 40
31.500005
 50
10.353859
 51
79.646141
  0
ARC
  8
CSLAYER1
  6
CONTINUOUS
 62
     6
 10
375.412116
 20
238.614111
 40
31.500005
 50
280.353859
 51
349.646141
  0
ARC
  8
CSLAYER1
  6
CONTINUOUS
 62
     6
 10
346.412132
 20
238.614105
 40
6.000000
 50
109.340545
 51
250.659479
  0
ARC
  8
CSLAYER1
  6
CONTINUOUS
 62
     6
 10
375.412116
 20
238.614111
 40
31.500005
 50
190.353871
 51
259.646141
  0
ARC
  8
CSLAYER1
  6
CONTINUOUS
 62
     6
 10
375.412116
 20
238.614111
 40
31.500005
 50
100.353859
 51
169.646154
  0
ARC
  8
CSLAYER1
  6
CONTINUOUS
 62
     6
 10
375.412116
 20
238.614111
 40
34.500005
 50
235.029207
 51
263.128143
  0
ARC
  8
CSLAYER1
  6
CONTINUOUS
 62
     6
 10
354.778397
 20
209.114111
 40
1.500000
 50
55.029207
 51
90.000000
  0
ARC
  8
CSLAYER1
  6
CONTINUOUS
 62
     6
 10
375.412116
 20
209.614127
 40
6.500000
 50
237.423757
 51
251.790151
  0
ARC
  8
CSLAYER1
  6
CONTINUOUS
 62
     6
 10
371.104744
 20
202.872722
 40
1.500000
 50
57.423757
 51
83.128143
  0
ARC
  8
CSLAYER1
  6
CONTINUOUS
 62
     6
 10
372.912130
 20
202.014781
 40
1.500000
 50
0.000000
 51
71.790151
  0
CIRCLE
  8
CSLAYER1
  6
CONTINUOUS
 62
     6
 10
375.412108
 20
206.614113
 40
2.750000
  0
ARC
  8
CSLAYER1
  6
CONTINUOUS
 62
     6
 10
375.412107
 20
206.614102
 40
1.527778
 50
253.398391
 51
286.601553
  0
ARC
  8
CSLAYER1
  6
CONTINUOUS
 62
     6
 10
375.412107
 20
206.614102
 40
1.527778
 50
-16.601603
 51
16.601559
  0
ARC
  8
CSLAYER1
  6
CONTINUOUS
 62
     6
 10
375.412107
 20
206.614102
 40
1.527778
 50
73.398414
 51
106.601548
  0
ARC
  8
CSLAYER1
  6
CONTINUOUS
 62
     6
 10
375.412107
 20
206.614102
 40
1.527778
 50
163.398382
 51
196.601571
  0
LINE
  8
CSLAYER1
  6
CONTINUOUS
 62
     6
 10
375.848621
 20
207.487129
 11
375.848621
 21
208.078188
  0
LINE
  8
CSLAYER1
  6
CONTINUOUS
 62
     6
 10
375.848620
 20
205.741076
 11
375.848620
 21
205.150017
  0
LINE
  8
CSLAYER1
  6
CONTINUOUS
 62
     6
 10
374.975594
 20
207.487129
 11
374.975594
 21
208.078188
  0
LINE
  8
CSLAYER1
  6
CONTINUOUS
 62
     6
 10
374.975593
 20
205.741076
 11
374.975593
 21
205.150017
  0
LINE
  8
CSLAYER1
  6
CONTINUOUS
 62
     6
 10
376.285111
 20
206.177589
 11
376.876215
 21
206.177589
  0
LINE
  8
CSLAYER1
  6
CONTINUOUS
 62
     6
 10
374.539103
 20
206.177590
 11
373.947999
 21
206.177590
  0
LINE
  8
CSLAYER1
  6
CONTINUOUS
 62
     6
 10
376.285111
 20
207.050615
 11
376.876215
 21
207.050615
  0
LINE
  8
CSLAYER1
  6
CONTINUOUS
 62
     6
 10
374.539103
 20
207.050616
 11
373.947999
 21
207.050616
  0
ARC
  8
CSLAYER1
  6
CONTINUOUS
 62
     6
 10
376.285111
 20
207.487129
 40
0.436508
 50
179.999976
 51
269.942667
  0
ARC
  8
CSLAYER1
  6
CONTINUOUS
 62
     6
 10
374.539104
 20
207.487130
 40
0.436508
 50
269.999986
 51
359.999992
  0
ARC
  8
CSLAYER1
  6
CONTINUOUS
 62
     6
 10
374.539103
 20
205.741076
 40
0.436508
 50
-0.000008
 51
89.999981
  0
ARC
  8
CSLAYER1
  6
CONTINUOUS
 62
     6
 10
376.285111
 20
205.741075
 40
0.436508
 50
89.999981
 51
179.942630
  0
ARC
  8
CSLAYER1
  6
CENTER
 62
     3
 10
375.412116
 20
238.614111
 40
32.000005
 50
261.493044
 51
278.506926
  0
CIRCLE
  8
CSLAYER1
  6
CONTINUOUS
 62
     6
 10
407.412115
 20
238.614103
 40
2.750000
  0
ARC
  8
CSLAYER1
  6
CONTINUOUS
 62
     6
 10
407.412125
 20
238.614102
 40
1.527778
 50
-16.601609
 51
16.601553
  0
ARC
  8
CSLAYER1
  6
CONTINUOUS
 62
     6
 10
407.412125
 20
238.614102
 40
1.527778
 50
73.398397
 51
106.601559
  0
ARC
  8
CSLAYER1
  6
CONTINUOUS
 62
     6
 10
407.412125
 20
238.614102
 40
1.527778
 50
163.398414
 51
196.601548
  0
ARC
  8
CSLAYER1
  6
CONTINUOUS
 62
     6
 10
407.412125
 20
238.614102
 40
1.527778
 50
253.398382
 51
286.601571
  0
LINE
  8
CSLAYER1
  6
CONTINUOUS
 62
     6
 10
406.539098
 20
239.050616
 11
405.948039
 21
239.050616
  0
LINE
  8
CSLAYER1
  6
CONTINUOUS
 62
     6
 10
408.285151
 20
239.050615
 11
408.876210
 21
239.050615
  0
LINE
  8
CSLAYER1
  6
CONTINUOUS
 62
     6
 10
406.539098
 20
238.177589
 11
405.948039
 21
238.177590
  0
LINE
  8
CSLAYER1
  6
CONTINUOUS
 62
     6
 10
408.285151
 20
238.177589
 11
408.876210
 21
238.177588
  0
LINE
  8
CSLAYER1
  6
CONTINUOUS
 62
     6
 10
407.848638
 20
239.487106
 11
407.848639
 21
240.078210
  0
LINE
  8
CSLAYER1
  6
CONTINUOUS
 62
     6
 10
407.848638
 20
237.741098
 11
407.848637
 21
237.149994
  0
LINE
  8
CSLAYER1
  6
CONTINUOUS
 62
     6
 10
406.975612
 20
239.487106
 11
406.975612
 21
240.078211
  0
LINE
  8
CSLAYER1
  6
CONTINUOUS
 62
     6
 10
406.975611
 20
237.741099
 11
406.975611
 21
237.149994
  0
ARC
  8
CSLAYER1
  6
CONTINUOUS
 62
     6
 10
406.539098
 20
239.487107
 40
0.436508
 50
269.999976
 51
359.942667
  0
ARC
  8
CSLAYER1
  6
CONTINUOUS
 62
     6
 10
406.539098
 20
237.741099
 40
0.436508
 50
-0.000014
 51
89.999992
  0
ARC
  8
CSLAYER1
  6
CONTINUOUS
 62
     6
 10
408.285151
 20
237.741098
 40
0.436508
 50
89.999992
 51
179.999981
  0
ARC
  8
CSLAYER1
  6
CONTINUOUS
 62
     6
 10
408.285152
 20
239.487106
 40
0.436508
 50
179.999981
 51
269.942630
  0
ARC
  8
CSLAYER1
  6
CENTER
 62
     3
 10
375.412116
 20
238.614111
 40
32.000005
 50
-8.506956
 51
8.506926
  0
CIRCLE
  8
CSLAYER1
  6
CONTINUOUS
 62
     6
 10
375.412124
 20
270.614110
 40
2.750000
  0
ARC
  8
CSLAYER1
  6
CONTINUOUS
 62
     6
 10
375.412125
 20
270.614120
 40
1.527778
 50
73.398391
 51
106.601553
  0
ARC
  8
CSLAYER1
  6
CONTINUOUS
 62
     6
 10
375.412125
 20
270.614120
 40
1.527778
 50
163.398397
 51
196.601559
  0
ARC
  8
CSLAYER1
  6
CONTINUOUS
 62
     6
 10
375.412125
 20
270.614120
 40
1.527778
 50
253.398414
 51
286.601548
  0
ARC
  8
CSLAYER1
  6
CONTINUOUS
 62
     6
 10
375.412125
 20
270.614120
 40
1.527778
 50
-16.601618
 51
16.601571
  0
LINE
  8
CSLAYER1
  6
CONTINUOUS
 62
     6
 10
374.975611
 20
269.741093
 11
374.975611
 21
269.150035
  0
LINE
  8
CSLAYER1
  6
CONTINUOUS
 62
     6
 10
374.975612
 20
271.487147
 11
374.975612
 21
272.078205
  0
LINE
  8
CSLAYER1
  6
CONTINUOUS
 62
     6
 10
375.848638
 20
269.741093
 11
375.848637
 21
269.150034
  0
LINE
  8
CSLAYER1
  6
CONTINUOUS
 62
     6
 10
375.848638
 20
271.487146
 11
375.848639
 21
272.078205
  0
LINE
  8
CSLAYER1
  6
CONTINUOUS
 62
     6
 10
374.539121
 20
271.050634
 11
373.948017
 21
271.050634
  0
LINE
  8
CSLAYER1
  6
CONTINUOUS
 62
     6
 10
376.285129
 20
271.050633
 11
376.876233
 21
271.050633
  0
LINE
  8
CSLAYER1
  6
CONTINUOUS
 62
     6
 10
374.539121
 20
270.177607
 11
373.948016
 21
270.177607
  0
LINE
  8
CSLAYER1
  6
CONTINUOUS
 62
     6
 10
376.285128
 20
270.177606
 11
376.876233
 21
270.177606
  0
ARC
  8
CSLAYER1
  6
CONTINUOUS
 62
     6
 10
374.539121
 20
269.741094
 40
0.436508
 50
-0.000024
 51
89.942667
  0
ARC
  8
CSLAYER1
  6
CONTINUOUS
 62
     6
 10
376.285128
 20
269.741093
 40
0.436508
 50
89.999986
 51
179.999992
  0
ARC
  8
CSLAYER1
  6
CONTINUOUS
 62
     6
 10
376.285129
 20
271.487146
 40
0.436508
 50
179.999992
 51
269.999981
  0
ARC
  8
CSLAYER1
  6
CONTINUOUS
 62
     6
 10
374.539121
 20
271.487147
 40
0.436508
 50
269.999981
 51
359.942630
  0
ARC
  8
CSLAYER1
  6
CENTER
 62
     3
 10
375.412116
 20
238.614111
 40
32.000005
 50
81.493044
 51
98.506926
  0
CIRCLE
  8
CSLAYER1
  6
CONTINUOUS
 62
     6
 10
343.412117
 20
238.614120
 40
2.750000
  0
ARC
  8
CSLAYER1
  6
CONTINUOUS
 62
     6
 10
343.412107
 20
238.614120
 40
1.527778
 50
163.398391
 51
196.601553
  0
ARC
  8
CSLAYER1
  6
CONTINUOUS
 62
     6
 10
343.412107
 20
238.614120
 40
1.527778
 50
253.398397
 51
286.601559
  0
ARC
  8
CSLAYER1
  6
CONTINUOUS
 62
     6
 10
343.412107
 20
238.614120
 40
1.527778
 50
-16.601586
 51
16.601548
  0
ARC
  8
CSLAYER1
  6
CONTINUOUS
 62
     6
 10
343.412107
 20
238.614120
 40
1.527778
 50
73.398382
 51
106.601571
  0
LINE
  8
CSLAYER1
  6
CONTINUOUS
 62
     6
 10
344.285134
 20
238.177606
 11
344.876192
 21
238.177606
  0
LINE
  8
CSLAYER1
  6
CONTINUOUS
 62
     6
 10
342.539080
 20
238.177607
 11
341.948022
 21
238.177607
  0
LINE
  8
CSLAYER1
  6
CONTINUOUS
 62
     6
 10
344.285134
 20
239.050633
 11
344.876193
 21
239.050633
  0
LINE
  8
CSLAYER1
  6
CONTINUOUS
 62
     6
 10
342.539081
 20
239.050634
 11
341.948022
 21
239.050634
  0
LINE
  8
CSLAYER1
  6
CONTINUOUS
 62
     6
 10
342.975594
 20
237.741116
 11
342.975593
 21
237.150012
  0
LINE
  8
CSLAYER1
  6
CONTINUOUS
 62
     6
 10
342.975594
 20
239.487124
 11
342.975595
 21
240.078228
  0
LINE
  8
CSLAYER1
  6
CONTINUOUS
 62
     6
 10
343.848620
 20
237.741116
 11
343.848620
 21
237.150012
  0
LINE
  8
CSLAYER1
  6
CONTINUOUS
 62
     6
 10
343.848621
 20
239.487124
 11
343.848621
 21
240.078228
  0
ARC
  8
CSLAYER1
  6
CONTINUOUS
 62
     6
 10
344.285133
 20
237.741116
 40
0.436508
 50
89.999976
 51
179.942667
  0
ARC
  8
CSLAYER1
  6
CONTINUOUS
 62
     6
 10
344.285134
 20
239.487124
 40
0.436508
 50
179.999986
 51
269.999992
  0
ARC
  8
CSLAYER1
  6
CONTINUOUS
 62
     6
 10
342.539081
 20
239.487124
 40
0.436508
 50
269.999992
 51
359.999981
  0
ARC
  8
CSLAYER1
  6
CONTINUOUS
 62
     6
 10
342.539080
 20
237.741117
 40
0.436508
 50
-0.000019
 51
89.942630
  0
ARC
  8
CSLAYER1
  6
CENTER
 62
     3
 10
375.412116
 20
238.614111
 40
32.000005
 50
171.493044
 51
188.506926
  0
ARC
  8
CSLAYER1
  6
CONTINUOUS
 62
     6
 10
375.412116
 20
238.614111
 40
34.500005
 50
96.871857
 51
124.970793
  0
ARC
  8
CSLAYER1
  6
CONTINUOUS
 62
     6
 10
354.778397
 20
268.114111
 40
1.500000
 50
270.000000
 51
304.970793
  0
ARC
  8
CSLAYER1
  6
CONTINUOUS
 62
     6
 10
375.412116
 20
267.614095
 40
6.500000
 50
108.209849
 51
122.576243
  0
ARC
  8
CSLAYER1
  6
CONTINUOUS
 62
     6
 10
371.104744
 20
274.355501
 40
1.500000
 50
276.871857
 51
302.576243
  0
ARC
  8
CSLAYER1
  6
CONTINUOUS
 62
     6
 10
372.912130
 20
275.213442
 40
1.500000
 50
288.209849
 51
360.000000
  0
LINE
  8
CSLAYER1
  6
CONTINUOUS
 62
     3
 10
392.803287
 20
218.175066
 11
393.565256
 21
218.937034
  0
LINE
  8
CSLAYER1
  6
CONTINUOUS
 62
     3
 10
393.565256
 20
218.937034
 11
392.803287
 21
219.699003
  0
LINE
  8
CSLAYER1
  6
CONTINUOUS
 62
     3
 10
392.803287
 20
219.699003
 11
395.851161
 21
221.222940
  0
LINE
  8
CSLAYER1
  6
CONTINUOUS
 62
     3
 10
395.851161
 20
221.222940
 11
395.089193
 21
220.460971
  0
LINE
  8
CSLAYER1
  6
CONTINUOUS
 62
     3
 10
395.089193
 20
220.460971
 11
395.851161
 21
219.699003
  0
LINE
  8
CSLAYER1
  6
CONTINUOUS
 62
     3
 10
395.851161
 20
219.699003
 11
392.803287
 21
218.175066
  0
CIRCLE
  8
CSLAYER1
  6
CONTINUOUS
 62
     3
 10
394.327224
 20
219.699003
 40
2.155172
  0
CIRCLE
  8
CSLAYER1
  6
CONTINUOUS
 62
     3
 10
394.327224
 20
219.699003
 40
2.500000
  0
CIRCLE
  8
CSLAYER1
  6
CONTINUOUS
 62
     6
 10
375.412116
 20
238.614111
 40
6.000000
  0
CIRCLE
  8
CSLAYER1
  6
CONTINUOUS
 62
     6
 10
375.412116
 20
238.614111
 40
5.000000
  0
LINE
  8
CSLAYER1
  6
CONTINUOUS
 62
     6
 10
373.232666
 20
234.114111
 11
377.591565
 21
234.114111
  0
LINE
  8
CSLAYER1
  6
CENTER
 62
     3
 10
307.412096
 20
496.986909
 11
413.412126
 21
496.986886
  0
CIRCLE
  8
CSLAYER1
  6
CONTINUOUS
 62
     6
 10
342.412111
 20
496.986894
 40
30.000000
  0
ARC
  8
CSLAYER1
  6
CONTINUOUS
 62
     6
 10
342.412111
 20
496.986894
 40
31.000000
 50
4.069556
 51
355.930414
  0
LINE
  8
CSLAYER1
  6
CONTINUOUS
 62
     6
 10
380.746607
 20
499.186874
 11
372.331332
 21
499.186886
  0
LINE
  8
CSLAYER1
  6
CONTINUOUS
 62
     6
 10
380.746606
 20
494.786876
 11
372.331331
 21
494.786888
  0
LINE
  8
CSLAYER1
  6
CONTINUOUS
 62
     6
 10
380.746607
 20
496.986869
 11
372.331331
 21
496.986889
  0
ARC
  8
CSLAYER1
  6
CONTINUOUS
 62
     6
 10
383.658760
 20
512.745897
 40
15.759004
 50
270.000210
 51
297.463963
  0
ARC
  8
CSLAYER1
  6
CONTINUOUS
 62
     6
 10
383.658760
 20
512.745897
 40
13.559023
 50
270.000284
 51
297.463982
  0
ARC
  8
CSLAYER1
  6
CONTINUOUS
 62
     6
 10
379.793985
 20
497.536895
 40
1.099999
 50
-30.000154
 51
29.999834
  0
ARC
  8
CSLAYER1
  6
CONTINUOUS
 62
     6
 10
379.793986
 20
498.636894
 40
1.099999
 50
-30.000154
 51
29.999834
  0
ARC
  8
CSLAYER1
  6
CONTINUOUS
 62
     6
 10
381.699229
 20
498.636886
 40
1.099999
 50
149.999834
 51
209.999829
  0
ARC
  8
CSLAYER1
  6
CONTINUOUS
 62
     6
 10
384.611469
 20
498.636875
 40
1.099999
 50
149.999691
 51
209.999692
  0
ARC
  8
CSLAYER1
  6
CONTINUOUS
 62
     6
 10
384.611454
 20
497.536876
 40
1.099999
 50
149.999691
 51
209.999692
  0
ARC
  8
CSLAYER1
  6
CONTINUOUS
 62
     6
 10
382.706196
 20
497.536885
 40
1.099999
 50
-30.000291
 51
29.999697
  0
LINE
  8
CSLAYER1
  6
CONTINUOUS
 62
     6
 10
390.165700
 20
500.226953
 11
393.186699
 21
502.003796
  0
LINE
  8
CSLAYER1
  6
CONTINUOUS
 62
     6
 10
390.419347
 20
499.738937
 11
393.524905
 21
501.353113
  0
LINE
  8
CSLAYER1
  6
CONTINUOUS
 62
     6
 10
390.673000
 20
499.250924
 11
393.863111
 21
500.702430
  0
LINE
  8
CSLAYER1
  6
CONTINUOUS
 62
     6
 10
389.912045
 20
500.714965
 11
390.926662
 21
498.762916
  0
ARC
  8
CSLAYER1
  6
CONTINUOUS
 62
     6
 10
383.658920
 20
481.227914
 40
15.758933
 50
62.536515
 51
90.000373
  0
ARC
  8
CSLAYER1
  6
CONTINUOUS
 62
     6
 10
383.658920
 20
481.227914
 40
13.558951
 50
62.536613
 51
90.000393
  0
ARC
  8
CSLAYER1
  6
CONTINUOUS
 62
     6
 10
379.793984
 20
495.336853
 40
1.099999
 50
-29.999826
 51
30.000162
  0
ARC
  8
CSLAYER1
  6
CONTINUOUS
 62
     6
 10
379.793985
 20
496.436851
 40
1.099999
 50
-29.999826
 51
30.000162
  0
ARC
  8
CSLAYER1
  6
CONTINUOUS
 62
     6
 10
381.699228
 20
496.436858
 40
1.099999
 50
150.000162
 51
210.000157
  0
ARC
  8
CSLAYER1
  6
CONTINUOUS
 62
     6
 10
384.611438
 20
496.436870
 40
1.099999
 50
150.000326
 51
210.000321
  0
ARC
  8
CSLAYER1
  6
CONTINUOUS
 62
     6
 10
384.611453
 20
495.336872
 40
1.099999
 50
150.000326
 51
210.000321
  0
ARC
  8
CSLAYER1
  6
CONTINUOUS
 62
     6
 10
382.706195
 20
495.336861
 40
1.099999
 50
-29.999662
 51
30.000326
  0
LINE
  8
CSLAYER1
  6
CENTER
 62
     3
 10
342.412113
 20
536.986901
 11
342.412079
 21
456.986915
  0
CIRCLE
  8
CSLAYER1
  6
CONTINUOUS
 62
     6
 10
342.412111
 20
496.986886
 40
6.818180
  0
CIRCLE
  8
CSLAYER1
  6
CONTINUOUS
 62
     6
 10
342.412111
 20
496.986886
 40
7.909089
  0
LINE
  8
CSLAYER1
  6
CONTINUOUS
 62
     6
 10
342.412109
 20
490.168706
 11
345.821201
 21
500.395973
  0
LINE
  8
CSLAYER1
  6
CONTINUOUS
 62
     6
 10
345.821201
 20
500.395973
 11
342.412113
 21
500.437669
  0
LINE
  8
CSLAYER1
  6
CONTINUOUS
 62
     6
 10
342.412113
 20
500.437669
 11
342.412114
 21
503.805070
  0
LINE
  8
CSLAYER1
  6
CONTINUOUS
 62
     6
 10
339.003022
 20
493.577799
 11
342.412110
 21
493.600934
  0
LINE
  8
CSLAYER1
  6
CONTINUOUS
 62
     6
 10
342.412110
 20
493.600934
 11
342.412109
 21
490.168706
  0
TEXT
  8
CSLAYER1
 62
     6
 10
344.380188
 20
482.154114
 40
3.409090
 41
1.200000
  1
S
 50
11.999969
 51
3.000000
  7
JX_FONT
 72
     5
 11
347.047863
 21
482.721144
  0
TEXT
  8
CSLAYER1
 62
     6
 10
347.421082
 20
482.887329
 40
3.409090
 41
1.200000
  1
A
 50
24.000000
 51
3.000000
  7
JX_FONT
 72
     5
 11
349.912569
 21
483.996611
  0
TEXT
  8
CSLAYER1
 62
     6
 10
350.243103
 20
484.236877
 40
3.409090
 41
1.596000
  1
W
 50
36.000000
 51
3.000000
  7
JX_FONT
 72
     5
 11
353.177628
 21
486.368934
  0
TEXT
  8
CSLAYER1
 62
     6
 10
352.722839
 20
486.143677
 40
3.409090
 41
1.200000
  1
A
 50
47.999969
 51
3.000000
  7
JX_FONT
 72
     5
 11
354.547742
 21
488.170434
  0
TEXT
  8
CSLAYER1
 62
     6
 10
354.751953
 20
488.524292
 40
3.409090
 41
1.200000
  1
M
 50
59.999969
 51
3.000000
  7
JX_FONT
 72
     5
 11
356.115590
 21
490.886178
  0
TEXT
  8
CSLAYER1
 62
     6
 10
356.241699
 20
491.274841
 40
3.409090
 41
1.200000
  1
U
 50
71.999969
 51
3.000000
  7
JX_FONT
 72
     5
 11
357.084474
 21
493.868631
  0
TEXT
  8
CSLAYER1
 62
     6
 10
357.127075
 20
494.274963
 40
3.409090
 41
1.200000
  1
R
 50
83.999939
 51
3.000000
  7
JX_FONT
 72
     5
 11
357.412156
 21
496.987295
  0
TEXT
  8
CSLAYER1
 62
     6
 10
357.369385
 20
497.393677
 40
3.409090
 41
1.200000
  1
A
 50
95.999969
 51
3.000000
  7
JX_FONT
 72
     5
 11
357.084309
 21
500.106009
  0
TEXT
  8
CSLAYER1
 62
     6
 10
349.538391
 20
510.143555
 40
3.409090
 41
1.200000
  1
K
 50
156.000031
 51
3.000000
  7
JX_FONT
 72
     5
 11
347.046904
 21
511.252835
  0
TEXT
  8
CSLAYER1
 62
     6
 10
346.647278
 20
511.337708
 40
3.409090
 41
0.792000
  1
I
 50
167.999969
 51
3.000000
  7
JX_FONT
 72
     5
 11
344.886613
 21
511.711949
  0
TEXT
  8
CSLAYER1
 62
     6
 10
355.910767
 20
503.442139
 40
3.409090
 41
1.200000
  1
D
 50
120.000000
 51
3.000000
  7
JX_FONT
 72
     5
 11
354.547131
 21
505.804026
  0
TEXT
  8
CSLAYER1
 62
     6
 10
354.273682
 20
506.107605
 40
3.409090
 41
1.200000
  1
E
 50
131.999939
 51
3.000000
  7
JX_FONT
 72
     5
 11
352.448783
 21
508.134365
  0
TEXT
  8
CSLAYER1
 62
     6
 10
352.118103
 20
508.374451
 40
3.409090
 41
1.200000
  1
N
 50
144.000031
 51
3.000000
  7
JX_FONT
 72
     5
 11
349.911693
 21
509.977500
  0
TEXT
  8
CSLAYER1
 62
     6
 10
341.253357
 20
482.069031
 40
3.410000
 41
1.200000
  1
*
 50
359.999969
 51
3.000000
  7
JX_FONT
 72
     5
 11
343.981357
 21
482.069029
  0
TEXT
  8
CSLAYER1
 62
     6
 10
328.582458
 20
502.698853
 40
3.409090
 41
1.200000
  1
U
 50
251.999969
 51
3.000000
  7
JX_FONT
 72
     5
 11
327.739684
 21
500.105063
  0
TEXT
  8
CSLAYER1
 62
     6
 10
327.697083
 20
499.698730
 40
3.409090
 41
1.200000
  1
R
 50
263.999939
 51
3.000000
  7
JX_FONT
 72
     5
 11
327.412002
 21
496.986399
  0
TEXT
  8
CSLAYER1
 62
     6
 10
327.454834
 20
496.580017
 40
3.409090
 41
1.200000
  1
A
 50
276.000000
 51
3.000000
  7
JX_FONT
 72
     5
 11
327.739912
 21
493.867685
  0
TEXT
  8
CSLAYER1
 62
     6
 10
335.285767
 20
483.830139
 40
3.409090
 41
1.200000
  1
K
 50
336.000031
 51
3.000000
  7
JX_FONT
 72
     5
 11
337.777254
 21
482.720859
  0
TEXT
  8
CSLAYER1
 62
     6
 10
338.176941
 20
482.635986
 40
3.409090
 41
0.792000
  1
I
 50
347.999969
 51
3.000000
  7
JX_FONT
 72
     5
 11
339.937606
 21
482.261744
  0
TEXT
  8
CSLAYER1
 62
     6
 10
328.913391
 20
490.531555
 40
3.409090
 41
1.200000
  1
D
 50
300.000000
 51
3.000000
  7
JX_FONT
 72
     5
 11
330.277027
 21
488.169668
  0
TEXT
  8
CSLAYER1
 62
     6
 10
330.550537
 20
487.866089
 40
3.409090
 41
1.200000
  1
E
 50
311.999939
 51
3.000000
  7
JX_FONT
 72
     5
 11
332.375436
 21
485.839329
  0
TEXT
  8
CSLAYER1
 62
     6
 10
332.706055
 20
485.599243
 40
3.409090
 41
1.200000
  1
N
 50
324.000031
 51
3.000000
  7
JX_FONT
 72
     5
 11
334.912465
 21
483.996194
  0
TEXT
  8
CSLAYER1
 62
     6
 10
340.444031
 20
511.819641
 40
3.409090
 41
1.200000
  1
S
 50
191.999969
 51
3.000000
  7
JX_FONT
 72
     5
 11
337.776356
 21
511.252611
  0
TEXT
  8
CSLAYER1
 62
     6
 10
337.403076
 20
511.086365
 40
3.409090
 41
1.200000
  1
A
 50
204.000031
 51
3.000000
  7
JX_FONT
 72
     5
 11
334.911590
 21
509.977082
  0
TEXT
  8
CSLAYER1
 62
     6
 10
334.581116
 20
509.736816
 40
3.409090
 41
1.596000
  1
W
 50
216.000000
 51
3.000000
  7
JX_FONT
 72
     5
 11
331.646591
 21
507.604759
  0
TEXT
  8
CSLAYER1
 62
     6
 10
332.101379
 20
507.830017
 40
3.409090
 41
1.200000
  1
A
 50
228.000000
 51
3.000000
  7
JX_FONT
 72
     5
 11
330.276478
 21
505.803259
  0
TEXT
  8
CSLAYER1
 62
     6
 10
330.072266
 20
505.449402
 40
3.409090
 41
1.200000
  1
M
 50
240.000000
 51
3.000000
  7
JX_FONT
 72
     5
 11
328.708630
 21
503.087515
  0
TEXT
  8
CSLAYER1
 62
     6
 10
343.570862
 20
511.904724
 40
3.410000
 41
1.200000
  1
*
 50
179.999969
 51
3.000000
  7
JX_FONT
 72
     5
 11
340.842862
 21
511.904726
  0
CIRCLE
  8
CSLAYER1
  6
CONTINUOUS
 62
     6
 10
342.412111
 20
496.986886
 40
16.000000
  0
CIRCLE
  8
CSLAYER1
  6
CONTINUOUS
 62
     6
 10
342.412111
 20
496.986886
 40
17.000000
  0
LINE
  8
CSLAYER1
  6
CONTINUOUS
 62
     6
 10
342.412112
 20
503.805062
 11
339.003022
 21
493.577799
  0
LINE
  8
CSLAYER1
  6
CONTINUOUS
 62
     6
 10
342.412095
 20
493.600934
 11
342.412110
 21
493.600934
  0
LINE
  8
CSLAYER1
  6
CONTINUOUS
 62
     6
 10
390.165698
 20
493.746830
 11
393.186697
 21
491.969985
  0
LINE
  8
CSLAYER1
  6
CONTINUOUS
 62
     6
 10
390.419346
 20
494.234846
 11
393.524903
 21
492.620668
  0
LINE
  8
CSLAYER1
  6
CONTINUOUS
 62
     6
 10
390.672999
 20
494.722858
 11
393.863109
 21
493.271351
  0
LINE
  8
CSLAYER1
  6
CONTINUOUS
 62
     6
 10
389.912060
 20
493.258849
 11
390.926675
 21
495.210893
  0
LINE
  8
CSLAYER1
  6
CENTER
 62
     3
 10
309.912077
 20
470.986915
 11
322.845334
 21
470.986910
  0
CIRCLE
  8
CSLAYER1
  6
CONTINUOUS
 62
     6
 10
316.412070
 20
470.986921
 40
3.500000
  0
ARC
  8
CSLAYER1
  6
CONTINUOUS
 62
     6
 10
316.412070
 20
470.986908
 40
1.944444
 50
253.398391
 51
286.601553
  0
ARC
  8
CSLAYER1
  6
CONTINUOUS
 62
     6
 10
316.412070
 20
470.986908
 40
1.944444
 50
-16.601603
 51
16.601559
  0
ARC
  8
CSLAYER1
  6
CONTINUOUS
 62
     6
 10
316.412070
 20
470.986908
 40
1.944444
 50
73.398414
 51
106.601548
  0
ARC
  8
CSLAYER1
  6
CONTINUOUS
 62
     6
 10
316.412070
 20
470.986908
 40
1.944444
 50
163.398382
 51
196.601571
  0
LINE
  8
CSLAYER1
  6
CONTINUOUS
 62
     6
 10
316.967632
 20
472.098033
 11
316.967633
 21
472.850289
  0
LINE
  8
CSLAYER1
  6
CONTINUOUS
 62
     6
 10
316.967631
 20
469.875783
 11
316.967631
 21
469.123526
  0
LINE
  8
CSLAYER1
  6
CONTINUOUS
 62
     6
 10
315.856508
 20
472.098033
 11
315.856508
 21
472.850290
  0
LINE
  8
CSLAYER1
  6
CONTINUOUS
 62
     6
 10
315.856507
 20
469.875783
 11
315.856506
 21
469.123527
  0
LINE
  8
CSLAYER1
  6
CONTINUOUS
 62
     6
 10
317.523165
 20
470.431345
 11
318.275480
 21
470.431345
  0
LINE
  8
CSLAYER1
  6
CONTINUOUS
 62
     6
 10
315.300973
 20
470.431346
 11
314.548659
 21
470.431346
  0
LINE
  8
CSLAYER1
  6
CONTINUOUS
 62
     6
 10
317.523166
 20
471.542470
 11
318.275480
 21
471.542470
  0
LINE
  8
CSLAYER1
  6
CONTINUOUS
 62
     6
 10
315.300974
 20
471.542471
 11
314.548659
 21
471.542471
  0
ARC
  8
CSLAYER1
  6
CONTINUOUS
 62
     6
 10
317.523166
 20
472.098032
 40
0.555556
 50
179.999976
 51
269.942667
  0
ARC
  8
CSLAYER1
  6
CONTINUOUS
 62
     6
 10
315.300974
 20
472.098033
 40
0.555556
 50
269.999986
 51
359.999992
  0
ARC
  8
CSLAYER1
  6
CONTINUOUS
 62
     6
 10
315.300973
 20
469.875784
 40
0.555556
 50
-0.000008
 51
89.999981
  0
ARC
  8
CSLAYER1
  6
CONTINUOUS
 62
     6
 10
317.523165
 20
469.875783
 40
0.555556
 50
89.999981
 51
179.942630
  0
LINE
  8
CSLAYER1
  6
CENTER
 62
     3
 10
316.412082
 20
464.486904
 11
316.412088
 21
477.486921
  0
LINE
  8
CSLAYER1
  6
CENTER
 62
     3
 10
309.912088
 20
522.986901
 11
322.845345
 21
522.986901
  0
CIRCLE
  8
CSLAYER1
  6
CONTINUOUS
 62
     6
 10
316.412081
 20
522.986893
 40
3.500000
  0
ARC
  8
CSLAYER1
  6
CONTINUOUS
 62
     6
 10
316.412081
 20
522.986906
 40
1.944444
 50
73.398423
 51
106.601584
  0
ARC
  8
CSLAYER1
  6
CONTINUOUS
 62
     6
 10
316.412081
 20
522.986906
 40
1.944444
 50
-16.601583
 51
16.601578
  0
ARC
  8
CSLAYER1
  6
CONTINUOUS
 62
     6
 10
316.412081
 20
522.986906
 40
1.944444
 50
253.398428
 51
286.601562
  0
ARC
  8
CSLAYER1
  6
CONTINUOUS
 62
     6
 10
316.412081
 20
522.986906
 40
1.944444
 50
163.398405
 51
196.601594
  0
LINE
  8
CSLAYER1
  6
CONTINUOUS
 62
     6
 10
316.967643
 20
521.875781
 11
316.967643
 21
521.123525
  0
LINE
  8
CSLAYER1
  6
CONTINUOUS
 62
     6
 10
316.967643
 20
524.098031
 11
316.967643
 21
524.850287
  0
LINE
  8
CSLAYER1
  6
CONTINUOUS
 62
     6
 10
315.856518
 20
521.875781
 11
315.856518
 21
521.123525
  0
LINE
  8
CSLAYER1
  6
CONTINUOUS
 62
     6
 10
315.856518
 20
524.098031
 11
315.856518
 21
524.850287
  0
LINE
  8
CSLAYER1
  6
CONTINUOUS
 62
     6
 10
317.523176
 20
523.542468
 11
318.275491
 21
523.542468
  0
LINE
  8
CSLAYER1
  6
CONTINUOUS
 62
     6
 10
315.300985
 20
523.542468
 11
314.548670
 21
523.542468
  0
LINE
  8
CSLAYER1
  6
CONTINUOUS
 62
     6
 10
317.523176
 20
522.431344
 11
318.275491
 21
522.431344
  0
LINE
  8
CSLAYER1
  6
CONTINUOUS
 62
     6
 10
315.300985
 20
522.431344
 11
314.548670
 21
522.431344
  0
ARC
  8
CSLAYER1
  6
CONTINUOUS
 62
     6
 10
317.523176
 20
521.875781
 40
0.555556
 50
90.057309
 51
179.999999
  0
ARC
  8
CSLAYER1
  6
CONTINUOUS
 62
     6
 10
315.300985
 20
521.875781
 40
0.555556
 50
-0.000016
 51
89.999990
  0
ARC
  8
CSLAYER1
  6
CONTINUOUS
 62
     6
 10
315.300985
 20
524.098031
 40
0.555556
 50
269.999995
 51
359.999984
  0
ARC
  8
CSLAYER1
  6
CONTINUOUS
 62
     6
 10
317.523176
 20
524.098031
 40
0.555556
 50
180.057346
 51
269.999995
  0
LINE
  8
CSLAYER1
  6
CENTER
 62
     3
 10
316.412096
 20
529.486910
 11
316.412096
 21
516.486893
  0
LINE
  8
CSLAYER1
  6
CENTER
 62
     3
 10
374.912094
 20
470.986888
 11
361.978836
 21
470.986893
  0
CIRCLE
  8
CSLAYER1
  6
CONTINUOUS
 62
     6
 10
368.412100
 20
470.986899
 40
3.500000
  0
ARC
  8
CSLAYER1
  6
CONTINUOUS
 62
     6
 10
368.412101
 20
470.986886
 40
1.944444
 50
253.398399
 51
286.601560
  0
ARC
  8
CSLAYER1
  6
CONTINUOUS
 62
     6
 10
368.412101
 20
470.986886
 40
1.944444
 50
163.398392
 51
196.601554
  0
ARC
  8
CSLAYER1
  6
CONTINUOUS
 62
     6
 10
368.412101
 20
470.986886
 40
1.944444
 50
73.398404
 51
106.601538
  0
ARC
  8
CSLAYER1
  6
CONTINUOUS
 62
     6
 10
368.412101
 20
470.986886
 40
1.944444
 50
-16.601619
 51
16.601569
  0
LINE
  8
CSLAYER1
  6
CONTINUOUS
 62
     6
 10
367.856539
 20
472.098011
 11
367.856539
 21
472.850268
  0
LINE
  8
CSLAYER1
  6
CONTINUOUS
 62
     6
 10
367.856538
 20
469.875761
 11
367.856538
 21
469.123505
  0
LINE
  8
CSLAYER1
  6
CONTINUOUS
 62
     6
 10
368.967664
 20
472.098011
 11
368.967664
 21
472.850267
  0
LINE
  8
CSLAYER1
  6
CONTINUOUS
 62
     6
 10
368.967663
 20
469.875761
 11
368.967663
 21
469.123504
  0
LINE
  8
CSLAYER1
  6
CONTINUOUS
 62
     6
 10
367.301005
 20
470.431324
 11
366.548690
 21
470.431324
  0
LINE
  8
CSLAYER1
  6
CONTINUOUS
 62
     6
 10
369.523197
 20
470.431323
 11
370.275511
 21
470.431323
  0
LINE
  8
CSLAYER1
  6
CONTINUOUS
 62
     6
 10
367.301005
 20
471.542449
 11
366.548691
 21
471.542449
  0
LINE
  8
CSLAYER1
  6
CONTINUOUS
 62
     6
 10
369.523197
 20
471.542448
 11
370.275511
 21
471.542448
  0
ARC
  8
CSLAYER1
  6
CONTINUOUS
 62
     6
 10
367.301006
 20
472.098011
 40
0.555556
 50
270.057285
 51
359.999975
  0
ARC
  8
CSLAYER1
  6
CONTINUOUS
 62
     6
 10
369.523197
 20
472.098010
 40
0.555556
 50
179.999960
 51
269.999966
  0
ARC
  8
CSLAYER1
  6
CONTINUOUS
 62
     6
 10
369.523196
 20
469.875761
 40
0.555556
 50
89.999971
 51
179.999960
  0
ARC
  8
CSLAYER1
  6
CONTINUOUS
 62
     6
 10
367.301005
 20
469.875762
 40
0.555556
 50
0.057321
 51
89.999971
  0
LINE
  8
CSLAYER1
  6
CENTER
 62
     3
 10
368.412082
 20
464.486882
 11
368.412088
 21
477.486899
  0
LINE
  8
CSLAYER1
  6
CENTER
 62
     3
 10
374.912127
 20
522.986874
 11
361.978869
 21
522.986885
  0
CIRCLE
  8
CSLAYER1
  6
CONTINUOUS
 62
     6
 10
368.412133
 20
522.986871
 40
3.500000
  0
ARC
  8
CSLAYER1
  6
CONTINUOUS
 62
     6
 10
368.412134
 20
522.986884
 40
1.944444
 50
73.398367
 51
106.601529
  0
ARC
  8
CSLAYER1
  6
CONTINUOUS
 62
     6
 10
368.412134
 20
522.986884
 40
1.944444
 50
163.398373
 51
196.601535
  0
ARC
  8
CSLAYER1
  6
CONTINUOUS
 62
     6
 10
368.412134
 20
522.986884
 40
1.944444
 50
253.398389
 51
286.601524
  0
ARC
  8
CSLAYER1
  6
CONTINUOUS
 62
     6
 10
368.412134
 20
522.986884
 40
1.944444
 50
-16.601642
 51
16.601547
  0
LINE
  8
CSLAYER1
  6
CONTINUOUS
 62
     6
 10
367.856571
 20
521.875760
 11
367.856570
 21
521.123503
  0
LINE
  8
CSLAYER1
  6
CONTINUOUS
 62
     6
 10
367.856572
 20
524.098009
 11
367.856573
 21
524.850266
  0
LINE
  8
CSLAYER1
  6
CONTINUOUS
 62
     6
 10
368.967695
 20
521.875759
 11
368.967695
 21
521.123502
  0
LINE
  8
CSLAYER1
  6
CONTINUOUS
 62
     6
 10
368.967697
 20
524.098008
 11
368.967698
 21
524.850265
  0
LINE
  8
CSLAYER1
  6
CONTINUOUS
 62
     6
 10
367.301039
 20
523.542447
 11
366.548724
 21
523.542448
  0
LINE
  8
CSLAYER1
  6
CONTINUOUS
 62
     6
 10
369.523230
 20
523.542445
 11
370.275545
 21
523.542445
  0
LINE
  8
CSLAYER1
  6
CONTINUOUS
 62
     6
 10
367.301038
 20
522.431322
 11
366.548723
 21
522.431323
  0
LINE
  8
CSLAYER1
  6
CONTINUOUS
 62
     6
 10
369.523229
 20
522.431321
 11
370.275544
 21
522.431320
  0
ARC
  8
CSLAYER1
  6
CONTINUOUS
 62
     6
 10
367.301037
 20
521.875760
 40
0.555556
 50
-0.000048
 51
89.942643
  0
ARC
  8
CSLAYER1
  6
CONTINUOUS
 62
     6
 10
369.523229
 20
521.875758
 40
0.555556
 50
89.999961
 51
179.999968
  0
ARC
  8
CSLAYER1
  6
CONTINUOUS
 62
     6
 10
369.523231
 20
524.098008
 40
0.555556
 50
179.999968
 51
269.999956
  0
ARC
  8
CSLAYER1
  6
CONTINUOUS
 62
     6
 10
367.301039
 20
524.098010
 40
0.555556
 50
269.999956
 51
359.942606
  0
LINE
  8
CSLAYER1
  6
CENTER
 62
     3
 10
368.412124
 20
529.486888
 11
368.412113
 21
516.486871
  0
LINE
  8
CSLAYER1
  6
CONTINUOUS
 62
     6
 10
368.412083
 20
464.986890
 11
316.412083
 21
464.986913
  0
LINE
  8
CSLAYER1
  6
CONTINUOUS
 62
     6
 10
368.412123
 20
528.986890
 11
316.412110
 21
528.986913
  0
LINE
  8
CSLAYER1
  6
CONTINUOUS
 62
     6
 10
310.412107
 20
522.986915
 11
310.412085
 21
470.986915
  0
LINE
  8
CSLAYER1
  6
CONTINUOUS
 62
     6
 10
374.412107
 20
522.986888
 11
374.412097
 21
499.186883
  0
ARC
  8
CSLAYER1
  6
CONTINUOUS
 62
     6
 10
316.412085
 20
470.986913
 40
6.000000
 50
179.999976
 51
269.999976
  0
LINE
  8
CSLAYER1
  6
CONTINUOUS
 62
     6
 10
374.412095
 20
494.786885
 11
374.412085
 21
470.986888
  0
ARC
  8
CSLAYER1
  6
CONTINUOUS
 62
     6
 10
316.412096
 20
522.986901
 40
6.000000
 50
90.000000
 51
180.000000
  0
ARC
  8
CSLAYER1
  6
CONTINUOUS
 62
     6
 10
368.412085
 20
470.986890
 40
6.000000
 50
269.999976
 51
359.999976
  0
ARC
  8
CSLAYER1
  6
CONTINUOUS
 62
     6
 10
368.412118
 20
522.986879
 40
6.000000
 50
-0.000049
 51
89.999951
  0
LINE
  8
CSLAYER1
  6
CONTINUOUS
 62
     6
 10
394.412096
 20
459.986901
 11
316.412096
 21
459.986901
  0
LINE
  8
CSLAYER1
  6
CONTINUOUS
 62
     6
 10
374.068943
 20
468.986901
 11
410.412096
 21
468.986901
  0
LINE
  8
CSLAYER1
  6
CONTINUOUS
 62
     6
 10
374.412096
 20
473.986901
 11
410.412096
 21
473.986901
  0
LINE
  8
CSLAYER1
  6
CONTINUOUS
 62
     6
 10
374.412096
 20
513.986901
 11
403.912110
 21
513.986901
  0
LINE
  8
CSLAYER1
  6
CONTINUOUS
 62
     6
 10
396.412096
 20
465.986901
 11
396.412096
 21
461.986901
  0
LINE
  8
CSLAYER1
  6
CONTINUOUS
 62
     6
 10
397.412096
 20
531.986901
 11
397.412096
 21
516.986901
  0
LINE
  8
CSLAYER1
  6
CONTINUOUS
 62
     6
 10
406.912110
 20
510.986901
 11
406.912110
 21
498.986901
  0
LINE
  8
CSLAYER1
  6
CONTINUOUS
 62
     6
 10
410.412096
 20
494.986901
 11
410.412096
 21
468.986901
  0
LINE
  8
CSLAYER1
  6
CONTINUOUS
 62
     6
 10
395.412096
 20
533.986901
 11
316.412096
 21
533.986901
  0
ARC
  8
CSLAYER1
  6
CONTINUOUS
 62
     6
 10
400.412096
 20
516.986901
 40
3.000000
 50
180.000000
 51
270.000000
  0
ARC
  8
CSLAYER1
  6
CONTINUOUS
 62
     6
 10
403.912110
 20
510.986901
 40
3.000000
 50
0.000000
 51
90.000000
  0
ARC
  8
CSLAYER1
  6
CONTINUOUS
 62
     6
 10
399.412096
 20
465.986901
 40
3.000000
 50
90.000000
 51
180.000000
  0
ARC
  8
CSLAYER1
  6
CONTINUOUS
 62
     6
 10
394.412096
 20
461.986901
 40
2.000000
 50
270.000000
 51
360.000000
  0
ARC
  8
CSLAYER1
  6
CONTINUOUS
 62
     6
 10
408.412096
 20
494.986901
 40
2.000000
 50
0.000000
 51
82.819036
  0
ARC
  8
CSLAYER1
  6
CONTINUOUS
 62
     6
 10
395.412096
 20
531.986901
 40
2.000000
 50
0.000000
 51
90.000000
  0
LINE
  8
CSLAYER1
  6
CONTINUOUS
 62
     6
 10
353.412096
 20
531.986901
 11
353.412096
 21
528.986897
  0
ARC
  8
CSLAYER1
  6
CONTINUOUS
 62
     6
 10
355.412096
 20
531.986901
 40
2.000000
 50
90.000000
 51
180.000000
  0
LINE
  8
CSLAYER1
  6
CONTINUOUS
 62
     6
 10
354.412096
 20
464.986896
 11
354.412096
 21
461.986901
  0
ARC
  8
CSLAYER1
  6
CONTINUOUS
 62
     6
 10
356.412096
 20
461.986901
 40
2.000000
 50
180.000000
 51
270.000000
  0
ARC
  8
CSLAYER1
  6
CONTINUOUS
 62
     6
 10
378.308061
 20
468.258749
 40
0.104022
 50
269.999995
 51
359.999997
  0
ARC
  8
CSLAYER1
  6
CONTINUOUS
 62
     6
 10
378.308061
 20
468.882880
 40
0.104022
 50
-0.000003
 51
90.000000
  0
LINE
  8
CSLAYER1
  6
CONTINUOUS
 62
     6
 10
378.412096
 20
468.258749
 11
378.412096
 21
468.882880
  0
LINE
  8
CSLAYER1
  6
CONTINUOUS
 62
     6
 10
376.048630
 20
468.154727
 11
375.586919
 21
468.986902
  0
LINE
  8
CSLAYER1
  6
CONTINUOUS
 62
     6
 10
375.528521
 20
468.154727
 11
375.066810
 21
468.986902
  0
LINE
  8
CSLAYER1
  6
CONTINUOUS
 62
     6
 10
378.307287
 20
467.919510
 11
378.248546
 21
467.238150
  0
ARC
  8
CSLAYER1
  6
CONTINUOUS
 62
     6
 10
377.186373
 20
467.332432
 40
1.074023
 50
286.257211
 51
354.999882
  0
ARC
  8
CSLAYER1
  6
CONTINUOUS
 62
     6
 10
378.094862
 20
467.938354
 40
0.214808
 50
-4.999718
 51
90.000017
  0
LINE
  8
CSLAYER1
  6
CONTINUOUS
 62
     6
 10
378.308061
 20
468.154727
 11
373.701589
 21
468.154727
  0
ARC
  8
CSLAYER1
  6
CONTINUOUS
 62
     6
 10
373.637818
 20
467.332432
 40
1.074023
 50
209.904783
 51
253.742789
  0
LINE
  8
CSLAYER1
  6
CENTER
 62
     3
 10
407.412096
 20
476.986901
 11
407.412096
 21
462.901194
  0
ARC
  8
CSLAYER1
  6
CONTINUOUS
 62
     6
 10
410.308061
 20
468.258749
 40
0.104022
 50
269.999995
 51
359.999997
  0
ARC
  8
CSLAYER1
  6
CONTINUOUS
 62
     6
 10
410.308061
 20
468.882880
 40
0.104022
 50
-0.000003
 51
90.000000
  0
LINE
  8
CSLAYER1
  6
CONTINUOUS
 62
     6
 10
410.412096
 20
468.258749
 11
410.412096
 21
468.882880
  0
LINE
  8
CSLAYER1
  6
CONTINUOUS
 62
     6
 10
408.048630
 20
468.154727
 11
407.586919
 21
468.986902
  0
LINE
  8
CSLAYER1
  6
CONTINUOUS
 62
     6
 10
407.528521
 20
468.154727
 11
407.066810
 21
468.986902
  0
LINE
  8
CSLAYER1
  6
CONTINUOUS
 62
     6
 10
410.307287
 20
467.919510
 11
410.248546
 21
467.238150
  0
ARC
  8
CSLAYER1
  6
CONTINUOUS
 62
     6
 10
409.186373
 20
467.332432
 40
1.074023
 50
286.257211
 51
354.999882
  0
ARC
  8
CSLAYER1
  6
CONTINUOUS
 62
     6
 10
410.094862
 20
467.938354
 40
0.214808
 50
-4.999718
 51
90.000017
  0
LINE
  8
CSLAYER1
  6
CONTINUOUS
 62
     6
 10
410.308061
 20
468.154727
 11
404.516130
 21
468.154727
  0
ARC
  8
CSLAYER1
  6
CONTINUOUS
 62
     6
 10
404.516130
 20
468.258749
 40
0.104022
 50
180.000003
 51
270.000005
  0
ARC
  8
CSLAYER1
  6
CONTINUOUS
 62
     6
 10
404.516130
 20
468.882880
 40
0.104022
 50
90.000000
 51
180.000003
  0
LINE
  8
CSLAYER1
  6
CONTINUOUS
 62
     6
 10
404.412096
 20
468.258749
 11
404.412096
 21
468.882880
  0
LINE
  8
CSLAYER1
  6
CONTINUOUS
 62
     6
 10
404.516905
 20
467.919510
 11
404.575646
 21
467.238150
  0
ARC
  8
CSLAYER1
  6
CONTINUOUS
 62
     6
 10
405.637818
 20
467.332432
 40
1.074023
 50
185.000118
 51
253.742789
  0
ARC
  8
CSLAYER1
  6
CONTINUOUS
 62
     6
 10
404.729329
 20
467.938354
 40
0.214808
 50
89.999983
 51
184.999718
  0
LINE
  8
CSLAYER1
  6
CENTER
 62
     3
 10
375.412067
 20
428.883946
 11
375.412113
 21
536.986888
  0
LINE
  8
CSLAYER1
  6
CONTINUOUS
 62
     6
 10
370.412069
 20
432.486890
 11
370.412077
 21
451.986890
  0
LINE
  8
CSLAYER1
  6
CONTINUOUS
 62
     6
 10
369.412077
 20
451.986890
 11
369.412080
 21
459.986890
  0
LINE
  8
CSLAYER1
  6
CONTINUOUS
 62
     6
 10
369.412077
 20
451.986890
 11
381.412077
 21
451.986885
  0
LINE
  8
CSLAYER1
  6
CONTINUOUS
 62
     6
 10
380.412069
 20
432.486885
 11
380.412077
 21
451.986885
  0
LINE
  8
CSLAYER1
  6
CONTINUOUS
 62
     6
 10
381.412077
 20
451.986885
 11
381.412080
 21
459.986885
  0
LINE
  8
CSLAYER1
  6
CONTINUOUS
 62
     6
 10
370.912068
 20
431.986889
 11
379.912068
 21
431.986886
  0
LINE
  8
CSLAYER1
  6
CONTINUOUS
 62
     6
 10
370.412069
 20
432.486890
 11
370.912068
 21
431.986889
  0
LINE
  8
CSLAYER1
  6
CONTINUOUS
 62
     6
 10
380.412069
 20
432.486885
 11
379.912068
 21
431.986886
  0
LINE
  8
CSLAYER1
  6
CONTINUOUS
 62
     6
 10
370.412069
 20
432.486890
 11
380.412069
 21
432.486885
  0
LINE
  8
CSLAYER1
  6
CONTINUOUS
 62
     6
 10
310.412096
 20
527.986901
 11
310.412096
 21
465.986901
  0
ARC
  8
CSLAYER1
  6
CONTINUOUS
 62
     6
 10
316.412096
 20
527.986901
 40
6.000000
 50
90.000000
 51
180.000000
  0
ARC
  8
CSLAYER1
  6
CONTINUOUS
 62
     6
 10
316.412096
 20
465.986901
 40
6.000000
 50
180.000000
 51
270.000000
  0
ARC
  8
CSLAYER1
  6
CONTINUOUS
 62
     6
 10
375.395464
 20
473.563860
 40
7.572785
 50
254.176363
 51
286.066256
  0
ARC
  8
CSLAYER1
  6
CONTINUOUS
 62
     6
 10
407.395464
 20
473.563860
 40
7.572785
 50
254.176363
 51
286.066256
  0
ARC
  8
CSLAYER1
  6
CONTINUOUS
 62
     3
 10
354.412096
 20
466.986901
 40
3.000000
 50
221.810421
 51
269.999994
  0
ARC
  8
CSLAYER1
  6
CONTINUOUS
 62
     6
 10
354.412096
 20
466.986901
 40
2.400000
 50
236.442886
 51
269.999992
  0
ARC
  8
CSLAYER1
  6
CONTINUOUS
 62
     3
 10
316.412096
 20
466.986901
 40
3.000000
 50
207.279452
 51
318.189943
  0
ARC
  8
CSLAYER1
  6
CONTINUOUS
 62
     6
 10
316.412096
 20
466.986901
 40
2.400000
 50
227.873175
 51
303.557761
  0
ARC
  8
CSLAYER1
  6
CONTINUOUS
 62
     3
 10
354.412096
 20
526.986901
 40
3.000000
 50
109.471227
 51
138.189791
  0
ARC
  8
CSLAYER1
  6
CONTINUOUS
 62
     6
 10
354.412096
 20
526.986901
 40
2.400000
 50
114.624327
 51
123.557505
  0
ARC
  8
CSLAYER1
  6
CONTINUOUS
 62
     3
 10
316.412096
 20
526.986901
 40
3.000000
 50
41.810573
 51
152.720387
  0
ARC
  8
CSLAYER1
  6
CONTINUOUS
 62
     6
 10
316.412096
 20
526.986901
 40
2.400000
 50
56.443142
 51
132.126416
  0
ARC
  8
CSLAYER1
  6
CONTINUOUS
 62
     6
 10
378.308050
 20
130.170117
 40
0.104022
 50
0.000003
 51
90.000005
  0
ARC
  8
CSLAYER1
  6
CONTINUOUS
 62
     6
 10
378.308050
 20
129.545986
 40
0.104022
 50
-90.000000
 51
0.000003
  0
LINE
  8
CSLAYER1
  6
CONTINUOUS
 62
     6
 10
378.412085
 20
130.170117
 11
378.412085
 21
129.545986
  0
LINE
  8
CSLAYER1
  6
CONTINUOUS
 62
     6
 10
374.775551
 20
130.274138
 11
375.237261
 21
129.441964
  0
LINE
  8
CSLAYER1
  6
CONTINUOUS
 62
     6
 10
375.295659
 20
130.274138
 11
375.757370
 21
129.441964
  0
LINE
  8
CSLAYER1
  6
CONTINUOUS
 62
     6
 10
378.307275
 20
130.509356
 11
378.248535
 21
131.190716
  0
ARC
  8
CSLAYER1
  6
CONTINUOUS
 62
     6
 10
377.186362
 20
131.096434
 40
1.074023
 50
5.000118
 51
73.742789
  0
ARC
  8
CSLAYER1
  6
CONTINUOUS
 62
     6
 10
378.094851
 20
130.490512
 40
0.214808
 50
-90.000017
 51
4.999718
  0
LINE
  8
CSLAYER1
  6
CONTINUOUS
 62
     6
 10
378.308050
 20
130.274138
 11
374.412085
 21
130.274138
  0
LINE
  8
CSLAYER1
  6
CENTER
 62
     3
 10
407.412085
 20
121.441964
 11
407.412085
 21
135.527672
  0
ARC
  8
CSLAYER1
  6
CONTINUOUS
 62
     6
 10
410.308050
 20
130.170117
 40
0.104022
 50
0.000003
 51
90.000005
  0
ARC
  8
CSLAYER1
  6
CONTINUOUS
 62
     6
 10
410.308050
 20
129.545986
 40
0.104022
 50
-90.000000
 51
0.000003
  0
LINE
  8
CSLAYER1
  6
CONTINUOUS
 62
     6
 10
410.412085
 20
130.170117
 11
410.412085
 21
129.545986
  0
LINE
  8
CSLAYER1
  6
CONTINUOUS
 62
     6
 10
406.775551
 20
130.274138
 11
407.237261
 21
129.441964
  0
LINE
  8
CSLAYER1
  6
CONTINUOUS
 62
     6
 10
407.295659
 20
130.274138
 11
407.757370
 21
129.441964
  0
LINE
  8
CSLAYER1
  6
CONTINUOUS
 62
     6
 10
410.307275
 20
130.509356
 11
410.248535
 21
131.190716
  0
ARC
  8
CSLAYER1
  6
CONTINUOUS
 62
     6
 10
409.186362
 20
131.096434
 40
1.074023
 50
5.000118
 51
73.742789
  0
ARC
  8
CSLAYER1
  6
CONTINUOUS
 62
     6
 10
410.094851
 20
130.490512
 40
0.214808
 50
-90.000017
 51
4.999718
  0
LINE
  8
CSLAYER1
  6
CONTINUOUS
 62
     6
 10
410.308050
 20
130.274138
 11
404.516119
 21
130.274138
  0
ARC
  8
CSLAYER1
  6
CONTINUOUS
 62
     6
 10
404.516119
 20
130.170117
 40
0.104022
 50
89.999995
 51
179.999997
  0
ARC
  8
CSLAYER1
  6
CONTINUOUS
 62
     6
 10
404.516119
 20
129.545986
 40
0.104022
 50
179.999997
 51
270.000000
  0
LINE
  8
CSLAYER1
  6
CONTINUOUS
 62
     6
 10
404.412085
 20
130.170117
 11
404.412085
 21
129.545986
  0
LINE
  8
CSLAYER1
  6
CONTINUOUS
 62
     6
 10
404.516894
 20
130.509356
 11
404.575634
 21
131.190716
  0
ARC
  8
CSLAYER1
  6
CONTINUOUS
 62
     6
 10
405.637807
 20
131.096434
 40
1.074023
 50
106.257211
 51
174.999882
  0
ARC
  8
CSLAYER1
  6
CONTINUOUS
 62
     6
 10
404.729318
 20
130.490512
 40
0.214808
 50
175.000282
 51
270.000017
  0
LINE
  8
CSLAYER1
  6
CENTER
 62
     3
 10
375.412085
 20
169.544905
 11
375.412085
 21
61.441964
  0
LINE
  8
CSLAYER1
  6
CONTINUOUS
 62
     6
 10
370.412085
 20
165.941964
 11
370.412085
 21
146.441964
  0
LINE
  8
CSLAYER1
  6
CONTINUOUS
 62
     6
 10
369.412085
 20
146.441964
 11
369.412085
 21
138.441964
  0
LINE
  8
CSLAYER1
  6
CONTINUOUS
 62
     6
 10
369.412085
 20
146.441964
 11
381.412085
 21
146.441964
  0
LINE
  8
CSLAYER1
  6
CONTINUOUS
 62
     6
 10
380.412085
 20
165.941964
 11
380.412085
 21
146.441964
  0
LINE
  8
CSLAYER1
  6
CONTINUOUS
 62
     6
 10
381.412085
 20
146.441964
 11
381.412085
 21
138.441964
  0
LINE
  8
CSLAYER1
  6
CONTINUOUS
 62
     6
 10
370.912085
 20
166.441964
 11
379.912085
 21
166.441964
  0
LINE
  8
CSLAYER1
  6
CONTINUOUS
 62
     6
 10
373.232631
 20
166.441964
 11
373.232631
 21
151.441964
  0
LINE
  8
CSLAYER1
  6
CONTINUOUS
 62
     6
 10
377.591538
 20
166.441964
 11
377.591538
 21
151.441964
  0
LINE
  8
CSLAYER1
  6
CONTINUOUS
 62
     6
 10
373.232631
 20
151.441964
 11
377.591538
 21
151.441964
  0
LINE
  8
CSLAYER1
  6
CONTINUOUS
 62
     3
 10
373.232631
 20
166.441964
 11
377.591538
 21
151.441964
  0
LINE
  8
CSLAYER1
  6
CONTINUOUS
 62
     3
 10
373.232631
 20
151.441964
 11
377.591538
 21
166.441964
  0
LINE
  8
CSLAYER1
  6
CONTINUOUS
 62
     6
 10
370.412085
 20
165.941964
 11
370.912085
 21
166.441964
  0
LINE
  8
CSLAYER1
  6
CONTINUOUS
 62
     6
 10
380.412085
 20
165.941964
 11
379.912085
 21
166.441964
  0
LINE
  8
CSLAYER1
  6
CONTINUOUS
 62
     6
 10
370.412085
 20
165.941964
 11
373.232631
 21
165.941964
  0
LINE
  8
CSLAYER1
  6
CONTINUOUS
 62
     6
 10
377.591538
 20
165.941964
 11
380.412085
 21
165.941964
  0
LINE
  8
CSLAYER1
  6
CENTER
 62
     3
 10
342.412085
 20
61.441964
 11
342.412085
 21
141.441964
  0
LINE
  8
CSLAYER1
  6
CENTER
 62
     3
 10
307.412085
 20
101.441964
 11
413.412064
 21
101.441964
  0
LINE
  8
CSLAYER1
  6
CONTINUOUS
 62
     6
 10
310.412085
 20
70.441964
 11
310.412085
 21
132.441964
  0
LINE
  8
CSLAYER1
  6
CONTINUOUS
 62
     6
 10
374.412085
 20
70.441964
 11
374.412085
 21
132.441964
  0
LINE
  8
CSLAYER1
  6
CONTINUOUS
 62
     6
 10
316.412085
 20
64.441964
 11
395.412085
 21
64.441964
  0
LINE
  8
CSLAYER1
  6
CONTINUOUS
 62
     6
 10
316.412085
 20
138.441964
 11
394.412085
 21
138.441964
  0
LINE
  8
CSLAYER1
  6
CONTINUOUS
 62
     6
 10
316.412085
 20
93.441964
 11
316.412085
 21
109.441964
  0
LINE
  8
CSLAYER1
  6
CONTINUOUS
 62
     6
 10
368.412085
 20
83.441964
 11
368.412085
 21
119.441964
  0
ARC
  8
CSLAYER1
  6
CONTINUOUS
 62
     6
 10
316.412085
 20
70.441964
 40
6.000000
 50
180.000000
 51
270.000000
  0
ARC
  8
CSLAYER1
  6
CONTINUOUS
 62
     6
 10
316.412085
 20
132.441964
 40
6.000000
 50
90.000000
 51
180.000000
  0
ARC
  8
CSLAYER1
  6
CONTINUOUS
 62
     6
 10
368.412085
 20
70.441964
 40
6.000000
 50
270.000000
 51
360.000000
  0
ARC
  8
CSLAYER1
  6
CONTINUOUS
 62
     6
 10
368.412085
 20
132.441964
 40
6.000000
 50
0.000000
 51
90.000000
  0
LINE
  8
CSLAYER1
  6
CONTINUOUS
 62
     6
 10
328.412085
 20
75.402212
 11
328.412085
 21
81.441964
  0
ARC
  8
CSLAYER1
  6
CONTINUOUS
 62
     6
 10
320.412085
 20
109.441964
 40
4.000000
 50
90.000000
 51
180.000000
  0
ARC
  8
CSLAYER1
  6
CONTINUOUS
 62
     6
 10
320.412085
 20
93.441964
 40
4.000000
 50
180.000000
 51
270.000000
  0
ARC
  8
CSLAYER1
  6
CONTINUOUS
 62
     6
 10
320.412085
 20
121.441964
 40
8.000000
 50
270.000000
 51
360.000000
  0
ARC
  8
CSLAYER1
  6
CONTINUOUS
 62
     6
 10
320.412085
 20
81.441964
 40
8.000000
 50
0.000000
 51
90.000000
  0
LINE
  8
CSLAYER1
  6
CONTINUOUS
 62
     6
 10
328.412085
 20
121.441964
 11
328.412085
 21
127.481717
  0
LINE
  8
CSLAYER1
  6
CONTINUOUS
 62
     6
 10
353.823596
 20
123.441964
 11
364.412085
 21
123.441964
  0
LINE
  8
CSLAYER1
  6
CONTINUOUS
 62
     6
 10
353.725793
 20
79.441964
 11
364.412085
 21
79.441964
  0
ARC
  8
CSLAYER1
  6
CONTINUOUS
 62
     6
 10
364.412085
 20
83.441964
 40
4.000000
 50
270.000000
 51
360.000000
  0
ARC
  8
CSLAYER1
  6
CONTINUOUS
 62
     6
 10
364.412085
 20
119.441964
 40
4.000000
 50
0.000000
 51
90.000000
  0
LINE
  8
CSLAYER1
  6
CONTINUOUS
 62
     6
 10
333.372332
 20
132.441964
 11
341.483237
 21
132.441964
  0
ARC
  8
CSLAYER1
  6
CONTINUOUS
 62
     6
 10
353.823596
 20
131.441964
 40
8.000000
 50
197.792389
 51
270.000000
  0
LINE
  8
CSLAYER1
  6
CONTINUOUS
 62
     6
 10
333.372332
 20
70.441964
 11
341.483237
 21
70.441964
  0
ARC
  8
CSLAYER1
  6
CONTINUOUS
 62
     6
 10
353.823596
 20
71.441964
 40
8.000000
 50
90.000000
 51
162.207611
  0
LINE
  8
CSLAYER1
  6
CONTINUOUS
 62
     6
 10
374.412085
 20
129.441964
 11
410.412085
 21
129.441964
  0
LINE
  8
CSLAYER1
  6
CONTINUOUS
 62
     6
 10
374.412085
 20
124.441964
 11
410.412085
 21
124.441964
  0
LINE
  8
CSLAYER1
  6
CONTINUOUS
 62
     6
 10
374.412085
 20
84.441964
 11
403.912085
 21
84.441964
  0
LINE
  8
CSLAYER1
  6
CONTINUOUS
 62
     6
 10
396.412085
 20
132.441964
 11
396.412085
 21
136.441964
  0
LINE
  8
CSLAYER1
  6
CONTINUOUS
 62
     6
 10
397.412085
 20
66.441964
 11
397.412085
 21
81.441964
  0
LINE
  8
CSLAYER1
  6
CONTINUOUS
 62
     6
 10
406.912085
 20
87.441964
 11
406.912085
 21
99.540862
  0
LINE
  8
CSLAYER1
  6
CONTINUOUS
 62
     6
 10
410.412085
 20
103.441964
 11
410.412085
 21
129.441964
  0
ARC
  8
CSLAYER1
  6
CONTINUOUS
 62
     6
 10
400.412085
 20
81.441964
 40
3.000000
 50
90.000000
 51
180.000000
  0
ARC
  8
CSLAYER1
  6
CONTINUOUS
 62
     6
 10
399.412085
 20
132.441964
 40
3.000000
 50
180.000000
 51
270.000000
  0
ARC
  8
CSLAYER1
  6
CONTINUOUS
 62
     6
 10
394.412085
 20
136.441964
 40
2.000000
 50
0.000000
 51
90.000000
  0
ARC
  8
CSLAYER1
  6
CONTINUOUS
 62
     6
 10
408.412085
 20
103.441964
 40
2.000000
 50
277.180756
 51
360.000000
  0
ARC
  8
CSLAYER1
  6
CONTINUOUS
 62
     6
 10
395.412085
 20
66.441964
 40
2.000000
 50
270.000000
 51
360.000000
  0
ARC
  8
CSLAYER1
  6
CONTINUOUS
 62
     6
 10
375.395453
 20
124.865006
 40
7.572785
 50
73.933744
 51
97.394741
  0
ARC
  8
CSLAYER1
  6
CONTINUOUS
 62
     6
 10
407.395453
 20
124.865006
 40
7.572785
 50
73.933744
 51
105.823637
  0
CIRCLE
  8
CSLAYER1
  6
CONTINUOUS
 62
     3
 10
354.412085
 20
131.441964
 40
3.000000
  0
CIRCLE
  8
CSLAYER1
  6
CONTINUOUS
 62
     6
 10
354.412085
 20
131.441964
 40
2.400000
  0
LINE
  8
CSLAYER1
  6
CENTER
 62
     3
 10
354.412085
 20
126.441964
 11
354.412085
 21
136.441964
  0
LINE
  8
CSLAYER1
  6
CENTER
 62
     3
 10
349.412085
 20
131.441964
 11
359.412085
 21
131.441964
  0
CIRCLE
  8
CSLAYER1
  6
CONTINUOUS
 62
     3
 10
316.412085
 20
131.441964
 40
3.000000
  0
CIRCLE
  8
CSLAYER1
  6
CONTINUOUS
 62
     6
 10
316.412085
 20
131.441964
 40
2.400000
  0
LINE
  8
CSLAYER1
  6
CENTER
 62
     3
 10
316.412085
 20
126.441964
 11
316.412085
 21
136.441964
  0
LINE
  8
CSLAYER1
  6
CENTER
 62
     3
 10
311.412085
 20
131.441964
 11
321.412085
 21
131.441964
  0
CIRCLE
  8
CSLAYER1
  6
CONTINUOUS
 62
     3
 10
354.412085
 20
71.441964
 40
3.000000
  0
CIRCLE
  8
CSLAYER1
  6
CONTINUOUS
 62
     6
 10
354.412085
 20
71.441964
 40
2.400000
  0
LINE
  8
CSLAYER1
  6
CENTER
 62
     3
 10
354.412085
 20
76.441964
 11
354.412085
 21
66.441964
  0
LINE
  8
CSLAYER1
  6
CENTER
 62
     3
 10
349.412085
 20
71.441964
 11
359.412085
 21
71.441964
  0
CIRCLE
  8
CSLAYER1
  6
CONTINUOUS
 62
     3
 10
316.412085
 20
71.441964
 40
3.000000
  0
CIRCLE
  8
CSLAYER1
  6
CONTINUOUS
 62
     6
 10
316.412085
 20
71.441964
 40
2.400000
  0
LINE
  8
CSLAYER1
  6
CENTER
 62
     3
 10
316.412085
 20
76.441964
 11
316.412085
 21
66.441964
  0
LINE
  8
CSLAYER1
  6
CENTER
 62
     3
 10
311.412085
 20
71.441964
 11
321.412085
 21
71.441964
  0
ARC
  8
CSLAYER1
  6
CONTINUOUS
 62
     6
 10
408.912085
 20
99.473337
 40
2.000000
 50
97.180756
 51
180.000000
  0
ARC
  8
CSLAYER1
  6
CONTINUOUS
 62
     6
 10
403.912085
 20
87.441964
 40
3.000000
 50
270.000000
 51
360.000000
  0
ARC
  8
CSLAYER1
  6
CONTINUOUS
 62
     6
 10
408.912110
 20
498.955527
 40
2.000000
 50
180.000000
 51
262.819036
  0
LINE
  8
CSLAYER1
  6
CONTINUOUS
 62
     6
 10
381.073486
 20
103.941964
 11
381.073486
 21
129.441964
  0
LINE
  8
CSLAYER1
  6
CONTINUOUS
 62
     6
 10
401.750683
 20
103.941964
 11
401.750683
 21
129.441964
  0
LINE
  8
CSLAYER1
  6
CONTINUOUS
 62
     6
 10
403.750695
 20
494.486901
 11
403.750695
 21
468.986901
  0
LINE
  8
CSLAYER1
  6
CONTINUOUS
 62
     6
 10
383.073498
 20
494.486901
 11
383.073498
 21
468.986901
  0
ARC
  8
CSLAYER1
  6
CONTINUOUS
 62
     6
 10
333.372332
 20
127.481717
 40
4.960248
 50
90.000000
 51
180.000000
  0
ARC
  8
CSLAYER1
  6
CONTINUOUS
 62
     6
 10
341.483237
 20
127.481717
 40
4.960248
 50
17.792389
 51
90.000000
  0
ARC
  8
CSLAYER1
  6
CONTINUOUS
 62
     6
 10
333.372332
 20
75.402212
 40
4.960248
 50
180.000000
 51
270.000000
  0
ARC
  8
CSLAYER1
  6
CONTINUOUS
 62
     6
 10
341.483237
 20
75.402212
 40
4.960248
 50
270.000000
 51
342.207611
  0
ENDSEC
  0
EOF
