  0
SECTION
  2
HEADER
  9
$ACADVER
  1
AC1006
  9
$INSBASE
 10
0.000000
 20
0.000000
 30
0.0
  9
$EXTMIN
 10
0.000000
 20
0.000000
  9
$EXTMAX
 10
420.000000
 20
297.000000
  9
$LIMMIN
 10
0.000000
 20
0.000000
  9
$LIMMAX
 10
420.000000
 20
297.000000
  9
$VIEWCTR
 10
210.000000
 20
148.500000
  9
$VIEWSIZE
 40
297.000000
  9
$SNAPMODE
 70
     0
  9
$SNAPUNIT
 10
1.0
 20
1.0
  9
$SNAPBASE
 10
0.0
 20
0.0
  9
$SNAPANG
 50
0.0
  9
$SNAPSTYLE
 70
     0
  9
$SNAPISOPAIR
 70
     0
  9
$GRIDMODE
 70
     0
  9
$GRIDUNIT
 10
0.0
 20
0.0
  9
$ORTHOMODE
 70
     0
  9
$REGENMODE
 70
     1
  9
$FILLMODE
 70
     1
  9
$QTEXTMODE
 70
     0
  9
$DRAGMODE
 70
     2
  9
$LTSCALE
 40
15.000000
  9
$OSMODE
 70
     0
  9
$ATTMODE
 70
     1
  9
$TEXTSIZE
 40
0.2
  9
$TRACEWID
 40
0.05
  9
$TEXTSTYLE
  7
STANDARD
  9
$CLAYER
  8
CSLAYER1
  9
$CELTYPE
  6
BYLAYER
  9
$CECOLOR
 62
   256
  9
$DIMSCALE
 40
1.0
  9
$DIMASZ
 40
0.18
  9
$DIMEXO
 40
0.0625
  9
$DIMDLI
 40
0.38
  9
$DIMRND
 40
0.0
  9
$DIMDLE
 40
0.0
  9
$DIMEXE
 40
0.18
  9
$DIMTP
 40
0.0
  9
$DIMTM
 40
0.0
  9
$DIMTXT
 40
0.18
  9
$DIMCEN
 40
0.09
  9
$DIMTSZ
 40
0.0
  9
$DIMTOL
 70
     0
  9
$DIMLIM
 70
     0
  9
$DIMTIH
 70
     1
  9
$DIMTOH
 70
     1
  9
$DIMSE1
 70
     0
  9
$DIMSE2
 70
     0
  9
$DIMTAD
 70
     0
  9
$DIMZIN
 70
     0
  9
$DIMBLK
  1

  9
$LUNITS
 70
     2
  9
$LUPREC
 70
     4
  9
$AXISMODE
 70
     0
  9
$AXISUNIT
 10
0.0
 20
0.0
  9
$SKETCHINC
 40
0.1
  9
$FILLETRAD
 40
0.0
  9
$AUNITS
 70
     0
  9
$AUPREC
 70
     0
  9
$MENU
  1
ACAD
  9
$ELEVATION
 40
0.0
  9
$THICKNESS
 40
0.0
  9
$VIEWDIR
 10
0.0
 20
0.0
 30
1.0
  9
$LIMCHECK
 70
     0
  9
$BLIPMODE
 70
     1
  9
$CHAMFERA
 40
0.0
  9
$CHAMFERB
 40
0.0
  9
$FASTZOOM
 70
     1
  9
$SKPOLY
 70
     0
  9
$TDCREATE
 40
0.000000
  9
$TDUPDATE
 40
0.000000
  9
$TDINDWG
 40
0.0
  9
$TDUSRTIMER
 40
0.0
  9
$USRTIMER
 70
     1
  9
$ANGBASE
 50
0.0
  9
$ANGDIR
 70
     0
  9
$PDMODE
 70
     0
  9
$PDSIZE
 40
0.0
  9
$PLINEWID
 40
0.0
  9
$COORDS
 70
     0
  9
$USERI1
 70
     0
  9
$USERI2
 70
     0
  9
$USERI3
 70
     0
  9
$USERI4
 70
     0
  9
$USERI5
 70
     0
  9
$USERR1
 40
0.0
  9
$USERR2
 40
0.0
  9
$USERR3
 40
0.0
  9
$USERR4
 40
0.0
  9
$USERR5
 40
0.0
  0
ENDSEC
  0
SECTION
  2
TABLES
  0
TABLE
  2
LTYPE
 70
     9
  0
LTYPE
  2
CONTINUOUS
 70
    64
  3
Solid line
 72
    65
 73
     0
 40
0.0
  0
LTYPE
  2
DASHED
 70
    64
  3
__ __ __ __ __ __ __ __ __ __ __ __ __ __ __
 72
    65
 73
     2
 40
0.75
 49
0.5
 49
-0.25
  0
LTYPE
  2
HIDDEN
 70
    64
  3
_ _ _ _ _ _ _ _ _ _ _ _ _ _ _ _ _ _ _ _ _ _ _
 72
    65
 73
     2
 40
0.375
 49
0.25
 49
-0.125
  0
LTYPE
  2
DOT
 70
    64
  3
...............................................
 72
    65
 73
     2
 40
0.25
 49
0.0
 49
-0.25
  0
LTYPE
  2
DASHDOT
 70
    64
  3
__ . __ . __ . __ . __ . __ . __ . __ . __ . __
 72
    65
 73
     4
 40
1.0
 49
0.5
 49
-0.25
 49
0.0
 49
-0.25
  0
LTYPE
  2
DIVIDE
 70
    64
  3
__ . . __ . . __ . . __ . . __ . . __ . . __
 72
    65
 73
     6
 40
1.25
 49
0.5
 49
-0.25
 49
0.0
 49
-0.25
 49
0.0
 49
-0.25
  0
LTYPE
  2
CENTER
 70
    64
  3
____ _ ____ _ ____ _ ____ _ ____ _ ____ _ ____ 
 72
    65
 73
     4
 40
2.0
 49
1.25
 49
-0.25
 49
0.25
 49
-0.25
  0
LTYPE
  2
PHANTOM
 70
    64
  3
______  __  __  ______  __  __  ______  __  __ 
 72
    65
 73
     6
 40
2.5
 49
1.25
 49
-0.25
 49
0.25
 49
-0.25
 49
0.25
 49
-0.25
  0
LTYPE
  2
BORDER
 70
    64
  3
__ __ . __ __ . __ __ . __ __ . __ __ . __ __ .
 72
    65
 73
     6
 40
1.75
 49
0.5
 49
-0.25
 49
0.5
 49
-0.25
 49
0.0
 49
-0.25
  0
ENDTAB
  0
TABLE
  2
LAYER
 70
    16
  0
LAYER
  2
CSLAYER1
 70
    64
 62
     7
  6
CONTINUOUS
  0
LAYER
  2
CSLAYER2
 70
    64
 62
     7
  6
CONTINUOUS
  0
LAYER
  2
CSLAYER3
 70
    64
 62
     7
  6
CONTINUOUS
  0
LAYER
  2
CSLAYER4
 70
    64
 62
     7
  6
CONTINUOUS
  0
LAYER
  2
CSLAYER5
 70
    64
 62
     7
  6
CONTINUOUS
  0
LAYER
  2
CSLAYER6
 70
    64
 62
     7
  6
CONTINUOUS
  0
LAYER
  2
CSLAYER7
 70
    64
 62
     7
  6
CONTINUOUS
  0
LAYER
  2
CSLAYER8
 70
    64
 62
     7
  6
CONTINUOUS
  0
LAYER
  2
CSLAYER9
 70
    64
 62
     7
  6
CONTINUOUS
  0
LAYER
  2
CSLAYER10
 70
    64
 62
     7
  6
CONTINUOUS
  0
LAYER
  2
CSLAYER11
 70
    64
 62
     7
  6
CONTINUOUS
  0
LAYER
  2
CSLAYER12
 70
    64
 62
     7
  6
CONTINUOUS
  0
LAYER
  2
CSLAYER13
 70
    64
 62
     7
  6
CONTINUOUS
  0
LAYER
  2
CSLAYER14
 70
    64
 62
     7
  6
CONTINUOUS
  0
LAYER
  2
CSLAYER15
 70
    64
 62
     7
  6
CONTINUOUS
  0
LAYER
  2
CSLAYER16
 70
    64
 62
     7
  6
CONTINUOUS
  0
ENDTAB
  0
TABLE
  2
STYLE
 70
     1
  0
STYLE
  2
JX_FONT
 70
     0
 40
1.0
 41
1.0
 50
0.0
 71
     0
 42
1.0
  3
monotxt
  4
bigfont
  0
ENDTAB
  0
TABLE
  2
VIEW
 70
     0
  0
ENDTAB
  0
ENDSEC
  0
SECTION
  2
BLOCKS
  0
ENDSEC
  0
SECTION
  2
ENTITIES
  0
LINE
  8
CSLAYER1
  6
CENTER
 62
     3
 10
93.599849
 20
48.641924
 11
327.099880
 21
48.641924
  0
LINE
  8
CSLAYER1
  6
CENTER
 62
     3
 10
299.599886
 20
74.641927
 11
285.599886
 21
74.641930
  0
LINE
  8
CSLAYER1
  6
CENTER
 62
     3
 10
285.599849
 20
118.989025
 11
299.599849
 21
118.989025
  0
LINE
  8
CSLAYER1
  6
CENTER
 62
     3
 10
326.099859
 20
144.989024
 11
93.599849
 21
144.989042
  0
LINE
  8
CSLAYER1
  6
CENTER
 62
     3
 10
81.099880
 20
144.989038
 11
11.099880
 21
144.989038
  0
LINE
  8
CSLAYER1
  6
CENTER
 62
     3
 10
20.099880
 20
123.989038
 11
20.099880
 21
113.989038
  0
LINE
  8
CSLAYER1
  6
CENTER
 62
     3
 10
15.160610
 20
118.989038
 11
25.099880
 21
118.989038
  0
LINE
  8
CSLAYER1
  6
CENTER
 62
     3
 10
38.886615
 20
118.918724
 11
33.918369
 21
100.962394
  0
LINE
  8
CSLAYER1
  6
CENTER
 62
     3
 10
46.099880
 20
96.632998
 11
46.099880
 21
179.989038
  0
ARC
  8
CSLAYER1
  6
CENTER
 62
     3
 10
46.099880
 20
144.989030
 40
23.000000
 50
116.106555
 51
143.525640
  0
LINE
  8
CSLAYER1
  6
CENTER
 62
     3
 10
34.844885
 20
158.402213
 11
27.786799
 21
166.813711
  0
LINE
  8
CSLAYER1
  6
CENTER
 62
     3
 10
25.099880
 20
170.989038
 11
15.099880
 21
170.989038
  0
LINE
  8
CSLAYER1
  6
CENTER
 62
     3
 10
20.099880
 20
175.928308
 11
20.099880
 21
165.989038
  0
LINE
  8
CSLAYER1
  6
CENTER
 62
     3
 10
67.099880
 20
170.989038
 11
77.039150
 21
170.989038
  0
LINE
  8
CSLAYER1
  6
CENTER
 62
     3
 10
72.099880
 20
175.989038
 11
72.099880
 21
165.989038
  0
ARC
  8
CSLAYER1
  6
CENTER
 62
     3
 10
46.099880
 20
144.989033
 40
23.000000
 50
296.106555
 51
323.525640
  0
LINE
  8
CSLAYER1
  6
CENTER
 62
     3
 10
57.354876
 20
131.575850
 11
64.412961
 21
123.164352
  0
LINE
  8
CSLAYER1
  6
CENTER
 62
     3
 10
67.099880
 20
118.989038
 11
77.039150
 21
118.989038
  0
LINE
  8
CSLAYER1
  6
CENTER
 62
     3
 10
72.099880
 20
123.989038
 11
72.099880
 21
113.989038
  0
LINE
  8
CSLAYER1
  6
CENTER
 62
     3
 10
115.599849
 20
120.982927
 11
115.599849
 21
104.546448
  0
LINE
  8
CSLAYER1
  6
CENTER
 62
     3
 10
146.349849
 20
115.988280
 11
162.849849
 21
115.988280
  0
LINE
  8
CSLAYER1
  6
CONTINUOUS
 62
     3
 10
155.479900
 20
115.988666
 11
155.479900
 21
116.489436
  0
LINE
  8
CSLAYER1
  6
CONTINUOUS
 62
     3
 10
155.479900
 20
116.989436
 11
155.479900
 21
117.489436
  0
LINE
  8
CSLAYER1
  6
CONTINUOUS
 62
     3
 10
153.719799
 20
117.489436
 11
153.719799
 21
116.989436
  0
LINE
  8
CSLAYER1
  6
CONTINUOUS
 62
     3
 10
153.719799
 20
116.489436
 11
153.719799
 21
115.988666
  0
LINE
  8
CSLAYER1
  6
CONTINUOUS
 62
     3
 10
153.719799
 20
115.489436
 11
153.719799
 21
114.989436
  0
LINE
  8
CSLAYER1
  6
CONTINUOUS
 62
     3
 10
155.479900
 20
114.989436
 11
155.479900
 21
115.489436
  0
LINE
  8
CSLAYER1
  6
CENTER
 62
     3
 10
154.599849
 20
121.232085
 11
154.599849
 21
99.027134
  0
LINE
  8
CSLAYER1
  6
CENTER
 62
     3
 10
179.599849
 20
96.417521
 11
179.599849
 21
157.989039
  0
CIRCLE
  8
CSLAYER1
  6
CONTINUOUS
 62
     3
 10
179.599849
 20
144.989039
 40
5.500000
  0
ARC
  8
CSLAYER1
  6
CONTINUOUS
 62
     3
 10
218.599865
 20
161.489008
 40
1.000000
 50
180.000005
 51
270.000001
  0
LINE
  8
CSLAYER1
  6
CONTINUOUS
 62
     3
 10
218.599865
 20
160.489008
 11
254.599849
 21
160.489008
  0
ARC
  8
CSLAYER1
  6
CONTINUOUS
 62
     3
 10
254.599849
 20
161.489008
 40
1.000000
 50
269.999999
 51
359.999995
  0
LINE
  8
CSLAYER1
  6
CONTINUOUS
 62
     3
 10
255.599849
 20
161.489008
 11
255.599849
 21
175.989039
  0
LINE
  8
CSLAYER1
  6
CENTER
 62
     3
 10
285.599856
 20
170.989035
 11
299.599856
 21
170.989032
  0
LINE
  8
CSLAYER1
  6
CENTER
 62
     3
 10
299.599849
 20
215.336126
 11
285.599849
 21
215.336126
  0
ARC
  8
CSLAYER1
  6
CONTINUOUS
 62
     3
 10
254.599849
 20
215.489348
 40
1.000000
 50
270.000001
 51
359.942691
  0
LINE
  8
CSLAYER1
  6
CONTINUOUS
 62
     3
 10
254.599849
 20
214.489348
 11
218.599849
 21
214.489348
  0
ARC
  8
CSLAYER1
  6
CONTINUOUS
 62
     3
 10
218.599849
 20
215.489348
 40
1.000000
 50
180.000005
 51
270.000001
  0
LINE
  8
CSLAYER1
  6
CONTINUOUS
 62
     3
 10
217.599849
 20
215.489348
 11
217.599849
 21
267.182916
  0
ARC
  8
CSLAYER1
  6
CONTINUOUS
 62
     3
 10
218.599849
 20
267.182916
 40
1.000000
 50
90.000009
 51
180.000005
  0
LINE
  8
CSLAYER1
  6
CONTINUOUS
 62
     3
 10
218.599849
 20
268.182916
 11
254.599849
 21
268.182916
  0
ARC
  8
CSLAYER1
  6
CONTINUOUS
 62
     3
 10
254.599849
 20
267.182916
 40
1.000000
 50
0.057319
 51
90.000009
  0
LINE
  8
CSLAYER1
  6
CONTINUOUS
 62
     3
 10
255.599849
 20
267.182916
 11
255.599849
 21
215.489348
  0
LINE
  8
CSLAYER1
  6
CONTINUOUS
 62
     3
 10
217.599865
 20
175.989039
 11
217.599865
 21
161.489008
  0
LINE
  8
CSLAYER1
  6
CENTER
 62
     3
 10
335.599880
 20
144.989031
 11
405.599880
 21
144.989031
  0
ARC
  8
CSLAYER1
  6
CENTER
 62
     3
 10
370.599865
 20
144.989031
 40
24.000000
 50
294.927330
 51
335.072746
  0
LINE
  8
CSLAYER1
  6
CENTER
 62
     3
 10
382.590619
 20
132.998307
 11
392.550258
 21
123.038653
  0
LINE
  8
CSLAYER1
  6
CENTER
 62
     3
 10
396.599880
 20
123.989031
 11
396.599880
 21
114.049761
  0
LINE
  8
CSLAYER1
  6
CENTER
 62
     3
 10
401.599880
 20
118.989031
 11
391.599880
 21
118.989031
  0
LINE
  8
CSLAYER1
  6
CENTER
 62
     3
 10
370.599880
 20
109.989123
 11
370.599880
 21
179.989001
  0
ARC
  8
CSLAYER1
  6
CENTER
 62
     3
 10
370.599895
 20
144.989031
 40
24.000000
 50
114.927330
 51
155.072746
  0
LINE
  8
CSLAYER1
  6
CENTER
 62
     3
 10
358.609141
 20
156.979756
 11
348.649501
 21
166.939410
  0
LINE
  8
CSLAYER1
  6
CENTER
 62
     3
 10
349.599880
 20
170.989031
 11
339.599880
 21
170.989031
  0
LINE
  8
CSLAYER1
  6
CENTER
 62
     3
 10
344.599880
 20
175.928301
 11
344.599880
 21
165.989031
  0
LINE
  8
CSLAYER1
  6
CENTER
 62
     3
 10
391.599880
 20
170.989031
 11
401.599880
 21
170.989031
  0
LINE
  8
CSLAYER1
  6
CENTER
 62
     3
 10
396.599880
 20
175.928301
 11
396.599880
 21
165.989031
  0
LINE
  8
CSLAYER1
  6
CENTER
 62
     3
 10
349.599880
 20
118.989031
 11
339.660610
 21
118.989031
  0
LINE
  8
CSLAYER1
  6
CENTER
 62
     3
 10
344.599880
 20
113.989031
 11
344.599880
 21
123.989031
  0
LINE
  8
CSLAYER1
  6
CENTER
 62
     3
 10
299.599880
 20
22.641920
 11
285.599880
 21
22.641920
  0
LINE
  8
CSLAYER1
  6
CENTER
 62
     3
 10
179.599895
 20
37.641941
 11
179.599895
 21
59.641941
  0
LINE
  8
CSLAYER1
  6
CENTER
 62
     3
 10
165.849895
 20
40.641941
 11
143.540462
 21
40.641936
  0
LINE
  8
CSLAYER1
  6
CENTER
 62
     3
 10
154.599849
 20
47.861510
 11
154.599849
 21
33.253020
  0
LINE
  8
CSLAYER1
  6
CENTER
 62
     3
 10
115.599849
 20
38.641926
 11
115.599849
 21
58.641926
  0
LINE
  8
CSLAYER1
  6
CENTER
 62
     3
 10
93.599849
 20
241.336129
 11
327.099849
 21
241.336129
  0
LINE
  8
CSLAYER1
  6
CENTER
 62
     3
 10
299.599856
 20
267.336132
 11
285.599856
 21
267.336136
  0
TEXT
  8
CSLAYER1
 62
     3
 10
234.137589
 20
173.489014
 40
3.500000
 41
1.125000
  1
N P
 50
270.000000
 51
10.000000
  7
JX_FONT
 72
     5
 11
234.137589
 21
162.989014
  0
POLYLINE
  8
CSLAYER1
  6
CONTINUOUS
 62
     3
 66
     1
 10
0.0
 20
0.0
 30
0.0
  0
VERTEX
  8
CSLAYER1
  6
CONTINUOUS
 62
     3
 10
159.849849
 20
115.988277
 30
0.0
  0
VERTEX
  8
CSLAYER1
  6
CONTINUOUS
 62
     3
 10
159.829872
 20
116.206166
 30
0.0
  0
VERTEX
  8
CSLAYER1
  6
CONTINUOUS
 62
     3
 10
159.770091
 20
116.422397
 30
0.0
  0
VERTEX
  8
CSLAYER1
  6
CONTINUOUS
 62
     3
 10
159.735005
 20
116.508327
 30
0.0
  0
SEQEND
  0
POLYLINE
  8
CSLAYER1
  6
CONTINUOUS
 62
     3
 66
     1
 10
0.0
 20
0.0
 30
0.0
  0
VERTEX
  8
CSLAYER1
  6
CONTINUOUS
 62
     3
 10
149.626998
 20
115.507361
 30
0.0
  0
VERTEX
  8
CSLAYER1
  6
CONTINUOUS
 62
     3
 10
149.792623
 20
115.385359
 30
0.0
  0
VERTEX
  8
CSLAYER1
  6
CONTINUOUS
 62
     3
 10
149.994835
 20
115.267946
 30
0.0
  0
VERTEX
  8
CSLAYER1
  6
CONTINUOUS
 62
     3
 10
150.147600
 20
115.193402
 30
0.0
  0
SEQEND
  0
POLYLINE
  8
CSLAYER1
  6
CONTINUOUS
 62
     3
 66
     1
 10
0.0
 20
0.0
 30
0.0
  0
VERTEX
  8
CSLAYER1
  6
CONTINUOUS
 62
     3
 10
159.464260
 20
116.928682
 30
0.0
  0
VERTEX
  8
CSLAYER1
  6
CONTINUOUS
 62
     3
 10
159.273631
 20
117.126989
 30
0.0
  0
VERTEX
  8
CSLAYER1
  6
CONTINUOUS
 62
     3
 10
159.047431
 20
117.316631
 30
0.0
  0
VERTEX
  8
CSLAYER1
  6
CONTINUOUS
 62
     3
 10
158.787383
 20
117.496163
 30
0.0
  0
VERTEX
  8
CSLAYER1
  6
CONTINUOUS
 62
     3
 10
158.689617
 20
117.555830
 30
0.0
  0
SEQEND
  0
POLYLINE
  8
CSLAYER1
  6
CONTINUOUS
 62
     3
 66
     1
 10
0.0
 20
0.0
 30
0.0
  0
VERTEX
  8
CSLAYER1
  6
CONTINUOUS
 62
     3
 10
158.244789
 20
117.787557
 30
0.0
  0
VERTEX
  8
CSLAYER1
  6
CONTINUOUS
 62
     3
 10
157.901603
 20
117.931985
 30
0.0
  0
VERTEX
  8
CSLAYER1
  6
CONTINUOUS
 62
     3
 10
157.533288
 20
118.061620
 30
0.0
  0
VERTEX
  8
CSLAYER1
  6
CONTINUOUS
 62
     3
 10
157.307701
 20
118.130081
 30
0.0
  0
SEQEND
  0
POLYLINE
  8
CSLAYER1
  6
CONTINUOUS
 62
     3
 66
     1
 10
0.0
 20
0.0
 30
0.0
  0
VERTEX
  8
CSLAYER1
  6
CONTINUOUS
 62
     3
 10
156.823060
 20
118.253057
 30
0.0
  0
VERTEX
  8
CSLAYER1
  6
CONTINUOUS
 62
     3
 10
156.400084
 20
118.336708
 30
0.0
  0
VERTEX
  8
CSLAYER1
  6
CONTINUOUS
 62
     3
 10
155.963408
 20
118.402486
 30
0.0
  0
VERTEX
  8
CSLAYER1
  6
CONTINUOUS
 62
     3
 10
155.837076
 20
118.417868
 30
0.0
  0
SEQEND
  0
POLYLINE
  8
CSLAYER1
  6
CONTINUOUS
 62
     3
 66
     1
 10
0.0
 20
0.0
 30
0.0
  0
VERTEX
  8
CSLAYER1
  6
CONTINUOUS
 62
     3
 10
155.339150
 20
118.463369
 30
0.0
  0
VERTEX
  8
CSLAYER1
  6
CONTINUOUS
 62
     3
 10
154.883329
 20
118.484633
 30
0.0
  0
VERTEX
  8
CSLAYER1
  6
CONTINUOUS
 62
     3
 10
154.425350
 20
118.486899
 30
0.0
  0
VERTEX
  8
CSLAYER1
  6
CONTINUOUS
 62
     3
 10
154.339648
 20
118.485208
 30
0.0
  0
SEQEND
  0
POLYLINE
  8
CSLAYER1
  6
CONTINUOUS
 62
     3
 66
     1
 10
0.0
 20
0.0
 30
0.0
  0
VERTEX
  8
CSLAYER1
  6
CONTINUOUS
 62
     3
 10
153.835693
 20
118.461656
 30
0.0
  0
VERTEX
  8
CSLAYER1
  6
CONTINUOUS
 62
     3
 10
153.385906
 20
118.420530
 30
0.0
  0
VERTEX
  8
CSLAYER1
  6
CONTINUOUS
 62
     3
 10
152.945358
 20
118.360892
 30
0.0
  0
VERTEX
  8
CSLAYER1
  6
CONTINUOUS
 62
     3
 10
152.847365
 20
118.344884
 30
0.0
  0
SEQEND
  0
POLYLINE
  8
CSLAYER1
  6
CONTINUOUS
 62
     3
 66
     1
 10
0.0
 20
0.0
 30
0.0
  0
VERTEX
  8
CSLAYER1
  6
CONTINUOUS
 62
     3
 10
152.356723
 20
118.248600
 30
0.0
  0
VERTEX
  8
CSLAYER1
  6
CONTINUOUS
 62
     3
 10
151.951559
 20
118.146903
 30
0.0
  0
VERTEX
  8
CSLAYER1
  6
CONTINUOUS
 62
     3
 10
151.566550
 20
118.028777
 30
0.0
  0
VERTEX
  8
CSLAYER1
  6
CONTINUOUS
 62
     3
 10
151.396599
 20
117.969009
 30
0.0
  0
SEQEND
  0
POLYLINE
  8
CSLAYER1
  6
CONTINUOUS
 62
     3
 66
     1
 10
0.0
 20
0.0
 30
0.0
  0
VERTEX
  8
CSLAYER1
  6
CONTINUOUS
 62
     3
 10
150.933179
 20
117.777517
 30
0.0
  0
VERTEX
  8
CSLAYER1
  6
CONTINUOUS
 62
     3
 10
150.619653
 20
117.618531
 30
0.0
  0
VERTEX
  8
CSLAYER1
  6
CONTINUOUS
 62
     3
 10
150.336419
 20
117.447139
 30
0.0
  0
VERTEX
  8
CSLAYER1
  6
CONTINUOUS
 62
     3
 10
150.085632
 20
117.264643
 30
0.0
  0
VERTEX
  8
CSLAYER1
  6
CONTINUOUS
 62
     3
 10
150.081222
 20
117.261099
 30
0.0
  0
SEQEND
  0
POLYLINE
  8
CSLAYER1
  6
CONTINUOUS
 62
     3
 66
     1
 10
0.0
 20
0.0
 30
0.0
  0
VERTEX
  8
CSLAYER1
  6
CONTINUOUS
 62
     3
 10
149.722244
 20
116.913055
 30
0.0
  0
VERTEX
  8
CSLAYER1
  6
CONTINUOUS
 62
     3
 10
149.571546
 20
116.707102
 30
0.0
  0
VERTEX
  8
CSLAYER1
  6
CONTINUOUS
 62
     3
 10
149.459117
 20
116.495678
 30
0.0
  0
VERTEX
  8
CSLAYER1
  6
CONTINUOUS
 62
     3
 10
149.385811
 20
116.280393
 30
0.0
  0
VERTEX
  8
CSLAYER1
  6
CONTINUOUS
 62
     3
 10
149.352188
 20
116.062884
 30
0.0
  0
VERTEX
  8
CSLAYER1
  6
CONTINUOUS
 62
     3
 10
149.349849
 20
115.988277
 30
0.0
  0
SEQEND
  0
POLYLINE
  8
CSLAYER1
  6
CONTINUOUS
 62
     3
 66
     1
 10
0.0
 20
0.0
 30
0.0
  0
VERTEX
  8
CSLAYER1
  6
CONTINUOUS
 62
     3
 10
159.038896
 20
115.187397
 30
0.0
  0
VERTEX
  8
CSLAYER1
  6
CONTINUOUS
 62
     3
 10
159.266310
 20
115.300984
 30
0.0
  0
VERTEX
  8
CSLAYER1
  6
CONTINUOUS
 62
     3
 10
159.458210
 20
115.419802
 30
0.0
  0
VERTEX
  8
CSLAYER1
  6
CONTINUOUS
 62
     3
 10
159.570615
 20
115.505604
 30
0.0
  0
SEQEND
  0
TEXT
  8
CSLAYER1
 62
     3
 10
235.378754
 20
246.834518
 40
3.500000
 41
1.125000
  1
N P
 50
-90.000000
 51
10.000000
  7
JX_FONT
 72
     5
 11
235.378754
 21
236.334518
  0
LINE
  8
CSLAYER1
  6
CONTINUOUS
 62
     6
 10
87.474407
 20
45.489275
 11
88.425304
 21
45.817171
  0
LINE
  8
CSLAYER1
  6
CONTINUOUS
 62
     6
 10
88.326931
 20
46.407365
 11
91.256115
 21
47.626146
  0
LINE
  8
CSLAYER1
  6
CONTINUOUS
 62
     6
 10
91.727230
 20
46.944078
 11
88.720394
 21
45.259752
  0
LINE
  8
CSLAYER1
  6
CONTINUOUS
 62
     6
 10
89.179439
 20
45.030229
 11
88.228557
 21
44.210497
  0
LINE
  8
CSLAYER1
  6
CONTINUOUS
 62
     6
 10
88.818767
 20
43.292406
 11
89.638485
 21
44.013780
  0
LINE
  8
CSLAYER1
  6
CONTINUOUS
 62
     6
 10
89.835216
 20
43.718675
 11
89.048290
 21
42.800584
  0
LINE
  8
CSLAYER1
  6
CONTINUOUS
 62
     6
 10
89.474544
 20
42.112016
 11
90.359844
 21
43.095689
  0
LINE
  8
CSLAYER1
  6
CONTINUOUS
 62
     6
 10
90.392620
 20
42.767809
 11
89.835216
 21
41.948076
  0
LINE
  8
CSLAYER1
  6
CONTINUOUS
 62
     6
 10
90.851665
 20
42.538286
 11
93.140575
 21
44.897813
  0
ARC
  8
CSLAYER1
  6
CONTINUOUS
 62
     6
 10
100.064296
 20
34.873735
 40
11.353822
 50
82.958412
 51
124.633057
  0
ARC
  8
CSLAYER1
  6
CONTINUOUS
 62
     6
 10
99.291095
 20
47.391924
 40
2.500000
 50
-30.000039
 51
29.999950
  0
ARC
  8
CSLAYER1
  6
CONTINUOUS
 62
     6
 10
99.291095
 20
49.891924
 40
2.500000
 50
-30.000039
 51
29.999950
  0
ARC
  8
CSLAYER1
  6
CONTINUOUS
 62
     6
 10
103.621219
 20
49.891924
 40
2.500000
 50
149.999970
 51
209.999972
  0
ARC
  8
CSLAYER1
  6
CONTINUOUS
 62
     6
 10
105.992969
 20
49.891924
 40
2.500000
 50
149.999956
 51
209.999958
  0
LINE
  8
CSLAYER1
  6
CONTINUOUS
 62
     6
 10
103.827907
 20
51.141924
 11
115.599849
 21
51.141924
  0
ARC
  8
CSLAYER1
  6
CONTINUOUS
 62
     6
 10
115.599849
 20
48.641924
 40
2.500000
 50
-90.000054
 51
89.942646
  0
LINE
  8
CSLAYER1
  6
CONTINUOUS
 62
     6
 10
115.599849
 20
46.141924
 11
103.827907
 21
46.141924
  0
ARC
  8
CSLAYER1
  6
CONTINUOUS
 62
     6
 10
101.662845
 20
47.391924
 40
2.500000
 50
-30.000039
 51
29.999950
  0
ARC
  8
CSLAYER1
  6
CONTINUOUS
 62
     6
 10
105.992969
 20
47.391924
 40
2.500000
 50
149.999956
 51
209.999958
  0
ARC
  8
CSLAYER1
  6
CONTINUOUS
 62
     6
 10
100.064296
 20
34.873735
 40
16.327621
 50
85.109758
 51
124.633057
  0
LINE
  8
CSLAYER1
  6
CONTINUOUS
 62
     6
 10
90.785000
 20
48.308244
 11
93.611705
 21
44.215746
  0
LINE
  8
CSLAYER1
  6
CONTINUOUS
 62
     6
 10
92.669460
 20
45.579912
 11
90.130321
 21
43.423570
  0
LINE
  8
CSLAYER1
  6
CONTINUOUS
 62
     6
 10
89.572902
 20
44.407243
 11
92.198345
 21
46.261980
  0
LINE
  8
CSLAYER1
  6
CONTINUOUS
 62
     6
 10
96.599895
 20
45.686083
 11
96.599895
 21
23.141924
  0
ARC
  8
CSLAYER1
  6
CONTINUOUS
 62
     6
 10
98.599895
 20
23.141924
 40
2.000000
 50
180.000000
 51
270.000000
  0
LINE
  8
CSLAYER1
  6
CONTINUOUS
 62
     6
 10
98.599895
 20
21.141924
 11
121.599849
 21
21.141924
  0
LINE
  8
CSLAYER1
  6
CONTINUOUS
 62
     6
 10
121.599895
 20
18.641941
 11
162.599895
 21
18.641941
  0
LINE
  8
CSLAYER1
  6
CONTINUOUS
 62
     6
 10
162.599849
 20
18.641941
 11
162.599849
 21
78.641941
  0
LINE
  8
CSLAYER1
  6
CONTINUOUS
 62
     6
 10
162.599895
 20
78.641941
 11
121.599895
 21
78.641941
  0
LINE
  8
CSLAYER1
  6
CONTINUOUS
 62
     6
 10
121.599895
 20
78.641941
 11
121.599895
 21
18.641941
  0
LINE
  8
CSLAYER1
  6
CONTINUOUS
 62
     6
 10
128.599895
 20
18.641941
 11
128.599895
 21
78.641941
  0
LINE
  8
CSLAYER1
  6
CONTINUOUS
 62
     6
 10
121.599849
 20
76.141924
 11
98.599895
 21
76.141924
  0
ARC
  8
CSLAYER1
  6
CONTINUOUS
 62
     6
 10
98.599895
 20
74.141924
 40
2.000000
 50
90.000000
 51
180.000000
  0
LINE
  8
CSLAYER1
  6
CONTINUOUS
 62
     6
 10
96.599895
 20
74.141924
 11
96.599895
 21
50.829575
  0
ARC
  8
CSLAYER1
  6
CONTINUOUS
 62
     6
 10
115.599849
 20
48.641926
 40
5.000000
 50
-150.000206
 51
150.343757
  0
LINE
  8
CSLAYER1
  6
CONTINUOUS
 62
     6
 10
142.828853
 20
43.288603
 11
144.806514
 21
42.388640
  0
LINE
  8
CSLAYER1
  6
CONTINUOUS
 62
     6
 10
144.972072
 20
42.707152
 11
143.028072
 21
43.726408
  0
LINE
  8
CSLAYER1
  6
CONTINUOUS
 62
     6
 10
143.253383
 20
44.156188
 11
145.175380
 21
43.098296
  0
LINE
  8
CSLAYER1
  6
CONTINUOUS
 62
     6
 10
145.448818
 20
43.624388
 11
144.637111
 21
42.062743
  0
ARC
  8
CSLAYER1
  6
CONTINUOUS
 62
     6
 10
150.451351
 20
53.249022
 40
12.607053
 50
242.536193
 51
270.000110
  0
ARC
  8
CSLAYER1
  6
CONTINUOUS
 62
     6
 10
149.689251
 20
41.081938
 40
0.879999
 50
-29.999656
 51
30.000332
  0
ARC
  8
CSLAYER1
  6
CONTINUOUS
 62
     6
 10
151.213451
 20
41.961943
 40
0.879999
 50
150.000353
 51
210.000354
  0
ARC
  8
CSLAYER1
  6
CONTINUOUS
 62
     6
 10
149.689251
 20
41.961943
 40
0.879999
 50
-29.999656
 51
30.000332
  0
ARC
  8
CSLAYER1
  6
CONTINUOUS
 62
     6
 10
150.451351
 20
53.249022
 40
10.847068
 50
242.536193
 51
270.000083
  0
ARC
  8
CSLAYER1
  6
CONTINUOUS
 62
     6
 10
154.599849
 20
40.641931
 40
5.250000
 50
-160.080973
 51
160.080864
  0
ARC
  8
CSLAYER1
  6
CONTINUOUS
 62
     6
 10
149.689251
 20
39.321928
 40
0.879999
 50
-30.000346
 51
29.999656
  0
ARC
  8
CSLAYER1
  6
CONTINUOUS
 62
     6
 10
149.689251
 20
40.201933
 40
0.879999
 50
-30.000346
 51
29.999656
  0
ARC
  8
CSLAYER1
  6
CONTINUOUS
 62
     6
 10
151.213451
 20
40.201933
 40
0.879999
 50
149.999656
 51
209.999658
  0
ARC
  8
CSLAYER1
  6
CONTINUOUS
 62
     6
 10
150.451351
 20
28.034850
 40
12.607053
 50
89.999900
 51
117.463817
  0
LINE
  8
CSLAYER1
  6
CONTINUOUS
 62
     6
 10
144.637111
 20
39.221129
 11
145.448818
 21
37.659483
  0
ARC
  8
CSLAYER1
  6
CONTINUOUS
 62
     6
 10
150.451351
 20
28.034850
 40
10.847068
 50
89.999927
 51
117.463817
  0
ARC
  8
CSLAYER1
  6
CONTINUOUS
 62
     6
 10
152.543224
 20
39.321928
 40
0.880005
 50
149.999997
 51
209.999999
  0
ARC
  8
CSLAYER1
  6
CONTINUOUS
 62
     6
 10
152.543224
 20
40.201933
 40
0.880005
 50
149.999997
 51
209.999999
  0
ARC
  8
CSLAYER1
  6
CONTINUOUS
 62
     6
 10
152.543224
 20
41.081938
 40
0.880005
 50
149.999997
 51
209.999999
  0
ARC
  8
CSLAYER1
  6
CONTINUOUS
 62
     6
 10
152.543224
 20
41.961943
 40
0.880005
 50
149.999997
 51
209.999999
  0
LINE
  8
CSLAYER1
  6
CONTINUOUS
 62
     6
 10
151.781124
 20
42.401946
 11
154.599849
 21
42.401946
  0
ARC
  8
CSLAYER1
  6
CONTINUOUS
 62
     6
 10
154.599849
 20
41.521941
 40
0.880000
 50
-89.999999
 51
90.000019
  0
LINE
  8
CSLAYER1
  6
CONTINUOUS
 62
     6
 10
154.599849
 20
40.641936
 11
151.781124
 21
40.641936
  0
ARC
  8
CSLAYER1
  6
CONTINUOUS
 62
     6
 10
151.019024
 20
41.081938
 40
0.880005
 50
-30.000011
 51
29.999977
  0
ARC
  8
CSLAYER1
  6
CONTINUOUS
 62
     6
 10
154.599849
 20
40.641931
 40
2.500000
 50
-135.251029
 51
135.250717
  0
ARC
  8
CSLAYER1
  6
CONTINUOUS
 62
     6
 10
151.019024
 20
39.321928
 40
0.880005
 50
-30.000011
 51
29.999977
  0
LINE
  8
CSLAYER1
  6
CONTINUOUS
 62
     6
 10
151.781124
 20
38.881926
 11
154.599849
 21
38.881926
  0
ARC
  8
CSLAYER1
  6
CONTINUOUS
 62
     6
 10
154.599849
 20
39.761931
 40
0.880000
 50
-89.999999
 51
90.000019
  0
ARC
  8
CSLAYER1
  6
CONTINUOUS
 62
     6
 10
154.599849
 20
40.641931
 40
5.250000
 50
179.473624
 51
180.526271
  0
LINE
  8
CSLAYER1
  6
CONTINUOUS
 62
     6
 10
145.175380
 20
38.185576
 11
143.410030
 21
37.213896
  0
LINE
  8
CSLAYER1
  6
CONTINUOUS
 62
     6
 10
143.177730
 20
37.635954
 11
144.972072
 21
38.576720
  0
LINE
  8
CSLAYER1
  6
CONTINUOUS
 62
     6
 10
144.806514
 20
38.895232
 11
142.958431
 21
38.054228
  0
LINE
  8
CSLAYER1
  6
CONTINUOUS
 62
     6
 10
158.000223
 20
36.641936
 11
162.599849
 21
36.641941
  0
LINE
  8
CSLAYER1
  6
CONTINUOUS
 62
     6
 10
164.362651
 20
44.356906
 11
166.569317
 21
45.571506
  0
LINE
  8
CSLAYER1
  6
CONTINUOUS
 62
     6
 10
166.315166
 20
46.060398
 11
164.072246
 21
44.884464
  0
LINE
  8
CSLAYER1
  6
CONTINUOUS
 62
     6
 10
163.798137
 20
45.407321
 11
166.108196
 21
46.458530
  0
ARC
  8
CSLAYER1
  6
CONTINUOUS
 62
     6
 10
173.164287
 20
32.883091
 40
15.758816
 50
89.999900
 51
117.463817
  0
ARC
  8
CSLAYER1
  6
CONTINUOUS
 62
     6
 10
174.116924
 20
48.091892
 40
1.099999
 50
149.999656
 51
209.999658
  0
ARC
  8
CSLAYER1
  6
CONTINUOUS
 62
     6
 10
172.211666
 20
48.091907
 40
1.099999
 50
-30.000346
 51
29.999656
  0
ARC
  8
CSLAYER1
  6
CONTINUOUS
 62
     6
 10
173.164287
 20
64.400791
 40
15.758816
 50
242.536193
 51
270.000110
  0
LINE
  8
CSLAYER1
  6
CONTINUOUS
 62
     6
 10
165.896465
 20
50.417942
 11
166.911113
 21
52.370029
  0
ARC
  8
CSLAYER1
  6
CONTINUOUS
 62
     6
 10
173.164287
 20
64.400791
 40
13.558834
 50
242.536193
 51
270.000083
  0
ARC
  8
CSLAYER1
  6
CONTINUOUS
 62
     6
 10
174.116909
 20
50.291980
 40
1.099999
 50
150.000353
 51
210.000354
  0
ARC
  8
CSLAYER1
  6
CONTINUOUS
 62
     6
 10
172.211651
 20
50.291965
 40
1.099999
 50
-29.999656
 51
30.000332
  0
ARC
  8
CSLAYER1
  6
CONTINUOUS
 62
     6
 10
172.211666
 20
49.191974
 40
1.099999
 50
-29.999656
 51
30.000332
  0
ARC
  8
CSLAYER1
  6
CONTINUOUS
 62
     6
 10
172.211651
 20
46.991916
 40
1.099999
 50
-30.000346
 51
29.999656
  0
ARC
  8
CSLAYER1
  6
CONTINUOUS
 62
     6
 10
173.164287
 20
32.883091
 40
13.558834
 50
89.999927
 51
117.463817
  0
LINE
  8
CSLAYER1
  6
CONTINUOUS
 62
     6
 10
166.911113
 20
44.913852
 11
165.896465
 21
46.865940
  0
LINE
  8
CSLAYER1
  6
CONTINUOUS
 62
     6
 10
166.108196
 20
50.825351
 11
163.636150
 21
51.950290
  0
LINE
  8
CSLAYER1
  6
CONTINUOUS
 62
     6
 10
163.885173
 20
52.497531
 11
166.315166
 21
51.223484
  0
LINE
  8
CSLAYER1
  6
CONTINUOUS
 62
     6
 10
166.569317
 20
51.712375
 11
164.166820
 21
53.034763
  0
ARC
  8
CSLAYER1
  6
CONTINUOUS
 62
     6
 10
179.599895
 20
48.641941
 40
8.000000
 50
-164.038007
 51
164.038013
  0
ARC
  8
CSLAYER1
  6
CONTINUOUS
 62
     6
 10
175.123821
 20
46.991962
 40
1.100006
 50
-30.000011
 51
29.999977
  0
ARC
  8
CSLAYER1
  6
CONTINUOUS
 62
     6
 10
177.029094
 20
48.091968
 40
1.100006
 50
149.999997
 51
209.999999
  0
LINE
  8
CSLAYER1
  6
CONTINUOUS
 62
     6
 10
176.076458
 20
48.641941
 11
179.599895
 21
48.641941
  0
ARC
  8
CSLAYER1
  6
CONTINUOUS
 62
     6
 10
179.599895
 20
49.741947
 40
1.100000
 50
-89.999999
 51
90.000019
  0
LINE
  8
CSLAYER1
  6
CONTINUOUS
 62
     6
 10
179.599895
 20
50.841953
 11
176.076458
 21
50.841953
  0
ARC
  8
CSLAYER1
  6
CONTINUOUS
 62
     6
 10
177.029094
 20
50.291919
 40
1.100006
 50
149.999997
 51
209.999999
  0
ARC
  8
CSLAYER1
  6
CONTINUOUS
 62
     6
 10
177.029094
 20
49.191913
 40
1.100006
 50
149.999997
 51
209.999999
  0
ARC
  8
CSLAYER1
  6
CONTINUOUS
 62
     6
 10
175.123821
 20
49.191913
 40
1.100006
 50
-30.000011
 51
29.999977
  0
ARC
  8
CSLAYER1
  6
CONTINUOUS
 62
     6
 10
177.029094
 20
46.991962
 40
1.100006
 50
149.999997
 51
209.999999
  0
LINE
  8
CSLAYER1
  6
CONTINUOUS
 62
     6
 10
176.076458
 20
46.441928
 11
179.599895
 21
46.441928
  0
ARC
  8
CSLAYER1
  6
CONTINUOUS
 62
     6
 10
179.599895
 20
47.541935
 40
1.100000
 50
-89.999999
 51
90.000019
  0
LINE
  8
CSLAYER1
  6
CONTINUOUS
 62
     6
 10
180.699871
 20
47.541935
 11
180.699871
 21
49.741947
  0
LINE
  8
CSLAYER1
  6
CONTINUOUS
 62
     6
 10
162.599849
 20
44.641941
 11
158.000211
 21
44.641936
  0
LINE
  8
CSLAYER1
  6
CONTINUOUS
 62
     6
 10
162.599849
 20
19.130711
 11
190.599895
 21
18.641941
  0
LINE
  8
CSLAYER1
  6
CONTINUOUS
 62
     6
 10
190.599849
 20
17.641924
 11
287.599880
 21
17.641924
  0
LINE
  8
CSLAYER1
  6
CONTINUOUS
 62
     6
 10
287.599880
 20
17.641924
 11
287.599880
 21
79.641924
  0
LINE
  8
CSLAYER1
  6
CONTINUOUS
 62
     6
 10
287.599880
 20
79.641924
 11
190.599849
 21
79.641924
  0
LINE
  8
CSLAYER1
  6
CONTINUOUS
 62
     6
 10
190.599849
 20
79.641924
 11
190.599849
 21
17.641924
  0
LINE
  8
CSLAYER1
  6
CONTINUOUS
 62
     6
 10
190.599895
 20
78.641941
 11
162.599849
 21
78.153170
  0
LINE
  8
CSLAYER1
  6
CONTINUOUS
 62
     6
 10
156.587810
 20
99.027134
 11
155.466594
 21
101.490986
  0
LINE
  8
CSLAYER1
  6
CONTINUOUS
 62
     6
 10
155.785091
 20
101.656543
 11
157.046535
 21
99.250614
  0
LINE
  8
CSLAYER1
  6
CONTINUOUS
 62
     6
 10
157.469997
 20
99.509388
 11
156.176235
 21
101.859836
  0
ARC
  8
CSLAYER1
  6
CONTINUOUS
 62
     6
 10
166.326961
 20
107.135807
 40
10.847068
 50
179.999978
 51
207.463868
  0
ARC
  8
CSLAYER1
  6
CONTINUOUS
 62
     6
 10
155.039882
 20
106.373737
 40
0.879999
 50
60.000350
 51
120.000345
  0
ARC
  8
CSLAYER1
  6
CONTINUOUS
 62
     6
 10
154.159877
 20
107.897938
 40
0.879999
 50
240.000362
 51
300.000350
  0
ARC
  8
CSLAYER1
  6
CONTINUOUS
 62
     6
 10
154.159877
 20
106.373737
 40
0.879999
 50
60.000350
 51
120.000345
  0
ARC
  8
CSLAYER1
  6
CONTINUOUS
 62
     6
 10
142.872829
 20
107.135807
 40
10.847068
 50
332.536202
 51
359.942691
  0
LINE
  8
CSLAYER1
  6
CONTINUOUS
 62
     6
 10
152.497432
 20
102.133289
 11
154.059078
 21
101.321598
  0
ARC
  8
CSLAYER1
  6
CONTINUOUS
 62
     6
 10
142.872829
 20
107.135807
 40
12.607053
 50
332.536202
 51
359.942691
  0
ARC
  8
CSLAYER1
  6
CONTINUOUS
 62
     6
 10
155.039898
 20
110.227710
 40
0.880005
 50
240.000007
 51
299.999995
  0
ARC
  8
CSLAYER1
  6
CONTINUOUS
 62
     6
 10
154.159893
 20
110.227710
 40
0.880005
 50
240.000007
 51
299.999995
  0
LINE
  8
CSLAYER1
  6
CONTINUOUS
 62
     6
 10
153.719890
 20
109.465610
 11
153.719890
 21
114.509503
  0
LINE
  8
CSLAYER1
  6
CONTINUOUS
 62
     6
 10
155.479900
 20
114.509507
 11
155.479900
 21
109.465610
  0
ARC
  8
CSLAYER1
  6
CONTINUOUS
 62
     6
 10
155.039898
 20
108.703510
 40
0.880005
 50
60.000002
 51
120.000003
  0
ARC
  8
CSLAYER1
  6
CONTINUOUS
 62
     6
 10
166.326961
 20
107.135807
 40
12.607053
 50
201.534171
 51
207.463868
  0
LINE
  8
CSLAYER1
  6
CONTINUOUS
 62
     6
 10
155.140682
 20
101.321583
 11
156.702327
 21
102.133289
  0
LINE
  8
CSLAYER1
  6
CONTINUOUS
 62
     6
 10
153.733181
 20
101.490986
 11
152.611980
 21
99.027149
  0
LINE
  8
CSLAYER1
  6
CONTINUOUS
 62
     6
 10
152.153240
 20
99.250614
 11
153.414669
 21
101.656543
  0
LINE
  8
CSLAYER1
  6
CONTINUOUS
 62
     6
 10
153.023525
 20
101.859852
 11
151.729793
 21
99.509388
  0
LINE
  8
CSLAYER1
  6
CONTINUOUS
 62
     6
 10
162.599849
 20
114.989051
 11
162.599849
 21
174.989051
  0
LINE
  8
CSLAYER1
  6
CONTINUOUS
 62
     6
 10
162.599849
 20
174.989051
 11
121.599849
 21
174.989051
  0
LINE
  8
CSLAYER1
  6
CONTINUOUS
 62
     6
 10
121.599849
 20
174.989051
 11
121.599849
 21
114.989051
  0
LINE
  8
CSLAYER1
  6
CONTINUOUS
 62
     6
 10
121.599849
 20
114.989051
 11
162.599849
 21
114.989051
  0
LINE
  8
CSLAYER1
  6
CONTINUOUS
 62
     6
 10
162.599849
 20
115.477797
 11
190.599849
 21
114.989035
  0
LINE
  8
CSLAYER1
  6
CONTINUOUS
 62
     6
 10
190.599849
 20
113.989039
 11
190.599849
 21
175.989039
  0
LINE
  8
CSLAYER1
  6
CONTINUOUS
 62
     6
 10
190.599849
 20
175.989039
 11
287.599849
 21
175.989039
  0
LINE
  8
CSLAYER1
  6
CONTINUOUS
 62
     6
 10
287.599849
 20
175.989039
 11
287.599849
 21
113.989039
  0
LINE
  8
CSLAYER1
  6
CONTINUOUS
 62
     6
 10
287.599849
 20
113.989039
 11
190.599849
 21
113.989039
  0
LINE
  8
CSLAYER1
  6
CONTINUOUS
 62
     6
 10
180.699855
 20
115.161845
 11
180.699855
 21
109.465617
  0
ARC
  8
CSLAYER1
  6
CONTINUOUS
 62
     6
 10
180.149868
 20
110.418253
 40
1.100006
 50
240.000007
 51
299.999995
  0
ARC
  8
CSLAYER1
  6
CONTINUOUS
 62
     6
 10
179.049862
 20
110.418253
 40
1.100006
 50
240.000007
 51
299.999995
  0
LINE
  8
CSLAYER1
  6
CONTINUOUS
 62
     6
 10
178.499859
 20
109.465617
 11
178.499859
 21
115.200251
  0
ARC
  8
CSLAYER1
  6
CONTINUOUS
 62
     6
 10
180.149868
 20
108.512980
 40
1.100006
 50
60.000002
 51
120.000003
  0
ARC
  8
CSLAYER1
  6
CONTINUOUS
 62
     6
 10
180.149837
 20
105.600794
 40
1.099999
 50
60.000350
 51
120.000345
  0
ARC
  8
CSLAYER1
  6
CONTINUOUS
 62
     6
 10
179.049831
 20
107.506037
 40
1.099999
 50
240.000362
 51
300.000350
  0
ARC
  8
CSLAYER1
  6
CONTINUOUS
 62
     6
 10
179.049839
 20
105.600779
 40
1.099999
 50
60.000350
 51
120.000345
  0
ARC
  8
CSLAYER1
  6
CONTINUOUS
 62
     6
 10
194.258693
 20
106.553385
 40
13.558834
 50
179.999978
 51
207.463868
  0
LINE
  8
CSLAYER1
  6
CONTINUOUS
 62
     6
 10
182.227916
 20
100.300211
 11
180.275859
 21
99.285593
  0
ARC
  8
CSLAYER1
  6
CONTINUOUS
 62
     6
 10
194.258693
 20
106.553385
 40
15.758816
 50
202.422068
 51
207.463868
  0
LINE
  8
CSLAYER1
  6
CONTINUOUS
 62
     6
 10
180.683239
 20
99.497340
 11
182.084743
 21
96.417521
  0
LINE
  8
CSLAYER1
  6
CONTINUOUS
 62
     6
 10
182.658153
 20
96.696879
 11
181.081371
 21
99.704279
  0
LINE
  8
CSLAYER1
  6
CONTINUOUS
 62
     6
 10
181.570293
 20
99.958399
 11
183.187465
 21
97.020342
  0
ARC
  8
CSLAYER1
  6
CONTINUOUS
 62
     6
 10
164.941005
 20
106.553385
 40
15.758816
 50
332.536202
 51
359.942691
  0
ARC
  8
CSLAYER1
  6
CONTINUOUS
 62
     6
 10
164.941005
 20
106.553385
 40
13.558834
 50
332.536202
 51
359.942691
  0
LINE
  8
CSLAYER1
  6
CONTINUOUS
 62
     6
 10
176.971782
 20
100.300227
 11
178.923839
 21
99.285609
  0
LINE
  8
CSLAYER1
  6
CONTINUOUS
 62
     6
 10
178.516460
 20
99.497340
 11
177.114971
 21
96.417536
  0
LINE
  8
CSLAYER1
  6
CONTINUOUS
 62
     6
 10
176.541546
 20
96.696879
 11
178.118328
 21
99.704295
  0
LINE
  8
CSLAYER1
  6
CONTINUOUS
 62
     6
 10
177.629406
 20
99.958430
 11
176.012249
 21
97.020358
  0
LINE
  8
CSLAYER1
  6
CONTINUOUS
 62
     6
 10
176.849849
 20
144.189036
 11
182.349849
 21
144.189036
  0
LINE
  8
CSLAYER1
  6
CONTINUOUS
 62
     6
 10
182.349849
 20
144.189036
 11
182.349849
 21
145.789042
  0
LINE
  8
CSLAYER1
  6
CONTINUOUS
 62
     6
 10
182.349849
 20
145.789042
 11
176.849849
 21
145.789042
  0
LINE
  8
CSLAYER1
  6
CONTINUOUS
 62
     6
 10
176.849849
 20
145.789042
 11
176.849849
 21
144.189036
  0
CIRCLE
  8
CSLAYER1
  6
CONTINUOUS
 62
     6
 10
179.599849
 20
144.989039
 40
8.000000
  0
CIRCLE
  8
CSLAYER1
  6
CONTINUOUS
 62
     6
 10
179.599849
 20
144.989039
 40
6.000000
  0
LINE
  8
CSLAYER1
  6
CONTINUOUS
 62
     6
 10
128.599849
 20
114.989051
 11
128.599849
 21
174.989051
  0
LINE
  8
CSLAYER1
  6
CONTINUOUS
 62
     6
 10
121.599849
 20
172.489039
 11
98.599849
 21
172.489039
  0
ARC
  8
CSLAYER1
  6
CONTINUOUS
 62
     6
 10
98.599849
 20
170.489039
 40
2.000000
 50
90.000000
 51
180.000000
  0
LINE
  8
CSLAYER1
  6
CONTINUOUS
 62
     6
 10
96.599849
 20
170.489039
 11
96.599849
 21
119.489039
  0
ARC
  8
CSLAYER1
  6
CONTINUOUS
 62
     6
 10
98.599849
 20
119.489039
 40
2.000000
 50
180.000000
 51
270.000000
  0
LINE
  8
CSLAYER1
  6
CONTINUOUS
 62
     6
 10
98.599849
 20
117.489039
 11
121.599849
 21
117.489039
  0
LINE
  8
CSLAYER1
  6
CONTINUOUS
 62
     6
 10
120.599849
 20
117.489054
 11
120.599849
 21
115.989039
  0
LINE
  8
CSLAYER1
  6
CONTINUOUS
 62
     6
 10
120.599849
 20
115.989039
 11
110.599849
 21
115.989039
  0
LINE
  8
CSLAYER1
  6
CONTINUOUS
 62
     6
 10
110.599849
 20
115.989039
 11
110.599849
 21
117.489040
  0
LINE
  8
CSLAYER1
  6
CONTINUOUS
 62
     6
 10
113.099849
 20
115.988770
 11
113.099849
 21
110.650538
  0
ARC
  8
CSLAYER1
  6
CONTINUOUS
 62
     6
 10
114.349849
 20
112.815607
 40
2.500000
 50
240.000007
 51
299.999995
  0
ARC
  8
CSLAYER1
  6
CONTINUOUS
 62
     6
 10
116.849849
 20
112.815607
 40
2.500000
 50
240.000007
 51
299.999995
  0
LINE
  8
CSLAYER1
  6
CONTINUOUS
 62
     6
 10
118.099849
 20
110.650538
 11
118.099849
 21
115.988777
  0
ARC
  8
CSLAYER1
  6
CONTINUOUS
 62
     6
 10
116.849849
 20
108.485468
 40
2.500000
 50
60.000002
 51
120.000003
  0
ARC
  8
CSLAYER1
  6
CONTINUOUS
 62
     6
 10
114.349849
 20
110.443857
 40
2.500000
 50
240.000007
 51
299.999995
  0
ARC
  8
CSLAYER1
  6
CONTINUOUS
 62
     6
 10
114.349849
 20
106.113718
 40
2.500000
 50
59.999995
 51
119.999990
  0
ARC
  8
CSLAYER1
  6
CONTINUOUS
 62
     6
 10
116.849849
 20
106.113718
 40
2.500000
 50
59.999995
 51
119.999990
  0
ARC
  8
CSLAYER1
  6
CONTINUOUS
 62
     6
 10
101.831662
 20
106.886915
 40
16.327621
 50
-34.633093
 51
4.890180
  0
LINE
  8
CSLAYER1
  6
CONTINUOUS
 62
     6
 10
115.266171
 20
97.607618
 11
111.173688
 21
100.434324
  0
ARC
  8
CSLAYER1
  6
CONTINUOUS
 62
     6
 10
101.831662
 20
106.886915
 40
11.353822
 50
-34.633120
 51
7.041553
  0
LINE
  8
CSLAYER1
  6
CONTINUOUS
 62
     6
 10
111.855756
 20
99.963193
 11
109.496197
 21
97.674284
  0
LINE
  8
CSLAYER1
  6
CONTINUOUS
 62
     6
 10
109.725720
 20
97.215238
 11
108.906018
 21
96.657835
  0
LINE
  8
CSLAYER1
  6
CONTINUOUS
 62
     6
 10
109.069958
 20
96.297163
 11
110.053616
 21
97.182462
  0
LINE
  8
CSLAYER1
  6
CONTINUOUS
 62
     6
 10
110.381512
 20
96.952940
 11
112.537823
 21
99.492078
  0
LINE
  8
CSLAYER1
  6
CONTINUOUS
 62
     6
 10
113.219922
 20
99.020963
 11
111.365170
 21
96.395521
  0
LINE
  8
CSLAYER1
  6
CONTINUOUS
 62
     6
 10
110.971707
 20
96.461103
 11
110.250348
 21
95.641386
  0
LINE
  8
CSLAYER1
  6
CONTINUOUS
 62
     6
 10
109.758527
 20
95.870908
 11
110.676602
 21
96.657835
  0
LINE
  8
CSLAYER1
  6
CONTINUOUS
 62
     6
 10
111.988156
 20
96.002058
 11
111.168439
 21
95.051176
  0
LINE
  8
CSLAYER1
  6
CONTINUOUS
 62
     6
 10
112.217679
 20
95.543012
 11
113.901990
 21
98.549848
  0
LINE
  8
CSLAYER1
  6
CONTINUOUS
 62
     6
 10
114.584088
 20
98.078733
 11
113.365292
 21
95.149549
  0
LINE
  8
CSLAYER1
  6
CONTINUOUS
 62
     6
 10
112.775098
 20
95.247922
 11
112.447201
 21
94.297025
  0
LINE
  8
CSLAYER1
  6
CONTINUOUS
 62
     6
 10
78.099880
 20
118.989038
 11
78.099880
 21
170.989038
  0
ARC
  8
CSLAYER1
  6
CONTINUOUS
 62
     6
 10
72.099880
 20
170.989038
 40
6.000000
 50
0.000000
 51
90.000003
  0
LINE
  8
CSLAYER1
  6
CONTINUOUS
 62
     6
 10
72.099880
 20
176.989038
 11
20.099941
 21
176.989038
  0
ARC
  8
CSLAYER1
  6
CONTINUOUS
 62
     6
 10
20.099880
 20
170.989038
 40
6.000000
 50
90.000000
 51
180.000003
  0
LINE
  8
CSLAYER1
  6
CONTINUOUS
 62
     6
 10
14.099941
 20
170.989038
 11
14.099941
 21
118.989038
  0
ARC
  8
CSLAYER1
  6
CONTINUOUS
 62
     6
 10
20.099880
 20
118.989038
 40
6.000000
 50
180.000000
 51
270.000003
  0
LINE
  8
CSLAYER1
  6
CONTINUOUS
 62
     6
 10
20.099941
 20
112.989038
 11
35.419825
 21
112.989038
  0
LINE
  8
CSLAYER1
  6
CONTINUOUS
 62
     6
 10
36.003625
 20
115.099019
 11
34.574802
 21
109.934943
  0
ARC
  8
CSLAYER1
  6
CONTINUOUS
 62
     6
 10
35.202098
 20
110.552113
 40
0.880005
 50
224.534030
 51
284.534032
  0
ARC
  8
CSLAYER1
  6
CONTINUOUS
 62
     6
 10
36.050237
 20
110.317446
 40
0.880005
 50
224.534030
 51
284.534032
  0
ARC
  8
CSLAYER1
  6
CONTINUOUS
 62
     6
 10
36.898376
 20
110.082779
 40
0.880005
 50
224.534030
 51
284.534032
  0
ARC
  8
CSLAYER1
  6
CONTINUOUS
 62
     6
 10
37.746515
 20
109.848111
 40
0.880005
 50
224.534030
 51
284.534032
  0
LINE
  8
CSLAYER1
  6
CONTINUOUS
 62
     6
 10
37.967358
 20
108.996274
 11
39.396181
 21
114.160350
  0
LINE
  8
CSLAYER1
  6
CONTINUOUS
 62
     6
 10
39.072096
 20
112.989038
 11
43.599893
 21
112.989038
  0
ARC
  8
CSLAYER1
  6
CONTINUOUS
 62
     6
 10
46.099880
 20
144.989038
 40
31.000000
 50
264.072307
 51
265.374374
  0
ARC
  8
CSLAYER1
  6
CONTINUOUS
 62
     6
 10
41.714106
 20
115.075354
 40
1.500000
 50
254.534033
 51
344.534033
  0
LINE
  8
CSLAYER1
  6
CONTINUOUS
 62
     6
 10
41.314107
 20
113.629671
 11
34.085689
 21
115.629665
  0
ARC
  8
CSLAYER1
  6
CONTINUOUS
 62
     6
 10
34.485688
 20
117.075349
 40
1.500000
 50
164.534033
 51
254.534033
  0
LINE
  8
CSLAYER1
  6
CONTINUOUS
 62
     6
 10
33.040005
 20
117.475348
 11
43.159789
 21
114.675355
  0
ARC
  8
CSLAYER1
  6
CONTINUOUS
 62
     6
 10
46.099880
 20
144.989038
 40
30.000017
 50
-85.219785
 51
265.219837
  0
LINE
  8
CSLAYER1
  6
CONTINUOUS
 62
     6
 10
48.599893
 20
115.989038
 11
48.599893
 21
105.742896
  0
ARC
  8
CSLAYER1
  6
CONTINUOUS
 62
     6
 10
47.349893
 20
107.907958
 40
2.500000
 50
240.000042
 51
300.000044
  0
ARC
  8
CSLAYER1
  6
CONTINUOUS
 62
     6
 10
44.849893
 20
107.907958
 40
2.500000
 50
240.000042
 51
300.000044
  0
LINE
  8
CSLAYER1
  6
CONTINUOUS
 62
     6
 10
43.599893
 20
105.742896
 11
43.599893
 21
115.989038
  0
LINE
  8
CSLAYER1
  6
CONTINUOUS
 62
     6
 10
41.776852
 20
115.302131
 11
41.714106
 21
115.075354
  0
LINE
  8
CSLAYER1
  6
CONTINUOUS
 62
     6
 10
41.099880
 20
115.989038
 11
51.099880
 21
115.989038
  0
LINE
  8
CSLAYER1
  6
CONTINUOUS
 62
     6
 10
51.099880
 20
115.989038
 11
51.099880
 21
117.947404
  0
ARC
  8
CSLAYER1
  6
CONTINUOUS
 62
     6
 10
46.099880
 20
144.989038
 40
31.000000
 50
-85.374324
 51
244.995759
  0
LINE
  8
CSLAYER1
  6
CONTINUOUS
 62
     6
 10
34.485688
 20
117.075349
 11
34.548434
 21
117.302126
  0
LINE
  8
CSLAYER1
  6
CONTINUOUS
 62
     6
 10
37.699903
 20
114.629685
 11
36.271080
 21
109.465609
  0
ARC
  8
CSLAYER1
  6
CONTINUOUS
 62
     6
 10
35.643785
 20
108.848438
 40
0.880005
 50
44.534022
 51
104.534010
  0
ARC
  8
CSLAYER1
  6
CONTINUOUS
 62
     6
 10
34.441040
 20
107.801485
 40
0.879999
 50
44.534377
 51
104.534365
  0
ARC
  8
CSLAYER1
  6
CONTINUOUS
 62
     6
 10
34.847493
 20
109.270493
 40
0.879999
 50
224.534385
 51
284.534387
  0
ARC
  8
CSLAYER1
  6
CONTINUOUS
 62
     6
 10
35.289180
 20
107.566818
 40
0.879999
 50
44.534377
 51
104.534365
  0
ARC
  8
CSLAYER1
  6
CONTINUOUS
 62
     6
 10
36.543771
 20
108.801158
 40
0.879999
 50
224.533689
 51
284.533690
  0
ARC
  8
CSLAYER1
  6
CONTINUOUS
 62
     6
 10
36.137319
 20
107.332151
 40
0.879999
 50
44.533687
 51
104.533689
  0
ARC
  8
CSLAYER1
  6
CONTINUOUS
 62
     6
 10
48.067046
 20
104.822107
 40
12.607053
 50
164.533933
 51
191.997850
  0
LINE
  8
CSLAYER1
  6
CONTINUOUS
 62
     6
 10
35.735374
 20
102.201407
 11
37.456925
 21
102.567283
  0
ARC
  8
CSLAYER1
  6
CONTINUOUS
 62
     6
 10
48.067046
 20
104.822107
 40
10.847068
 50
164.533960
 51
191.997850
  0
ARC
  8
CSLAYER1
  6
CONTINUOUS
 62
     6
 10
36.985458
 20
107.097483
 40
0.879999
 50
44.533687
 51
104.533689
  0
ARC
  8
CSLAYER1
  6
CONTINUOUS
 62
     6
 10
23.765904
 20
111.545869
 40
12.607053
 50
317.070225
 51
344.534143
  0
LINE
  8
CSLAYER1
  6
CONTINUOUS
 62
     6
 10
32.996657
 20
102.959169
 11
31.708015
 21
104.157920
  0
ARC
  8
CSLAYER1
  6
CONTINUOUS
 62
     6
 10
23.765904
 20
111.545869
 40
10.847068
 50
317.070225
 51
344.534116
  0
ARC
  8
CSLAYER1
  6
CONTINUOUS
 62
     6
 10
37.022743
 20
112.182264
 40
5.250000
 50
254.007657
 51
255.060304
  0
ARC
  8
CSLAYER1
  6
CONTINUOUS
 62
     6
 10
37.340063
 20
108.379104
 40
0.880005
 50
44.534022
 51
104.534010
  0
ARC
  8
CSLAYER1
  6
CONTINUOUS
 62
     6
 10
44.849893
 20
103.577834
 40
2.500000
 50
60.000050
 51
120.000039
  0
ARC
  8
CSLAYER1
  6
CONTINUOUS
 62
     6
 10
61.858885
 20
106.837353
 40
15.759004
 50
184.063997
 51
192.084441
  0
ARC
  8
CSLAYER1
  6
CONTINUOUS
 62
     6
 10
47.349893
 20
105.536208
 40
2.500000
 50
240.000028
 51
300.000030
  0
ARC
  8
CSLAYER1
  6
CONTINUOUS
 62
     6
 10
47.349893
 20
101.206084
 40
2.500000
 50
60.000050
 51
120.000039
  0
ARC
  8
CSLAYER1
  6
CONTINUOUS
 62
     6
 10
44.849893
 20
101.206084
 40
2.500000
 50
60.000050
 51
120.000039
  0
ARC
  8
CSLAYER1
  6
CONTINUOUS
 62
     6
 10
32.331705
 20
101.979285
 40
11.353822
 50
-34.633057
 51
7.041588
  0
LINE
  8
CSLAYER1
  6
CONTINUOUS
 62
     6
 10
41.673715
 20
95.526694
 11
45.766214
 21
92.699988
  0
ARC
  8
CSLAYER1
  6
CONTINUOUS
 62
     6
 10
32.331705
 20
101.979285
 40
16.327621
 50
-34.633057
 51
4.890242
  0
ARC
  8
CSLAYER1
  6
CONTINUOUS
 62
     6
 10
61.858885
 20
106.837353
 40
13.559023
 50
185.156199
 51
207.464006
  0
LINE
  8
CSLAYER1
  6
CONTINUOUS
 62
     6
 10
49.827949
 20
100.584059
 11
48.527425
 21
99.908085
  0
LINE
  8
CSLAYER1
  6
CONTINUOUS
 62
     6
 10
48.480219
 20
99.567496
 11
49.815422
 21
96.632998
  0
LINE
  8
CSLAYER1
  6
CONTINUOUS
 62
     6
 10
50.466105
 20
96.971204
 11
48.851927
 21
100.076761
  0
LINE
  8
CSLAYER1
  6
CONTINUOUS
 62
     6
 10
49.339943
 20
100.330408
 11
51.116788
 21
97.309410
  0
LINE
  8
CSLAYER1
  6
CONTINUOUS
 62
     6
 10
45.084116
 20
93.171103
 11
43.865335
 21
90.241919
  0
LINE
  8
CSLAYER1
  6
CONTINUOUS
 62
     6
 10
43.275141
 20
90.340292
 11
42.947244
 21
89.389395
  0
LINE
  8
CSLAYER1
  6
CONTINUOUS
 62
     6
 10
42.717722
 20
90.635382
 11
44.402048
 21
93.642218
  0
LINE
  8
CSLAYER1
  6
CONTINUOUS
 62
     6
 10
43.719950
 20
94.113333
 11
41.865213
 21
91.487891
  0
LINE
  8
CSLAYER1
  6
CONTINUOUS
 62
     6
 10
41.471750
 20
91.553473
 11
40.750376
 21
90.733756
  0
LINE
  8
CSLAYER1
  6
CONTINUOUS
 62
     6
 10
40.258554
 20
90.963278
 11
41.176645
 21
91.750205
  0
LINE
  8
CSLAYER1
  6
CONTINUOUS
 62
     6
 10
40.881540
 20
92.045310
 11
43.037882
 21
94.584448
  0
LINE
  8
CSLAYER1
  6
CONTINUOUS
 62
     6
 10
42.355783
 20
95.055563
 11
39.996256
 21
92.766654
  0
LINE
  8
CSLAYER1
  6
CONTINUOUS
 62
     6
 10
40.225778
 20
92.307608
 11
39.406046
 21
91.750205
  0
LINE
  8
CSLAYER1
  6
CONTINUOUS
 62
     6
 10
39.569986
 20
91.389533
 11
40.553659
 21
92.274832
  0
LINE
  8
CSLAYER1
  6
CONTINUOUS
 62
     6
 10
42.488199
 20
91.094428
 11
41.668466
 21
90.143546
  0
LINE
  8
CSLAYER1
  6
CONTINUOUS
 62
     6
 10
41.733660
 20
96.971202
 11
43.347836
 21
100.076760
  0
LINE
  8
CSLAYER1
  6
CONTINUOUS
 62
     6
 10
43.510308
 20
99.992303
 11
42.371839
 21
100.584045
  0
ARC
  8
CSLAYER1
  6
CONTINUOUS
 62
     6
 10
30.340902
 20
106.837180
 40
13.558951
 50
332.536637
 51
354.844607
  0
ARC
  8
CSLAYER1
  6
CONTINUOUS
 62
     6
 10
30.340902
 20
106.837180
 40
15.758933
 50
347.916194
 51
355.936489
  0
LINE
  8
CSLAYER1
  6
CONTINUOUS
 62
     6
 10
42.859820
 20
100.330407
 11
41.082977
 21
97.309408
  0
LINE
  8
CSLAYER1
  6
CONTINUOUS
 62
     6
 10
37.342702
 20
100.483499
 11
36.876966
 21
102.444038
  0
LINE
  8
CSLAYER1
  6
CONTINUOUS
 62
     6
 10
36.445771
 20
102.352397
 11
36.873980
 21
100.372159
  0
LINE
  8
CSLAYER1
  6
CONTINUOUS
 62
     6
 10
36.412373
 20
100.272341
 11
36.094644
 21
102.277770
  0
LINE
  8
CSLAYER1
  6
CONTINUOUS
 62
     6
 10
32.727735
 20
103.209343
 11
31.332986
 21
101.543285
  0
LINE
  8
CSLAYER1
  6
CONTINUOUS
 62
     6
 10
30.964159
 20
101.852037
 11
32.464906
 21
103.453842
  0
LINE
  8
CSLAYER1
  6
CONTINUOUS
 62
     6
 10
32.142141
 20
103.754093
 11
30.610025
 21
102.183797
  0
LINE
  8
CSLAYER1
  6
CONTINUOUS
 62
     6
 10
41.099880
 20
115.989038
 11
41.099880
 21
117.947404
  0
LINE
  8
CSLAYER1
  6
CONTINUOUS
 62
     6
 10
48.599893
 20
112.989038
 11
72.099880
 21
112.989038
  0
ARC
  8
CSLAYER1
  6
CONTINUOUS
 62
     6
 10
72.099880
 20
118.989038
 40
6.000000
 50
269.999997
 51
360.000000
  0
CIRCLE
  8
CSLAYER1
  6
CONTINUOUS
 62
     6
 10
72.099880
 20
118.989038
 40
2.250000
  0
ARC
  8
CSLAYER1
  6
CONTINUOUS
 62
     6
 10
62.793173
 20
127.363883
 40
1.080000
 50
134.816098
 51
224.816098
  0
LINE
  8
CSLAYER1
  6
CONTINUOUS
 62
     6
 10
62.031953
 20
128.130005
 11
61.651343
 21
128.513066
  0
ARC
  8
CSLAYER1
  6
CONTINUOUS
 62
     6
 10
60.890122
 20
129.279189
 40
1.080000
 50
224.816098
 51
314.816098
  0
LINE
  8
CSLAYER1
  6
CONTINUOUS
 62
     6
 10
60.124000
 20
128.517969
 11
59.740939
 21
128.137359
  0
ARC
  8
CSLAYER1
  6
CONTINUOUS
 62
     6
 10
58.974816
 20
127.376138
 40
1.080000
 50
-45.183902
 51
44.816098
  0
LINE
  8
CSLAYER1
  6
CONTINUOUS
 62
     6
 10
59.736036
 20
126.610016
 11
60.116646
 21
126.226955
  0
ARC
  8
CSLAYER1
  6
CONTINUOUS
 62
     6
 10
60.877867
 20
125.460832
 40
1.080000
 50
44.816098
 51
134.816098
  0
LINE
  8
CSLAYER1
  6
CONTINUOUS
 62
     6
 10
61.643989
 20
126.222052
 11
62.027050
 21
126.602662
  0
CIRCLE
  8
CSLAYER1
  6
CONTINUOUS
 62
     6
 10
60.883994
 20
127.370010
 40
2.500000
  0
CIRCLE
  8
CSLAYER1
  6
CONTINUOUS
 62
     6
 10
46.099880
 20
144.989038
 40
27.500000
  0
CIRCLE
  8
CSLAYER1
  6
CONTINUOUS
 62
     6
 10
20.099880
 20
118.989038
 40
2.250000
  0
ARC
  8
CSLAYER1
  6
CONTINUOUS
 62
     6
 10
31.309638
 20
160.698875
 40
1.080000
 50
44.816098
 51
134.816098
  0
LINE
  8
CSLAYER1
  6
CONTINUOUS
 62
     6
 10
32.075761
 20
161.460095
 11
32.458822
 21
161.840705
  0
ARC
  8
CSLAYER1
  6
CONTINUOUS
 62
     6
 10
33.224944
 20
162.601925
 40
1.080000
 50
134.816098
 51
224.816098
  0
LINE
  8
CSLAYER1
  6
CONTINUOUS
 62
     6
 10
32.463724
 20
163.368048
 11
32.083114
 21
163.751109
  0
ARC
  8
CSLAYER1
  6
CONTINUOUS
 62
     6
 10
31.321894
 20
164.517231
 40
1.080000
 50
224.816098
 51
314.816098
  0
LINE
  8
CSLAYER1
  6
CONTINUOUS
 62
     6
 10
30.555771
 20
163.756011
 11
30.172710
 21
163.375401
  0
ARC
  8
CSLAYER1
  6
CONTINUOUS
 62
     6
 10
29.406587
 20
162.614181
 40
1.080000
 50
-45.183902
 51
44.816098
  0
LINE
  8
CSLAYER1
  6
CONTINUOUS
 62
     6
 10
30.167808
 20
161.848058
 11
30.548418
 21
161.464997
  0
CIRCLE
  8
CSLAYER1
  6
CONTINUOUS
 62
     6
 10
31.315766
 20
162.608053
 40
2.500000
  0
CIRCLE
  8
CSLAYER1
  6
CONTINUOUS
 62
     6
 10
20.099880
 20
170.989038
 40
2.250000
  0
CIRCLE
  8
CSLAYER1
  6
CONTINUOUS
 62
     6
 10
72.099880
 20
170.989038
 40
2.250000
  0
LINE
  8
CSLAYER1
  6
CONTINUOUS
 62
     6
 10
98.599865
 20
213.836129
 11
121.599819
 21
213.836129
  0
LINE
  8
CSLAYER1
  6
CONTINUOUS
 62
     6
 10
121.599865
 20
211.336146
 11
121.599865
 21
271.336146
  0
LINE
  8
CSLAYER1
  6
CONTINUOUS
 62
     6
 10
121.599865
 20
271.336146
 11
162.599865
 21
271.336146
  0
LINE
  8
CSLAYER1
  6
CONTINUOUS
 62
     6
 10
162.599819
 20
271.336146
 11
162.599819
 21
211.336146
  0
LINE
  8
CSLAYER1
  6
CONTINUOUS
 62
     6
 10
162.599865
 20
211.336146
 11
121.599865
 21
211.336146
  0
LINE
  8
CSLAYER1
  6
CONTINUOUS
 62
     6
 10
128.599865
 20
211.336146
 11
128.599865
 21
271.336146
  0
LINE
  8
CSLAYER1
  6
CONTINUOUS
 62
     6
 10
121.599819
 20
268.836129
 11
98.599865
 21
268.836129
  0
ARC
  8
CSLAYER1
  6
CONTINUOUS
 62
     6
 10
98.599865
 20
266.836129
 40
2.000000
 50
90.000000
 51
180.000000
  0
LINE
  8
CSLAYER1
  6
CONTINUOUS
 62
     6
 10
96.599865
 20
266.836129
 11
96.599865
 21
215.836129
  0
ARC
  8
CSLAYER1
  6
CONTINUOUS
 62
     6
 10
98.599865
 20
215.836129
 40
2.000000
 50
180.000000
 51
270.000000
  0
LINE
  8
CSLAYER1
  6
CONTINUOUS
 62
     6
 10
162.599819
 20
211.824917
 11
190.599865
 21
211.336146
  0
LINE
  8
CSLAYER1
  6
CONTINUOUS
 62
     6
 10
190.599819
 20
210.336129
 11
287.599849
 21
210.336129
  0
LINE
  8
CSLAYER1
  6
CONTINUOUS
 62
     6
 10
287.599849
 20
210.336129
 11
287.599849
 21
272.336129
  0
LINE
  8
CSLAYER1
  6
CONTINUOUS
 62
     6
 10
287.599849
 20
272.336129
 11
190.599819
 21
272.336129
  0
LINE
  8
CSLAYER1
  6
CONTINUOUS
 62
     6
 10
190.599819
 20
272.336129
 11
190.599819
 21
210.336129
  0
LINE
  8
CSLAYER1
  6
CONTINUOUS
 62
     6
 10
190.599849
 20
174.989035
 11
162.599849
 21
174.500274
  0
LINE
  8
CSLAYER1
  6
CONTINUOUS
 62
     6
 10
162.599819
 20
270.847376
 11
190.599865
 21
271.336146
  0
LINE
  8
CSLAYER1
  6
CONTINUOUS
 62
     6
 10
287.599849
 20
271.336129
 11
288.599849
 21
271.336129
  0
ARC
  8
CSLAYER1
  6
CONTINUOUS
 62
     6
 10
290.599849
 20
271.336129
 40
2.000000
 50
90.000000
 51
180.000000
  0
LINE
  8
CSLAYER1
  6
CONTINUOUS
 62
     6
 10
290.599849
 20
273.336129
 11
297.599849
 21
273.336129
  0
LINE
  8
CSLAYER1
  6
CONTINUOUS
 62
     6
 10
297.599849
 20
273.336129
 11
297.599849
 21
209.336129
  0
LINE
  8
CSLAYER1
  6
CONTINUOUS
 62
     6
 10
297.599849
 20
209.336129
 11
290.599849
 21
209.336129
  0
ARC
  8
CSLAYER1
  6
CONTINUOUS
 62
     6
 10
290.599849
 20
211.336129
 40
2.000000
 50
180.000000
 51
270.000000
  0
LINE
  8
CSLAYER1
  6
CONTINUOUS
 62
     6
 10
288.599849
 20
211.336129
 11
288.599849
 21
271.336129
  0
LINE
  8
CSLAYER1
  6
CONTINUOUS
 62
     6
 10
297.599849
 20
256.336129
 11
299.599849
 21
256.336129
  0
LINE
  8
CSLAYER1
  6
CONTINUOUS
 62
     6
 10
299.599849
 20
256.336129
 11
299.599849
 21
226.336129
  0
LINE
  8
CSLAYER1
  6
CONTINUOUS
 62
     6
 10
299.599849
 20
226.336129
 11
297.599849
 21
226.336129
  0
LINE
  8
CSLAYER1
  6
CONTINUOUS
 62
     6
 10
299.599849
 20
237.336129
 11
324.099849
 21
237.336129
  0
LINE
  8
CSLAYER1
  6
CONTINUOUS
 62
     6
 10
324.099849
 20
237.336129
 11
324.099849
 21
245.336129
  0
LINE
  8
CSLAYER1
  6
CONTINUOUS
 62
     6
 10
324.099849
 20
245.336129
 11
299.599849
 21
245.336129
  0
LINE
  8
CSLAYER1
  6
CONTINUOUS
 62
     6
 10
288.599849
 20
211.336129
 11
287.599849
 21
211.336129
  0
LINE
  8
CSLAYER1
  6
CONTINUOUS
 62
     6
 10
290.599849
 20
176.989029
 11
297.599849
 21
176.989029
  0
LINE
  8
CSLAYER1
  6
CONTINUOUS
 62
     6
 10
297.599849
 20
176.989029
 11
297.599849
 21
112.989029
  0
LINE
  8
CSLAYER1
  6
CONTINUOUS
 62
     6
 10
297.599849
 20
112.989029
 11
290.599849
 21
112.989029
  0
ARC
  8
CSLAYER1
  6
CONTINUOUS
 62
     6
 10
290.599849
 20
114.989029
 40
2.000000
 50
180.000000
 51
270.000000
  0
LINE
  8
CSLAYER1
  6
CONTINUOUS
 62
     6
 10
288.599849
 20
114.989029
 11
288.599849
 21
174.989029
  0
ARC
  8
CSLAYER1
  6
CONTINUOUS
 62
     6
 10
290.599849
 20
174.989029
 40
2.000000
 50
90.000000
 51
180.000000
  0
LINE
  8
CSLAYER1
  6
CONTINUOUS
 62
     6
 10
288.599849
 20
174.989029
 11
287.599849
 21
174.989029
  0
LINE
  8
CSLAYER1
  6
CONTINUOUS
 62
     6
 10
297.599849
 20
159.989029
 11
299.599849
 21
159.989029
  0
LINE
  8
CSLAYER1
  6
CONTINUOUS
 62
     6
 10
299.599849
 20
159.989029
 11
299.599849
 21
129.989029
  0
LINE
  8
CSLAYER1
  6
CONTINUOUS
 62
     6
 10
299.599849
 20
129.989029
 11
297.599849
 21
129.989029
  0
LINE
  8
CSLAYER1
  6
CONTINUOUS
 62
     6
 10
299.599849
 20
140.989029
 11
324.099849
 21
140.989029
  0
LINE
  8
CSLAYER1
  6
CONTINUOUS
 62
     6
 10
324.099849
 20
140.989029
 11
324.099849
 21
148.989029
  0
LINE
  8
CSLAYER1
  6
CONTINUOUS
 62
     6
 10
324.099849
 20
148.989029
 11
299.599849
 21
148.989029
  0
LINE
  8
CSLAYER1
  6
CONTINUOUS
 62
     6
 10
288.599849
 20
114.989029
 11
287.599849
 21
114.989029
  0
LINE
  8
CSLAYER1
  6
CONTINUOUS
 62
     6
 10
290.599880
 20
80.641924
 11
297.599880
 21
80.641924
  0
LINE
  8
CSLAYER1
  6
CONTINUOUS
 62
     6
 10
297.599880
 20
80.641924
 11
297.599880
 21
16.641924
  0
LINE
  8
CSLAYER1
  6
CONTINUOUS
 62
     6
 10
297.599880
 20
16.641924
 11
290.599880
 21
16.641924
  0
ARC
  8
CSLAYER1
  6
CONTINUOUS
 62
     6
 10
290.599880
 20
18.641924
 40
2.000000
 50
180.000000
 51
270.000000
  0
LINE
  8
CSLAYER1
  6
CONTINUOUS
 62
     6
 10
288.599880
 20
18.641924
 11
288.599880
 21
78.641924
  0
LINE
  8
CSLAYER1
  6
CONTINUOUS
 62
     6
 10
288.599880
 20
78.641924
 11
287.599880
 21
78.641924
  0
ARC
  8
CSLAYER1
  6
CONTINUOUS
 62
     6
 10
290.599880
 20
78.641924
 40
2.000000
 50
90.000000
 51
180.000000
  0
LINE
  8
CSLAYER1
  6
CONTINUOUS
 62
     6
 10
297.599880
 20
63.641924
 11
299.599880
 21
63.641924
  0
LINE
  8
CSLAYER1
  6
CONTINUOUS
 62
     6
 10
299.599880
 20
63.641924
 11
299.599880
 21
33.641924
  0
LINE
  8
CSLAYER1
  6
CONTINUOUS
 62
     6
 10
299.599880
 20
33.641924
 11
297.599880
 21
33.641924
  0
LINE
  8
CSLAYER1
  6
CONTINUOUS
 62
     6
 10
299.599880
 20
44.641924
 11
324.099880
 21
44.641924
  0
LINE
  8
CSLAYER1
  6
CONTINUOUS
 62
     6
 10
324.099880
 20
44.641924
 11
324.099880
 21
52.641924
  0
LINE
  8
CSLAYER1
  6
CONTINUOUS
 62
     6
 10
324.099880
 20
52.641924
 11
299.599880
 21
52.641924
  0
LINE
  8
CSLAYER1
  6
CONTINUOUS
 62
     6
 10
288.599880
 20
18.641924
 11
287.599880
 21
18.641924
  0
ARC
  8
CSLAYER1
  6
CONTINUOUS
 62
     6
 10
344.599880
 20
118.989031
 40
6.000000
 50
180.000000
 51
270.000003
  0
LINE
  8
CSLAYER1
  6
CONTINUOUS
 62
     6
 10
338.599880
 20
118.989092
 11
338.599880
 21
170.989031
  0
ARC
  8
CSLAYER1
  6
CONTINUOUS
 62
     6
 10
344.599880
 20
170.989031
 40
6.000000
 50
90.000000
 51
180.000003
  0
LINE
  8
CSLAYER1
  6
CONTINUOUS
 62
     6
 10
344.599880
 20
176.989031
 11
396.599880
 21
176.989031
  0
ARC
  8
CSLAYER1
  6
CONTINUOUS
 62
     6
 10
396.599880
 20
170.989031
 40
6.000000
 50
-0.000003
 51
90.000000
  0
LINE
  8
CSLAYER1
  6
CONTINUOUS
 62
     6
 10
402.599880
 20
170.989031
 11
402.599880
 21
118.989092
  0
ARC
  8
CSLAYER1
  6
CONTINUOUS
 62
     6
 10
396.599880
 20
118.989031
 40
6.000000
 50
-90.000000
 51
0.000003
  0
LINE
  8
CSLAYER1
  6
CONTINUOUS
 62
     6
 10
396.599880
 20
112.989092
 11
344.599880
 21
112.989092
  0
CIRCLE
  8
CSLAYER1
  6
CONTINUOUS
 62
     6
 10
344.599880
 20
118.989031
 40
2.250000
  0
ARC
  8
CSLAYER1
  6
CONTINUOUS
 62
     6
 10
370.599880
 20
144.301681
 40
11.323712
 50
-37.903087
 51
217.903071
  0
ARC
  8
CSLAYER1
  6
CONTINUOUS
 62
     6
 10
378.602363
 20
138.071258
 40
1.181817
 50
230.236306
 51
322.096613
  0
ARC
  8
CSLAYER1
  6
CONTINUOUS
 62
     6
 10
376.226392
 20
135.215877
 40
2.532799
 50
50.235874
 51
203.481567
  0
LINE
  8
CSLAYER1
  6
CONTINUOUS
 62
     6
 10
373.903330
 20
134.206690
 11
374.408041
 21
132.559347
  0
CIRCLE
  8
CSLAYER1
  6
CONTINUOUS
 62
     6
 10
376.226392
 20
135.215877
 40
1.181817
  0
LINE
  8
CSLAYER1
  6
CONTINUOUS
 62
     6
 10
367.296430
 20
134.206690
 11
366.791719
 21
132.559347
  0
ARC
  8
CSLAYER1
  6
CONTINUOUS
 62
     6
 10
364.973368
 20
135.215877
 40
2.532799
 50
-23.481552
 51
129.764124
  0
ARC
  8
CSLAYER1
  6
CONTINUOUS
 62
     6
 10
362.597397
 20
138.071258
 40
1.181817
 50
217.903402
 51
309.763723
  0
CIRCLE
  8
CSLAYER1
  6
CONTINUOUS
 62
     6
 10
364.973368
 20
135.215877
 40
1.181817
  0
CIRCLE
  8
CSLAYER1
  6
CONTINUOUS
 62
     6
 10
370.599865
 20
144.989031
 40
4.000000
  0
CIRCLE
  8
CSLAYER1
  6
CONTINUOUS
 62
     6
 10
370.599865
 20
144.989031
 40
15.000000
  0
CIRCLE
  8
CSLAYER1
  6
CONTINUOUS
 62
     6
 10
370.599865
 20
144.989031
 40
17.500000
  0
CIRCLE
  8
CSLAYER1
  6
CONTINUOUS
 62
     6
 10
370.599880
 20
144.989031
 40
13.000000
  0
CIRCLE
  8
CSLAYER1
  6
CONTINUOUS
 62
     6
 10
370.599880
 20
144.989031
 40
5.000000
  0
ARC
  8
CSLAYER1
  6
CONTINUOUS
 62
     6
 10
387.570430
 20
128.018511
 40
2.397500
 50
163.398405
 51
196.601566
  0
LINE
  8
CSLAYER1
  6
CONTINUOUS
 62
     6
 10
385.272869
 20
127.333514
 11
386.200435
 21
127.333514
  0
ARC
  8
CSLAYER1
  6
CONTINUOUS
 62
     6
 10
386.200435
 20
126.648516
 40
0.685000
 50
-0.000009
 51
90.000000
  0
LINE
  8
CSLAYER1
  6
CONTINUOUS
 62
     6
 10
386.885433
 20
126.648516
 11
386.885433
 21
125.720965
  0
ARC
  8
CSLAYER1
  6
CONTINUOUS
 62
     6
 10
387.570430
 20
128.018511
 40
2.397500
 50
253.398414
 51
286.601576
  0
LINE
  8
CSLAYER1
  6
CONTINUOUS
 62
     6
 10
388.255428
 20
125.720965
 11
388.255428
 21
126.648516
  0
ARC
  8
CSLAYER1
  6
CONTINUOUS
 62
     6
 10
388.940426
 20
126.648516
 40
0.685000
 50
90.057309
 51
179.999999
  0
LINE
  8
CSLAYER1
  6
CONTINUOUS
 62
     6
 10
388.940426
 20
127.333514
 11
389.867992
 21
127.333514
  0
ARC
  8
CSLAYER1
  6
CONTINUOUS
 62
     6
 10
387.570430
 20
128.018511
 40
2.397500
 50
-16.601576
 51
16.601558
  0
LINE
  8
CSLAYER1
  6
CONTINUOUS
 62
     6
 10
389.867992
 20
128.703509
 11
388.940426
 21
128.703509
  0
ARC
  8
CSLAYER1
  6
CONTINUOUS
 62
     6
 10
388.940426
 20
129.388506
 40
0.685000
 50
179.999999
 51
269.999995
  0
LINE
  8
CSLAYER1
  6
CONTINUOUS
 62
     6
 10
388.255428
 20
129.388506
 11
388.255428
 21
130.316058
  0
ARC
  8
CSLAYER1
  6
CONTINUOUS
 62
     6
 10
387.570430
 20
128.018511
 40
2.397500
 50
73.398396
 51
106.601584
  0
LINE
  8
CSLAYER1
  6
CONTINUOUS
 62
     6
 10
386.885433
 20
130.316058
 11
386.885433
 21
129.388506
  0
ARC
  8
CSLAYER1
  6
CONTINUOUS
 62
     6
 10
386.200435
 20
129.388506
 40
0.685000
 50
269.999995
 51
359.999991
  0
LINE
  8
CSLAYER1
  6
CONTINUOUS
 62
     6
 10
386.200435
 20
128.703509
 11
385.272869
 21
128.703509
  0
CIRCLE
  8
CSLAYER1
  6
CONTINUOUS
 62
     6
 10
387.570430
 20
128.018511
 40
4.500000
  0
CIRCLE
  8
CSLAYER1
  6
CONTINUOUS
 62
     6
 10
387.570430
 20
128.018511
 40
5.500000
  0
CIRCLE
  8
CSLAYER1
  6
CONTINUOUS
 62
     6
 10
396.599880
 20
118.989031
 40
2.250000
  0
CIRCLE
  8
CSLAYER1
  6
CONTINUOUS
 62
     6
 10
396.599880
 20
170.989031
 40
2.250000
  0
LINE
  8
CSLAYER1
  6
CONTINUOUS
 62
     6
 10
355.926891
 20
162.644549
 11
354.999324
 21
162.644549
  0
ARC
  8
CSLAYER1
  6
CONTINUOUS
 62
     6
 10
354.999324
 20
163.329547
 40
0.685000
 50
179.999991
 51
270.000000
  0
LINE
  8
CSLAYER1
  6
CONTINUOUS
 62
     6
 10
354.314327
 20
163.329547
 11
354.314327
 21
164.257098
  0
ARC
  8
CSLAYER1
  6
CONTINUOUS
 62
     6
 10
353.629329
 20
161.959551
 40
2.397500
 50
73.398414
 51
106.601576
  0
LINE
  8
CSLAYER1
  6
CONTINUOUS
 62
     6
 10
352.944332
 20
164.257098
 11
352.944332
 21
163.329547
  0
ARC
  8
CSLAYER1
  6
CONTINUOUS
 62
     6
 10
352.259334
 20
163.329547
 40
0.685000
 50
270.057309
 51
359.999999
  0
LINE
  8
CSLAYER1
  6
CONTINUOUS
 62
     6
 10
352.259334
 20
162.644549
 11
351.331768
 21
162.644549
  0
ARC
  8
CSLAYER1
  6
CONTINUOUS
 62
     6
 10
353.629329
 20
161.959551
 40
2.397500
 50
163.398424
 51
196.601558
  0
LINE
  8
CSLAYER1
  6
CONTINUOUS
 62
     6
 10
351.331768
 20
161.274554
 11
352.259334
 21
161.274554
  0
ARC
  8
CSLAYER1
  6
CONTINUOUS
 62
     6
 10
352.259334
 20
160.589556
 40
0.685000
 50
-0.000001
 51
89.999995
  0
LINE
  8
CSLAYER1
  6
CONTINUOUS
 62
     6
 10
352.944332
 20
160.589556
 11
352.944332
 21
159.662005
  0
ARC
  8
CSLAYER1
  6
CONTINUOUS
 62
     6
 10
353.629329
 20
161.959551
 40
2.397500
 50
253.398396
 51
286.601584
  0
LINE
  8
CSLAYER1
  6
CONTINUOUS
 62
     6
 10
354.314327
 20
159.662005
 11
354.314327
 21
160.589556
  0
ARC
  8
CSLAYER1
  6
CONTINUOUS
 62
     6
 10
354.999324
 20
160.589556
 40
0.685000
 50
89.999995
 51
179.999991
  0
LINE
  8
CSLAYER1
  6
CONTINUOUS
 62
     6
 10
354.999324
 20
161.274554
 11
355.926891
 21
161.274554
  0
ARC
  8
CSLAYER1
  6
CONTINUOUS
 62
     6
 10
353.629329
 20
161.959551
 40
2.397500
 50
-16.601595
 51
16.601566
  0
CIRCLE
  8
CSLAYER1
  6
CONTINUOUS
 62
     6
 10
353.629329
 20
161.959551
 40
4.500000
  0
CIRCLE
  8
CSLAYER1
  6
CONTINUOUS
 62
     6
 10
353.629329
 20
161.959551
 40
5.500000
  0
CIRCLE
  8
CSLAYER1
  6
CONTINUOUS
 62
     6
 10
344.599880
 20
170.989031
 40
2.250000
  0
POLYLINE
  8
CSLAYER1
  6
CONTINUOUS
 62
     6
 66
     1
 10
0.0
 20
0.0
 30
0.0
  0
VERTEX
  8
CSLAYER1
  6
CONTINUOUS
 62
     6
 10
150.684326
 20
114.989051
 30
0.0
  0
VERTEX
  8
CSLAYER1
  6
CONTINUOUS
 62
     6
 10
151.004037
 20
114.895350
 30
0.0
  0
VERTEX
  8
CSLAYER1
  6
CONTINUOUS
 62
     6
 10
151.351113
 20
114.809968
 30
0.0
  0
VERTEX
  8
CSLAYER1
  6
CONTINUOUS
 62
     6
 10
151.722915
 20
114.733553
 30
0.0
  0
VERTEX
  8
CSLAYER1
  6
CONTINUOUS
 62
     6
 10
152.116612
 20
114.666687
 30
0.0
  0
VERTEX
  8
CSLAYER1
  6
CONTINUOUS
 62
     6
 10
152.529207
 20
114.609879
 30
0.0
  0
VERTEX
  8
CSLAYER1
  6
CONTINUOUS
 62
     6
 10
152.957562
 20
114.563562
 30
0.0
  0
VERTEX
  8
CSLAYER1
  6
CONTINUOUS
 62
     6
 10
153.398415
 20
114.528088
 30
0.0
  0
VERTEX
  8
CSLAYER1
  6
CONTINUOUS
 62
     6
 10
153.848412
 20
114.503727
 30
0.0
  0
VERTEX
  8
CSLAYER1
  6
CONTINUOUS
 62
     6
 10
154.304128
 20
114.490664
 30
0.0
  0
VERTEX
  8
CSLAYER1
  6
CONTINUOUS
 62
     6
 10
154.762095
 20
114.488999
 30
0.0
  0
VERTEX
  8
CSLAYER1
  6
CONTINUOUS
 62
     6
 10
155.218826
 20
114.498744
 30
0.0
  0
VERTEX
  8
CSLAYER1
  6
CONTINUOUS
 62
     6
 10
155.670847
 20
114.519826
 30
0.0
  0
VERTEX
  8
CSLAYER1
  6
CONTINUOUS
 62
     6
 10
156.114717
 20
114.552084
 30
0.0
  0
VERTEX
  8
CSLAYER1
  6
CONTINUOUS
 62
     6
 10
156.547058
 20
114.595271
 30
0.0
  0
VERTEX
  8
CSLAYER1
  6
CONTINUOUS
 62
     6
 10
156.964580
 20
114.649061
 30
0.0
  0
VERTEX
  8
CSLAYER1
  6
CONTINUOUS
 62
     6
 10
157.364104
 20
114.713043
 30
0.0
  0
VERTEX
  8
CSLAYER1
  6
CONTINUOUS
 62
     6
 10
157.742591
 20
114.786730
 30
0.0
  0
VERTEX
  8
CSLAYER1
  6
CONTINUOUS
 62
     6
 10
158.097160
 20
114.869562
 30
0.0
  0
VERTEX
  8
CSLAYER1
  6
CONTINUOUS
 62
     6
 10
158.425112
 20
114.960907
 30
0.0
  0
VERTEX
  8
CSLAYER1
  6
CONTINUOUS
 62
     6
 10
158.515373
 20
114.989051
 30
0.0
  0
SEQEND
  0
ENDSEC
  0
EOF
