  0
SECTION
  2
HEADER
  9
$ACADVER
  1
AC1006
  9
$INSBASE
 10
0.000000
 20
0.000000
 30
0.0
  9
$EXTMIN
 10
0.000000
 20
0.000000
  9
$EXTMAX
 10
420.000000
 20
297.000000
  9
$LIMMIN
 10
0.000000
 20
0.000000
  9
$LIMMAX
 10
420.000000
 20
297.000000
  9
$VIEWCTR
 10
210.000000
 20
148.500000
  9
$VIEWSIZE
 40
297.000000
  9
$SNAPMODE
 70
     0
  9
$SNAPUNIT
 10
1.0
 20
1.0
  9
$SNAPBASE
 10
0.0
 20
0.0
  9
$SNAPANG
 50
0.0
  9
$SNAPSTYLE
 70
     0
  9
$SNAPISOPAIR
 70
     0
  9
$GRIDMODE
 70
     0
  9
$GRIDUNIT
 10
0.0
 20
0.0
  9
$ORTHOMODE
 70
     0
  9
$REGENMODE
 70
     1
  9
$FILLMODE
 70
     1
  9
$QTEXTMODE
 70
     0
  9
$DRAGMODE
 70
     2
  9
$LTSCALE
 40
15.000000
  9
$OSMODE
 70
     0
  9
$ATTMODE
 70
     1
  9
$TEXTSIZE
 40
0.2
  9
$TRACEWID
 40
0.05
  9
$TEXTSTYLE
  7
STANDARD
  9
$CLAYER
  8
CSLAYER1
  9
$CELTYPE
  6
BYLAYER
  9
$CECOLOR
 62
   256
  9
$DIMSCALE
 40
1.0
  9
$DIMASZ
 40
0.18
  9
$DIMEXO
 40
0.0625
  9
$DIMDLI
 40
0.38
  9
$DIMRND
 40
0.0
  9
$DIMDLE
 40
0.0
  9
$DIMEXE
 40
0.18
  9
$DIMTP
 40
0.0
  9
$DIMTM
 40
0.0
  9
$DIMTXT
 40
0.18
  9
$DIMCEN
 40
0.09
  9
$DIMTSZ
 40
0.0
  9
$DIMTOL
 70
     0
  9
$DIMLIM
 70
     0
  9
$DIMTIH
 70
     1
  9
$DIMTOH
 70
     1
  9
$DIMSE1
 70
     0
  9
$DIMSE2
 70
     0
  9
$DIMTAD
 70
     0
  9
$DIMZIN
 70
     0
  9
$DIMBLK
  1

  9
$LUNITS
 70
     2
  9
$LUPREC
 70
     4
  9
$AXISMODE
 70
     0
  9
$AXISUNIT
 10
0.0
 20
0.0
  9
$SKETCHINC
 40
0.1
  9
$FILLETRAD
 40
0.0
  9
$AUNITS
 70
     0
  9
$AUPREC
 70
     0
  9
$MENU
  1
ACAD
  9
$ELEVATION
 40
0.0
  9
$THICKNESS
 40
0.0
  9
$VIEWDIR
 10
0.0
 20
0.0
 30
1.0
  9
$LIMCHECK
 70
     0
  9
$BLIPMODE
 70
     1
  9
$CHAMFERA
 40
0.0
  9
$CHAMFERB
 40
0.0
  9
$FASTZOOM
 70
     1
  9
$SKPOLY
 70
     0
  9
$TDCREATE
 40
0.000000
  9
$TDUPDATE
 40
0.000000
  9
$TDINDWG
 40
0.0
  9
$TDUSRTIMER
 40
0.0
  9
$USRTIMER
 70
     1
  9
$ANGBASE
 50
0.0
  9
$ANGDIR
 70
     0
  9
$PDMODE
 70
     0
  9
$PDSIZE
 40
0.0
  9
$PLINEWID
 40
0.0
  9
$COORDS
 70
     0
  9
$USERI1
 70
     0
  9
$USERI2
 70
     0
  9
$USERI3
 70
     0
  9
$USERI4
 70
     0
  9
$USERI5
 70
     0
  9
$USERR1
 40
0.0
  9
$USERR2
 40
0.0
  9
$USERR3
 40
0.0
  9
$USERR4
 40
0.0
  9
$USERR5
 40
0.0
  0
ENDSEC
  0
SECTION
  2
TABLES
  0
TABLE
  2
LTYPE
 70
     9
  0
LTYPE
  2
CONTINUOUS
 70
    64
  3
Solid line
 72
    65
 73
     0
 40
0.0
  0
LTYPE
  2
DASHED
 70
    64
  3
__ __ __ __ __ __ __ __ __ __ __ __ __ __ __
 72
    65
 73
     2
 40
0.75
 49
0.5
 49
-0.25
  0
LTYPE
  2
HIDDEN
 70
    64
  3
_ _ _ _ _ _ _ _ _ _ _ _ _ _ _ _ _ _ _ _ _ _ _
 72
    65
 73
     2
 40
0.375
 49
0.25
 49
-0.125
  0
LTYPE
  2
DOT
 70
    64
  3
...............................................
 72
    65
 73
     2
 40
0.25
 49
0.0
 49
-0.25
  0
LTYPE
  2
DASHDOT
 70
    64
  3
__ . __ . __ . __ . __ . __ . __ . __ . __ . __
 72
    65
 73
     4
 40
1.0
 49
0.5
 49
-0.25
 49
0.0
 49
-0.25
  0
LTYPE
  2
DIVIDE
 70
    64
  3
__ . . __ . . __ . . __ . . __ . . __ . . __
 72
    65
 73
     6
 40
1.25
 49
0.5
 49
-0.25
 49
0.0
 49
-0.25
 49
0.0
 49
-0.25
  0
LTYPE
  2
CENTER
 70
    64
  3
____ _ ____ _ ____ _ ____ _ ____ _ ____ _ ____ 
 72
    65
 73
     4
 40
2.0
 49
1.25
 49
-0.25
 49
0.25
 49
-0.25
  0
LTYPE
  2
PHANTOM
 70
    64
  3
______  __  __  ______  __  __  ______  __  __ 
 72
    65
 73
     6
 40
2.5
 49
1.25
 49
-0.25
 49
0.25
 49
-0.25
 49
0.25
 49
-0.25
  0
LTYPE
  2
BORDER
 70
    64
  3
__ __ . __ __ . __ __ . __ __ . __ __ . __ __ .
 72
    65
 73
     6
 40
1.75
 49
0.5
 49
-0.25
 49
0.5
 49
-0.25
 49
0.0
 49
-0.25
  0
ENDTAB
  0
TABLE
  2
LAYER
 70
    16
  0
LAYER
  2
CSLAYER1
 70
    64
 62
     7
  6
CONTINUOUS
  0
LAYER
  2
CSLAYER2
 70
    64
 62
     7
  6
CONTINUOUS
  0
LAYER
  2
CSLAYER3
 70
    64
 62
     7
  6
CONTINUOUS
  0
LAYER
  2
CSLAYER4
 70
    64
 62
     7
  6
CONTINUOUS
  0
LAYER
  2
CSLAYER5
 70
    64
 62
     7
  6
CONTINUOUS
  0
LAYER
  2
CSLAYER6
 70
    64
 62
     7
  6
CONTINUOUS
  0
LAYER
  2
CSLAYER7
 70
    64
 62
     7
  6
CONTINUOUS
  0
LAYER
  2
CSLAYER8
 70
    64
 62
     7
  6
CONTINUOUS
  0
LAYER
  2
CSLAYER9
 70
    64
 62
     7
  6
CONTINUOUS
  0
LAYER
  2
CSLAYER10
 70
    64
 62
     7
  6
CONTINUOUS
  0
LAYER
  2
CSLAYER11
 70
    64
 62
     7
  6
CONTINUOUS
  0
LAYER
  2
CSLAYER12
 70
    64
 62
     7
  6
CONTINUOUS
  0
LAYER
  2
CSLAYER13
 70
    64
 62
     7
  6
CONTINUOUS
  0
LAYER
  2
CSLAYER14
 70
    64
 62
     7
  6
CONTINUOUS
  0
LAYER
  2
CSLAYER15
 70
    64
 62
     7
  6
CONTINUOUS
  0
LAYER
  2
CSLAYER16
 70
    64
 62
     7
  6
CONTINUOUS
  0
ENDTAB
  0
TABLE
  2
STYLE
 70
     1
  0
STYLE
  2
JX_FONT
 70
     0
 40
1.0
 41
1.0
 50
0.0
 71
     0
 42
1.0
  3
monotxt
  4
bigfont
  0
ENDTAB
  0
TABLE
  2
VIEW
 70
     0
  0
ENDTAB
  0
ENDSEC
  0
SECTION
  2
BLOCKS
  0
ENDSEC
  0
SECTION
  2
ENTITIES
  0
LINE
  8
CSLAYER1
  6
CENTER
 62
     3
 10
86.599849
 20
49.989024
 11
337.099849
 21
49.989024
  0
LINE
  8
CSLAYER1
  6
CENTER
 62
     3
 10
309.599856
 20
75.989027
 11
295.599856
 21
75.989030
  0
LINE
  8
CSLAYER1
  6
CENTER
 62
     3
 10
295.599849
 20
120.336126
 11
309.599849
 21
120.336126
  0
LINE
  8
CSLAYER1
  6
CENTER
 62
     3
 10
344.660579
 20
120.336135
 11
354.599849
 21
120.336135
  0
LINE
  8
CSLAYER1
  6
CENTER
 62
     3
 10
349.599849
 20
115.336135
 11
349.599849
 21
125.336135
  0
LINE
  8
CSLAYER1
  6
CENTER
 62
     3
 10
340.599849
 20
146.336135
 11
410.599849
 21
146.336135
  0
ARC
  8
CSLAYER1
  6
CENTER
 62
     3
 10
375.599849
 20
146.336150
 40
24.000000
 50
294.927254
 51
335.072670
  0
LINE
  8
CSLAYER1
  6
CENTER
 62
     3
 10
387.590574
 20
134.345396
 11
397.550228
 21
124.385756
  0
LINE
  8
CSLAYER1
  6
CENTER
 62
     3
 10
401.599849
 20
125.336135
 11
401.599849
 21
115.396865
  0
LINE
  8
CSLAYER1
  6
CENTER
 62
     3
 10
406.599849
 20
120.336135
 11
396.599849
 21
120.336135
  0
LINE
  8
CSLAYER1
  6
CENTER
 62
     3
 10
375.599849
 20
111.336226
 11
375.599849
 21
181.336104
  0
ARC
  8
CSLAYER1
  6
CENTER
 62
     3
 10
375.599849
 20
146.336119
 40
24.000000
 50
114.927254
 51
155.072670
  0
LINE
  8
CSLAYER1
  6
CENTER
 62
     3
 10
363.609125
 20
158.326874
 11
353.649471
 21
168.286513
  0
LINE
  8
CSLAYER1
  6
CENTER
 62
     3
 10
349.599849
 20
167.336135
 11
349.599849
 21
177.275405
  0
LINE
  8
CSLAYER1
  6
CENTER
 62
     3
 10
344.599849
 20
172.336135
 11
354.599849
 21
172.336135
  0
LINE
  8
CSLAYER1
  6
CENTER
 62
     3
 10
396.599849
 20
172.336135
 11
406.599849
 21
172.336135
  0
LINE
  8
CSLAYER1
  6
CENTER
 62
     3
 10
401.599849
 20
177.275405
 11
401.599849
 21
167.336135
  0
LINE
  8
CSLAYER1
  6
CENTER
 62
     3
 10
337.099859
 20
146.336125
 11
86.599866
 21
146.336144
  0
LINE
  8
CSLAYER1
  6
CENTER
 62
     3
 10
80.099834
 20
146.336119
 11
10.099834
 21
146.336119
  0
ARC
  8
CSLAYER1
  6
CONTINUOUS
 62
     3
 10
29.349834
 20
146.336119
 40
0.250000
 50
90.000001
 51
270.000021
  0
LINE
  8
CSLAYER1
  6
CONTINUOUS
 62
     3
 10
29.349834
 20
146.086119
 11
32.849834
 21
146.086119
  0
ARC
  8
CSLAYER1
  6
CONTINUOUS
 62
     3
 10
32.849834
 20
146.336119
 40
0.250000
 50
-90.000019
 51
90.000001
  0
LINE
  8
CSLAYER1
  6
CONTINUOUS
 62
     3
 10
32.849834
 20
146.586119
 11
29.349834
 21
146.586119
  0
ARC
  8
CSLAYER1
  6
CENTER
 62
     3
 10
45.099834
 20
146.336119
 40
14.000000
 50
200.397443
 51
249.602557
  0
ARC
  8
CSLAYER1
  6
CENTER
 62
     3
 10
45.099834
 20
146.336119
 40
22.000000
 50
212.622854
 51
237.377146
  0
LINE
  8
CSLAYER1
  6
CENTER
 62
     3
 10
26.007947
 20
127.244240
 11
45.099834
 21
146.336119
  0
LINE
  8
CSLAYER1
  6
CENTER
 62
     3
 10
45.099834
 20
146.336119
 11
64.191717
 21
165.428002
  0
LINE
  8
CSLAYER1
  6
CENTER
 62
     3
 10
71.099834
 20
167.336119
 11
71.099834
 21
177.336119
  0
LINE
  8
CSLAYER1
  6
CENTER
 62
     3
 10
76.039104
 20
172.336119
 11
66.099834
 21
172.336119
  0
ARC
  8
CSLAYER1
  6
CENTER
 62
     3
 10
45.099834
 20
146.336119
 40
22.000000
 50
32.622854
 51
57.377146
  0
ARC
  8
CSLAYER1
  6
CENTER
 62
     3
 10
45.099834
 20
146.336119
 40
14.000000
 50
20.397443
 51
69.602557
  0
LINE
  8
CSLAYER1
  6
CENTER
 62
     3
 10
33.234828
 20
158.201132
 11
26.007947
 21
165.427998
  0
LINE
  8
CSLAYER1
  6
CENTER
 62
     3
 10
19.099834
 20
167.336119
 11
19.099834
 21
177.275389
  0
LINE
  8
CSLAYER1
  6
CENTER
 62
     3
 10
14.099834
 20
172.336119
 11
24.099834
 21
172.336119
  0
ARC
  8
CSLAYER1
  6
CENTER
 62
     3
 10
45.099834
 20
146.336119
 40
22.000000
 50
122.622854
 51
147.377146
  0
LINE
  8
CSLAYER1
  6
CENTER
 62
     3
 10
45.099834
 20
181.336119
 11
45.099834
 21
97.980078
  0
LINE
  8
CSLAYER1
  6
CENTER
 62
     3
 10
34.043134
 20
106.374788
 11
37.886570
 21
120.265805
  0
LINE
  8
CSLAYER1
  6
CENTER
 62
     3
 10
24.099834
 20
120.336119
 11
14.099834
 21
120.336119
  0
LINE
  8
CSLAYER1
  6
CENTER
 62
     3
 10
19.099834
 20
115.396849
 11
19.099834
 21
125.336119
  0
ARC
  8
CSLAYER1
  6
CENTER
 62
     3
 10
45.099834
 20
146.336119
 40
22.000000
 50
302.622854
 51
327.377146
  0
LINE
  8
CSLAYER1
  6
CENTER
 62
     3
 10
64.191717
 20
127.244236
 11
56.374599
 21
135.061361
  0
LINE
  8
CSLAYER1
  6
CONTINUOUS
 62
     3
 10
58.849834
 20
144.570898
 11
58.849834
 21
146.086119
  0
LINE
  8
CSLAYER1
  6
CONTINUOUS
 62
     3
 10
58.849834
 20
146.086119
 11
57.349834
 21
146.086119
  0
ARC
  8
CSLAYER1
  6
CONTINUOUS
 62
     3
 10
57.349834
 20
146.336119
 40
0.250000
 50
101.471877
 51
270.000021
  0
LINE
  8
CSLAYER1
  6
CONTINUOUS
 62
     3
 10
57.300113
 20
146.586119
 11
58.849834
 21
146.586119
  0
LINE
  8
CSLAYER1
  6
CONTINUOUS
 62
     3
 10
58.849834
 20
146.586119
 11
58.849834
 21
148.076086
  0
ARC
  8
CSLAYER1
  6
CONTINUOUS
 62
     3
 10
59.099834
 20
148.086119
 40
0.250000
 50
0.000020
 51
182.300752
  0
LINE
  8
CSLAYER1
  6
CONTINUOUS
 62
     3
 10
59.349834
 20
148.086119
 11
59.349834
 21
146.586119
  0
LINE
  8
CSLAYER1
  6
CONTINUOUS
 62
     3
 10
59.349834
 20
146.586119
 11
60.849834
 21
146.586119
  0
ARC
  8
CSLAYER1
  6
CONTINUOUS
 62
     3
 10
60.849834
 20
146.336119
 40
0.250000
 50
-90.000019
 51
90.000001
  0
LINE
  8
CSLAYER1
  6
CONTINUOUS
 62
     3
 10
60.849834
 20
146.086119
 11
59.349834
 21
146.086119
  0
LINE
  8
CSLAYER1
  6
CONTINUOUS
 62
     3
 10
59.349834
 20
146.086119
 11
59.349834
 21
144.586119
  0
ARC
  8
CSLAYER1
  6
CONTINUOUS
 62
     3
 10
59.099834
 20
144.586119
 40
0.250000
 50
-176.508968
 51
0.000020
  0
LINE
  8
CSLAYER1
  6
CENTER
 62
     3
 10
71.099834
 20
125.336119
 11
71.099834
 21
115.396849
  0
LINE
  8
CSLAYER1
  6
CENTER
 62
     3
 10
76.099834
 20
120.336119
 11
66.099834
 21
120.336119
  0
LINE
  8
CSLAYER1
  6
CENTER
 62
     3
 10
100.599834
 20
125.336144
 11
100.599834
 21
167.336144
  0
LINE
  8
CSLAYER1
  6
CENTER
 62
     3
 10
100.599834
 20
216.183306
 11
100.599834
 21
269.183306
  0
LINE
  8
CSLAYER1
  6
CENTER
 62
     3
 10
86.599849
 20
242.683230
 11
337.099849
 21
242.683230
  0
LINE
  8
CSLAYER1
  6
CENTER
 62
     3
 10
309.599856
 20
268.683233
 11
295.599856
 21
268.683236
  0
LINE
  8
CSLAYER1
  6
CONTINUOUS
 62
     3
 10
268.099849
 20
266.183267
 11
268.099849
 21
219.183206
  0
ARC
  8
CSLAYER1
  6
CONTINUOUS
 62
     3
 10
267.099849
 20
219.183206
 40
1.000000
 50
269.999999
 51
359.999995
  0
LINE
  8
CSLAYER1
  6
CONTINUOUS
 62
     3
 10
267.099849
 20
218.183206
 11
231.099849
 21
218.183206
  0
ARC
  8
CSLAYER1
  6
CONTINUOUS
 62
     3
 10
231.099849
 20
219.183206
 40
1.000000
 50
180.000005
 51
270.000001
  0
LINE
  8
CSLAYER1
  6
CONTINUOUS
 62
     3
 10
230.099849
 20
219.183206
 11
230.099849
 21
266.183267
  0
ARC
  8
CSLAYER1
  6
CONTINUOUS
 62
     3
 10
231.099849
 20
266.183267
 40
1.000000
 50
90.000009
 51
180.000005
  0
LINE
  8
CSLAYER1
  6
CONTINUOUS
 62
     3
 10
231.099849
 20
267.183267
 11
267.099849
 21
267.183267
  0
ARC
  8
CSLAYER1
  6
CONTINUOUS
 62
     3
 10
267.099849
 20
266.183267
 40
1.000000
 50
-0.000005
 51
89.999991
  0
LINE
  8
CSLAYER1
  6
CENTER
 62
     3
 10
295.599849
 20
216.683226
 11
309.599849
 21
216.683226
  0
LINE
  8
CSLAYER1
  6
CENTER
 62
     3
 10
309.599856
 20
172.336132
 11
295.599856
 21
172.336136
  0
LINE
  8
CSLAYER1
  6
CONTINUOUS
 62
     3
 10
268.099849
 20
177.336139
 11
268.099849
 21
162.836109
  0
ARC
  8
CSLAYER1
  6
CONTINUOUS
 62
     3
 10
267.099849
 20
162.836109
 40
1.000000
 50
269.999999
 51
359.999995
  0
LINE
  8
CSLAYER1
  6
CONTINUOUS
 62
     3
 10
267.099849
 20
161.836109
 11
231.099865
 21
161.836109
  0
ARC
  8
CSLAYER1
  6
CONTINUOUS
 62
     3
 10
231.099865
 20
162.836109
 40
1.000000
 50
180.000005
 51
270.000001
  0
LINE
  8
CSLAYER1
  6
CONTINUOUS
 62
     3
 10
230.099865
 20
162.836109
 11
230.099865
 21
177.336139
  0
LINE
  8
CSLAYER1
  6
CENTER
 62
     3
 10
189.599849
 20
159.336139
 11
189.599849
 21
99.304531
  0
LINE
  8
CSLAYER1
  6
CENTER
 62
     3
 10
172.849849
 20
117.335365
 11
156.349849
 21
117.335365
  0
LINE
  8
CSLAYER1
  6
CONTINUOUS
 62
     3
 10
163.719799
 20
117.335751
 11
163.719799
 21
117.836521
  0
LINE
  8
CSLAYER1
  6
CONTINUOUS
 62
     3
 10
163.719799
 20
118.336521
 11
163.719799
 21
118.836521
  0
LINE
  8
CSLAYER1
  6
CONTINUOUS
 62
     3
 10
165.479900
 20
118.836521
 11
165.479900
 21
118.336521
  0
LINE
  8
CSLAYER1
  6
CONTINUOUS
 62
     3
 10
165.479900
 20
117.836521
 11
165.479900
 21
117.335751
  0
LINE
  8
CSLAYER1
  6
CONTINUOUS
 62
     3
 10
165.479900
 20
116.836521
 11
165.479900
 21
116.336521
  0
LINE
  8
CSLAYER1
  6
CONTINUOUS
 62
     3
 10
163.719799
 20
116.336521
 11
163.719799
 21
116.836521
  0
LINE
  8
CSLAYER1
  6
CENTER
 62
     3
 10
164.599849
 20
122.579170
 11
164.599849
 21
101.571032
  0
LINE
  8
CSLAYER1
  6
CENTER
 62
     3
 10
134.599849
 20
130.736078
 11
122.859962
 21
130.736080
  0
CIRCLE
  8
CSLAYER1
  6
CONTINUOUS
 62
     3
 10
189.599849
 20
146.336139
 40
5.500000
  0
LINE
  8
CSLAYER1
  6
CENTER
 62
     3
 10
134.599849
 20
161.936175
 11
122.859966
 21
161.936175
  0
LINE
  8
CSLAYER1
  6
CENTER
 62
     3
 10
102.099841
 20
135.836131
 11
99.099841
 21
135.836130
  0
LINE
  8
CSLAYER1
  6
CENTER
 62
     3
 10
100.599834
 20
76.489100
 11
100.599834
 21
23.489100
  0
LINE
  8
CSLAYER1
  6
CENTER
 62
     3
 10
122.859962
 20
34.388966
 11
134.599842
 21
34.388963
  0
LINE
  8
CSLAYER1
  6
CENTER
 62
     3
 10
153.540462
 20
41.989025
 11
175.849849
 21
41.989025
  0
LINE
  8
CSLAYER1
  6
CENTER
 62
     3
 10
164.599849
 20
49.208599
 11
164.599849
 21
34.600109
  0
LINE
  8
CSLAYER1
  6
CENTER
 62
     3
 10
189.599849
 20
38.989024
 11
189.599849
 21
60.989024
  0
LINE
  8
CSLAYER1
  6
CENTER
 62
     3
 10
134.599849
 20
65.589060
 11
122.859966
 21
65.589060
  0
LINE
  8
CSLAYER1
  6
CENTER
 62
     3
 10
295.599849
 20
23.989020
 11
309.599849
 21
23.989020
  0
LINE
  8
CSLAYER1
  6
CENTER
 62
     3
 10
134.599842
 20
227.083169
 11
122.859962
 21
227.083172
  0
LINE
  8
CSLAYER1
  6
CENTER
 62
     3
 10
122.859966
 20
258.283266
 11
134.599849
 21
258.283266
  0
TEXT
  8
CSLAYER1
 62
     3
 10
246.637573
 20
174.836121
 40
3.500000
 41
1.125000
  1
N P
 50
270.000000
 51
10.000000
  7
JX_FONT
 72
     5
 11
246.637573
 21
164.336121
  0
POLYLINE
  8
CSLAYER1
  6
CONTINUOUS
 62
     3
 66
     1
 10
0.0
 20
0.0
 30
0.0
  0
VERTEX
  8
CSLAYER1
  6
CONTINUOUS
 62
     3
 10
169.849849
 20
117.335362
 30
0.0
  0
VERTEX
  8
CSLAYER1
  6
CONTINUOUS
 62
     3
 10
169.829872
 20
117.553251
 30
0.0
  0
VERTEX
  8
CSLAYER1
  6
CONTINUOUS
 62
     3
 10
169.770091
 20
117.769482
 30
0.0
  0
VERTEX
  8
CSLAYER1
  6
CONTINUOUS
 62
     3
 10
169.735005
 20
117.855412
 30
0.0
  0
SEQEND
  0
POLYLINE
  8
CSLAYER1
  6
CONTINUOUS
 62
     3
 66
     1
 10
0.0
 20
0.0
 30
0.0
  0
VERTEX
  8
CSLAYER1
  6
CONTINUOUS
 62
     3
 10
159.626998
 20
116.854446
 30
0.0
  0
VERTEX
  8
CSLAYER1
  6
CONTINUOUS
 62
     3
 10
159.792623
 20
116.732444
 30
0.0
  0
VERTEX
  8
CSLAYER1
  6
CONTINUOUS
 62
     3
 10
159.994835
 20
116.615030
 30
0.0
  0
VERTEX
  8
CSLAYER1
  6
CONTINUOUS
 62
     3
 10
160.147600
 20
116.540487
 30
0.0
  0
SEQEND
  0
POLYLINE
  8
CSLAYER1
  6
CONTINUOUS
 62
     3
 66
     1
 10
0.0
 20
0.0
 30
0.0
  0
VERTEX
  8
CSLAYER1
  6
CONTINUOUS
 62
     3
 10
169.464260
 20
118.275767
 30
0.0
  0
VERTEX
  8
CSLAYER1
  6
CONTINUOUS
 62
     3
 10
169.273631
 20
118.474074
 30
0.0
  0
VERTEX
  8
CSLAYER1
  6
CONTINUOUS
 62
     3
 10
169.047431
 20
118.663716
 30
0.0
  0
VERTEX
  8
CSLAYER1
  6
CONTINUOUS
 62
     3
 10
168.787383
 20
118.843248
 30
0.0
  0
VERTEX
  8
CSLAYER1
  6
CONTINUOUS
 62
     3
 10
168.689617
 20
118.902915
 30
0.0
  0
SEQEND
  0
POLYLINE
  8
CSLAYER1
  6
CONTINUOUS
 62
     3
 66
     1
 10
0.0
 20
0.0
 30
0.0
  0
VERTEX
  8
CSLAYER1
  6
CONTINUOUS
 62
     3
 10
168.244789
 20
119.134642
 30
0.0
  0
VERTEX
  8
CSLAYER1
  6
CONTINUOUS
 62
     3
 10
167.901603
 20
119.279070
 30
0.0
  0
VERTEX
  8
CSLAYER1
  6
CONTINUOUS
 62
     3
 10
167.533288
 20
119.408705
 30
0.0
  0
VERTEX
  8
CSLAYER1
  6
CONTINUOUS
 62
     3
 10
167.307701
 20
119.477166
 30
0.0
  0
SEQEND
  0
POLYLINE
  8
CSLAYER1
  6
CONTINUOUS
 62
     3
 66
     1
 10
0.0
 20
0.0
 30
0.0
  0
VERTEX
  8
CSLAYER1
  6
CONTINUOUS
 62
     3
 10
166.823060
 20
119.600142
 30
0.0
  0
VERTEX
  8
CSLAYER1
  6
CONTINUOUS
 62
     3
 10
166.400084
 20
119.683793
 30
0.0
  0
VERTEX
  8
CSLAYER1
  6
CONTINUOUS
 62
     3
 10
165.963408
 20
119.749571
 30
0.0
  0
VERTEX
  8
CSLAYER1
  6
CONTINUOUS
 62
     3
 10
165.837076
 20
119.764953
 30
0.0
  0
SEQEND
  0
POLYLINE
  8
CSLAYER1
  6
CONTINUOUS
 62
     3
 66
     1
 10
0.0
 20
0.0
 30
0.0
  0
VERTEX
  8
CSLAYER1
  6
CONTINUOUS
 62
     3
 10
165.339150
 20
119.810453
 30
0.0
  0
VERTEX
  8
CSLAYER1
  6
CONTINUOUS
 62
     3
 10
164.883329
 20
119.831718
 30
0.0
  0
VERTEX
  8
CSLAYER1
  6
CONTINUOUS
 62
     3
 10
164.425350
 20
119.833984
 30
0.0
  0
VERTEX
  8
CSLAYER1
  6
CONTINUOUS
 62
     3
 10
164.339648
 20
119.832293
 30
0.0
  0
SEQEND
  0
POLYLINE
  8
CSLAYER1
  6
CONTINUOUS
 62
     3
 66
     1
 10
0.0
 20
0.0
 30
0.0
  0
VERTEX
  8
CSLAYER1
  6
CONTINUOUS
 62
     3
 10
163.835693
 20
119.808741
 30
0.0
  0
VERTEX
  8
CSLAYER1
  6
CONTINUOUS
 62
     3
 10
163.385906
 20
119.767615
 30
0.0
  0
VERTEX
  8
CSLAYER1
  6
CONTINUOUS
 62
     3
 10
162.945358
 20
119.707977
 30
0.0
  0
VERTEX
  8
CSLAYER1
  6
CONTINUOUS
 62
     3
 10
162.847365
 20
119.691969
 30
0.0
  0
SEQEND
  0
POLYLINE
  8
CSLAYER1
  6
CONTINUOUS
 62
     3
 66
     1
 10
0.0
 20
0.0
 30
0.0
  0
VERTEX
  8
CSLAYER1
  6
CONTINUOUS
 62
     3
 10
162.356723
 20
119.595685
 30
0.0
  0
VERTEX
  8
CSLAYER1
  6
CONTINUOUS
 62
     3
 10
161.951559
 20
119.493988
 30
0.0
  0
VERTEX
  8
CSLAYER1
  6
CONTINUOUS
 62
     3
 10
161.566550
 20
119.375862
 30
0.0
  0
VERTEX
  8
CSLAYER1
  6
CONTINUOUS
 62
     3
 10
161.396599
 20
119.316093
 30
0.0
  0
SEQEND
  0
POLYLINE
  8
CSLAYER1
  6
CONTINUOUS
 62
     3
 66
     1
 10
0.0
 20
0.0
 30
0.0
  0
VERTEX
  8
CSLAYER1
  6
CONTINUOUS
 62
     3
 10
160.933179
 20
119.124602
 30
0.0
  0
VERTEX
  8
CSLAYER1
  6
CONTINUOUS
 62
     3
 10
160.619653
 20
118.965616
 30
0.0
  0
VERTEX
  8
CSLAYER1
  6
CONTINUOUS
 62
     3
 10
160.336419
 20
118.794224
 30
0.0
  0
VERTEX
  8
CSLAYER1
  6
CONTINUOUS
 62
     3
 10
160.085632
 20
118.611728
 30
0.0
  0
VERTEX
  8
CSLAYER1
  6
CONTINUOUS
 62
     3
 10
160.081222
 20
118.608184
 30
0.0
  0
SEQEND
  0
POLYLINE
  8
CSLAYER1
  6
CONTINUOUS
 62
     3
 66
     1
 10
0.0
 20
0.0
 30
0.0
  0
VERTEX
  8
CSLAYER1
  6
CONTINUOUS
 62
     3
 10
159.722244
 20
118.260140
 30
0.0
  0
VERTEX
  8
CSLAYER1
  6
CONTINUOUS
 62
     3
 10
159.571546
 20
118.054187
 30
0.0
  0
VERTEX
  8
CSLAYER1
  6
CONTINUOUS
 62
     3
 10
159.459117
 20
117.842763
 30
0.0
  0
VERTEX
  8
CSLAYER1
  6
CONTINUOUS
 62
     3
 10
159.385811
 20
117.627478
 30
0.0
  0
VERTEX
  8
CSLAYER1
  6
CONTINUOUS
 62
     3
 10
159.352188
 20
117.409969
 30
0.0
  0
VERTEX
  8
CSLAYER1
  6
CONTINUOUS
 62
     3
 10
159.349849
 20
117.335362
 30
0.0
  0
SEQEND
  0
POLYLINE
  8
CSLAYER1
  6
CONTINUOUS
 62
     3
 66
     1
 10
0.0
 20
0.0
 30
0.0
  0
VERTEX
  8
CSLAYER1
  6
CONTINUOUS
 62
     3
 10
169.038896
 20
116.534482
 30
0.0
  0
VERTEX
  8
CSLAYER1
  6
CONTINUOUS
 62
     3
 10
169.266310
 20
116.648069
 30
0.0
  0
VERTEX
  8
CSLAYER1
  6
CONTINUOUS
 62
     3
 10
169.458210
 20
116.766887
 30
0.0
  0
VERTEX
  8
CSLAYER1
  6
CONTINUOUS
 62
     3
 10
169.570615
 20
116.852689
 30
0.0
  0
SEQEND
  0
TEXT
  8
CSLAYER1
 62
     3
 10
246.469910
 20
247.918655
 40
3.500000
 41
1.125000
  1
N P
 50
-90.000000
 51
10.000000
  7
JX_FONT
 72
     5
 11
246.469910
 21
237.418655
  0
LINE
  8
CSLAYER1
  6
CONTINUOUS
 62
     6
 10
89.599834
 20
32.989024
 11
89.599834
 21
66.989024
  0
LINE
  8
CSLAYER1
  6
CONTINUOUS
 62
     6
 10
89.599834
 20
66.989024
 11
90.599834
 21
67.989024
  0
LINE
  8
CSLAYER1
  6
CONTINUOUS
 62
     6
 10
90.599834
 20
67.989024
 11
90.599834
 21
39.560511
  0
LINE
  8
CSLAYER1
  6
CONTINUOUS
 62
     6
 10
90.599834
 20
39.560511
 11
94.599834
 21
39.560511
  0
LINE
  8
CSLAYER1
  6
CONTINUOUS
 62
     6
 10
94.599834
 20
39.560511
 11
94.599834
 21
35.317836
  0
LINE
  8
CSLAYER1
  6
CONTINUOUS
 62
     6
 10
94.599834
 20
35.317836
 11
90.599834
 21
35.317836
  0
LINE
  8
CSLAYER1
  6
CONTINUOUS
 62
     6
 10
90.599834
 20
35.317836
 11
89.599834
 21
36.317836
  0
LINE
  8
CSLAYER1
  6
CONTINUOUS
 62
     6
 10
90.599834
 20
35.317836
 11
90.599834
 21
31.989024
  0
LINE
  8
CSLAYER1
  6
CONTINUOUS
 62
     6
 10
90.599834
 20
31.989024
 11
89.599834
 21
32.989024
  0
LINE
  8
CSLAYER1
  6
CONTINUOUS
 62
     6
 10
90.599834
 20
31.989024
 11
94.599834
 21
31.989024
  0
ARC
  8
CSLAYER1
  6
CONTINUOUS
 62
     6
 10
100.599817
 20
14.489055
 40
18.500000
 50
93.098552
 51
108.924617
  0
ARC
  8
CSLAYER1
  6
CONTINUOUS
 62
     6
 10
100.599831
 20
33.782727
 40
1.293673
 50
219.376242
 51
320.623679
  0
LINE
  8
CSLAYER1
  6
CONTINUOUS
 62
     6
 10
101.599834
 20
32.962007
 11
101.599834
 21
67.016043
  0
ARC
  8
CSLAYER1
  6
CONTINUOUS
 62
     6
 10
100.599834
 20
85.488997
 40
18.500000
 50
273.098579
 51
288.924644
  0
LINE
  8
CSLAYER1
  6
CONTINUOUS
 62
     6
 10
106.599834
 20
67.988997
 11
106.599834
 21
72.989100
  0
LINE
  8
CSLAYER1
  6
CONTINUOUS
 62
     6
 10
106.599834
 20
72.989100
 11
94.599834
 21
72.989100
  0
LINE
  8
CSLAYER1
  6
CONTINUOUS
 62
     6
 10
94.599834
 20
72.989100
 11
94.599834
 21
67.989024
  0
LINE
  8
CSLAYER1
  6
CONTINUOUS
 62
     6
 10
94.599834
 20
67.989024
 11
90.599834
 21
67.989024
  0
ARC
  8
CSLAYER1
  6
CONTINUOUS
 62
     6
 10
100.599834
 20
85.488997
 40
18.500000
 50
251.075356
 51
266.901421
  0
LINE
  8
CSLAYER1
  6
CONTINUOUS
 62
     6
 10
99.599834
 20
67.016043
 11
99.599834
 21
32.962009
  0
LINE
  8
CSLAYER1
  6
CONTINUOUS
 62
     6
 10
99.599834
 20
31.194697
 11
101.599834
 21
31.194697
  0
LINE
  8
CSLAYER1
  6
CONTINUOUS
 62
     6
 10
101.599834
 20
31.194697
 11
101.999828
 21
30.894679
  0
LINE
  8
CSLAYER1
  6
CONTINUOUS
 62
     6
 10
101.999828
 20
30.894679
 11
101.999828
 21
29.088984
  0
LINE
  8
CSLAYER1
  6
CONTINUOUS
 62
     6
 10
101.999828
 20
29.588984
 11
102.599834
 21
29.588984
  0
LINE
  8
CSLAYER1
  6
CONTINUOUS
 62
     6
 10
102.599834
 20
29.588984
 11
102.599834
 21
26.988978
  0
LINE
  8
CSLAYER1
  6
CONTINUOUS
 62
     6
 10
104.099804
 20
26.988948
 11
104.099804
 21
30.988948
  0
LINE
  8
CSLAYER1
  6
CONTINUOUS
 62
     6
 10
104.099804
 20
30.988948
 11
101.874146
 21
30.988948
  0
LINE
  8
CSLAYER1
  6
CONTINUOUS
 62
     6
 10
101.595562
 20
30.977534
 11
99.595562
 21
30.977534
  0
LINE
  8
CSLAYER1
  6
CONTINUOUS
 62
     6
 10
99.595562
 20
30.977534
 11
99.199840
 21
30.680751
  0
LINE
  8
CSLAYER1
  6
CONTINUOUS
 62
     6
 10
99.199840
 20
30.894679
 11
99.199840
 21
29.088984
  0
LINE
  8
CSLAYER1
  6
CONTINUOUS
 62
     6
 10
99.199810
 20
29.588984
 11
98.599834
 21
29.588984
  0
LINE
  8
CSLAYER1
  6
CONTINUOUS
 62
     6
 10
98.599834
 20
29.588984
 11
98.599834
 21
26.988978
  0
LINE
  8
CSLAYER1
  6
CONTINUOUS
 62
     6
 10
97.099834
 20
26.988948
 11
97.099834
 21
30.988948
  0
LINE
  8
CSLAYER1
  6
CONTINUOUS
 62
     6
 10
97.099834
 20
30.988948
 11
99.325522
 21
30.988948
  0
LINE
  8
CSLAYER1
  6
CONTINUOUS
 62
     6
 10
99.199840
 20
30.894679
 11
99.599834
 21
31.194697
  0
CIRCLE
  8
CSLAYER1
  6
CONTINUOUS
 62
     6
 10
100.600933
 20
30.286921
 40
0.470497
  0
LINE
  8
CSLAYER1
  6
CONTINUOUS
 62
     6
 10
101.595562
 20
30.977534
 11
101.999828
 21
30.674365
  0
LINE
  8
CSLAYER1
  6
CONTINUOUS
 62
     6
 10
102.599834
 20
29.088984
 11
98.599834
 21
29.088984
  0
ARC
  8
CSLAYER1
  6
CONTINUOUS
 62
     6
 10
95.599834
 20
26.488948
 40
0.500000
 50
90.057318
 51
269.999997
  0
LINE
  8
CSLAYER1
  6
CONTINUOUS
 62
     6
 10
94.849834
 20
25.988948
 11
94.849834
 21
24.988948
  0
LINE
  8
CSLAYER1
  6
CONTINUOUS
 62
     6
 10
94.849834
 20
24.988948
 11
106.349834
 21
24.988948
  0
LINE
  8
CSLAYER1
  6
CONTINUOUS
 62
     6
 10
106.349834
 20
24.988948
 11
106.349834
 21
25.988948
  0
LINE
  8
CSLAYER1
  6
CONTINUOUS
 62
     6
 10
106.349834
 20
25.988948
 11
94.849834
 21
25.988948
  0
LINE
  8
CSLAYER1
  6
CONTINUOUS
 62
     6
 10
94.599834
 20
26.988948
 11
94.599834
 21
31.989060
  0
LINE
  8
CSLAYER1
  6
CONTINUOUS
 62
     6
 10
94.599834
 20
26.988948
 11
106.599834
 21
26.988948
  0
LINE
  8
CSLAYER1
  6
CONTINUOUS
 62
     6
 10
106.599834
 20
26.988948
 11
106.599834
 21
31.989049
  0
ARC
  8
CSLAYER1
  6
CONTINUOUS
 62
     6
 10
100.599817
 20
14.489055
 40
18.500000
 50
71.075329
 51
86.901394
  0
ARC
  8
CSLAYER1
  6
CONTINUOUS
 62
     6
 10
94.486278
 20
37.289637
 40
0.100000
 50
270.000001
 51
359.942691
  0
LINE
  8
CSLAYER1
  6
CONTINUOUS
 62
     6
 10
94.486278
 20
37.189601
 11
93.986278
 21
37.189601
  0
ARC
  8
CSLAYER1
  6
CONTINUOUS
 62
     6
 10
93.986278
 20
37.289637
 40
0.100000
 50
179.999991
 51
269.942682
  0
LINE
  8
CSLAYER1
  6
CONTINUOUS
 62
     6
 10
93.886272
 20
37.289637
 11
93.886272
 21
39.560511
  0
ARC
  8
CSLAYER1
  6
CONTINUOUS
 62
     6
 10
98.886272
 20
40.089625
 40
7.000000
 50
184.334839
 51
196.257016
  0
ARC
  8
CSLAYER1
  6
CONTINUOUS
 62
     6
 10
93.126201
 20
38.409938
 40
1.000000
 50
196.257399
 51
264.999892
  0
LINE
  8
CSLAYER1
  6
CONTINUOUS
 62
     6
 10
93.039043
 20
37.413722
 11
93.668865
 21
37.358607
  0
ARC
  8
CSLAYER1
  6
CONTINUOUS
 62
     6
 10
93.686290
 20
37.557887
 40
0.200000
 50
264.999865
 51
359.942691
  0
LINE
  8
CSLAYER1
  6
CONTINUOUS
 62
     6
 10
90.599834
 20
39.560511
 11
89.599834
 21
40.560511
  0
ARC
  8
CSLAYER1
  6
CONTINUOUS
 62
     6
 10
100.599834
 20
66.195333
 40
1.293664
 50
39.376084
 51
140.623916
  0
LINE
  8
CSLAYER1
  6
CONTINUOUS
 62
     6
 10
101.599834
 20
68.783351
 11
99.599834
 21
68.783351
  0
LINE
  8
CSLAYER1
  6
CONTINUOUS
 62
     6
 10
99.599834
 20
68.783351
 11
99.199840
 21
69.083369
  0
LINE
  8
CSLAYER1
  6
CONTINUOUS
 62
     6
 10
99.199840
 20
69.083369
 11
99.199840
 21
70.889064
  0
LINE
  8
CSLAYER1
  6
CONTINUOUS
 62
     6
 10
99.199810
 20
70.389064
 11
98.599834
 21
70.389064
  0
LINE
  8
CSLAYER1
  6
CONTINUOUS
 62
     6
 10
98.599834
 20
70.389064
 11
98.599834
 21
72.989070
  0
LINE
  8
CSLAYER1
  6
CONTINUOUS
 62
     6
 10
97.099834
 20
72.989100
 11
97.099834
 21
68.989100
  0
LINE
  8
CSLAYER1
  6
CONTINUOUS
 62
     6
 10
97.099834
 20
68.989100
 11
99.325522
 21
68.989100
  0
LINE
  8
CSLAYER1
  6
CONTINUOUS
 62
     6
 10
99.595562
 20
69.000514
 11
101.595562
 21
69.000514
  0
LINE
  8
CSLAYER1
  6
CONTINUOUS
 62
     6
 10
101.595562
 20
69.000514
 11
101.999828
 21
69.303683
  0
LINE
  8
CSLAYER1
  6
CONTINUOUS
 62
     6
 10
101.999828
 20
69.083369
 11
101.999828
 21
70.889064
  0
LINE
  8
CSLAYER1
  6
CONTINUOUS
 62
     6
 10
101.999828
 20
70.389064
 11
102.599834
 21
70.389064
  0
LINE
  8
CSLAYER1
  6
CONTINUOUS
 62
     6
 10
102.599834
 20
70.389064
 11
102.599834
 21
72.989070
  0
LINE
  8
CSLAYER1
  6
CONTINUOUS
 62
     6
 10
104.099804
 20
72.989100
 11
104.099804
 21
68.989100
  0
LINE
  8
CSLAYER1
  6
CONTINUOUS
 62
     6
 10
104.099804
 20
68.989100
 11
101.874146
 21
68.989100
  0
LINE
  8
CSLAYER1
  6
CONTINUOUS
 62
     6
 10
101.999828
 20
69.083369
 11
101.599834
 21
68.783351
  0
CIRCLE
  8
CSLAYER1
  6
CONTINUOUS
 62
     6
 10
100.600933
 20
69.691127
 40
0.470497
  0
LINE
  8
CSLAYER1
  6
CONTINUOUS
 62
     6
 10
99.595562
 20
69.000514
 11
99.199840
 21
69.297297
  0
LINE
  8
CSLAYER1
  6
CONTINUOUS
 62
     6
 10
98.599834
 20
70.889064
 11
102.599834
 21
70.889064
  0
ARC
  8
CSLAYER1
  6
CONTINUOUS
 62
     6
 10
95.599834
 20
73.489100
 40
0.500000
 50
90.000003
 51
269.942682
  0
LINE
  8
CSLAYER1
  6
CONTINUOUS
 62
     6
 10
94.849834
 20
73.989100
 11
94.849834
 21
74.989100
  0
LINE
  8
CSLAYER1
  6
CONTINUOUS
 62
     6
 10
94.849834
 20
74.989100
 11
106.349834
 21
74.989100
  0
LINE
  8
CSLAYER1
  6
CONTINUOUS
 62
     6
 10
106.349834
 20
74.989100
 11
106.349834
 21
73.989100
  0
LINE
  8
CSLAYER1
  6
CONTINUOUS
 62
     6
 10
106.349834
 20
73.989100
 11
94.849834
 21
73.989100
  0
ARC
  8
CSLAYER1
  6
CONTINUOUS
 62
     6
 10
105.599834
 20
73.489100
 40
0.500000
 50
-89.999999
 51
90.000019
  0
LINE
  8
CSLAYER1
  6
CONTINUOUS
 62
     6
 10
106.599834
 20
67.989024
 11
125.446033
 21
67.989024
  0
ARC
  8
CSLAYER1
  6
CONTINUOUS
 62
     6
 10
131.899822
 20
65.589091
 40
7.000000
 50
163.742994
 51
196.257016
  0
ARC
  8
CSLAYER1
  6
CONTINUOUS
 62
     6
 10
126.139721
 20
63.909403
 40
1.000000
 50
196.257399
 51
264.999892
  0
LINE
  8
CSLAYER1
  6
CONTINUOUS
 62
     6
 10
126.052562
 20
62.913187
 11
126.682384
 21
62.858103
  0
ARC
  8
CSLAYER1
  6
CONTINUOUS
 62
     6
 10
126.699810
 20
63.057353
 40
0.200000
 50
264.999865
 51
359.942691
  0
LINE
  8
CSLAYER1
  6
CONTINUOUS
 62
     6
 10
126.899822
 20
62.789103
 11
126.899822
 21
68.389079
  0
ARC
  8
CSLAYER1
  6
CONTINUOUS
 62
     6
 10
126.999797
 20
68.389079
 40
0.100000
 50
90.000003
 51
180.000005
  0
LINE
  8
CSLAYER1
  6
CONTINUOUS
 62
     6
 10
126.999797
 20
68.489054
 11
127.499797
 21
68.489054
  0
ARC
  8
CSLAYER1
  6
CONTINUOUS
 62
     6
 10
127.499797
 20
68.389079
 40
0.100000
 50
0.000000
 51
90.000003
  0
ARC
  8
CSLAYER1
  6
CONTINUOUS
 62
     6
 10
126.699810
 20
68.120829
 40
0.200000
 50
0.000000
 51
95.000152
  0
LINE
  8
CSLAYER1
  6
CONTINUOUS
 62
     6
 10
126.682384
 20
68.320048
 11
126.052562
 21
68.264933
  0
ARC
  8
CSLAYER1
  6
CONTINUOUS
 62
     6
 10
126.139721
 20
67.268748
 40
1.000000
 50
95.000111
 51
163.742611
  0
LINE
  8
CSLAYER1
  6
CONTINUOUS
 62
     6
 10
126.899822
 20
65.493144
 11
127.599804
 21
65.936991
  0
LINE
  8
CSLAYER1
  6
CONTINUOUS
 62
     6
 10
127.599804
 20
65.436991
 11
126.899822
 21
64.993144
  0
ARC
  8
CSLAYER1
  6
CONTINUOUS
 62
     6
 10
126.999797
 20
62.789103
 40
0.100000
 50
180.000005
 51
270.000001
  0
LINE
  8
CSLAYER1
  6
CONTINUOUS
 62
     6
 10
126.999797
 20
62.689066
 11
127.499797
 21
62.689066
  0
ARC
  8
CSLAYER1
  6
CONTINUOUS
 62
     6
 10
127.499797
 20
62.789103
 40
0.100000
 50
270.000001
 51
359.942691
  0
LINE
  8
CSLAYER1
  6
CONTINUOUS
 62
     6
 10
107.599834
 20
67.989024
 11
107.599834
 21
31.989070
  0
LINE
  8
CSLAYER1
  6
CONTINUOUS
 62
     6
 10
106.599834
 20
31.989024
 11
125.446112
 21
31.989024
  0
ARC
  8
CSLAYER1
  6
CONTINUOUS
 62
     6
 10
126.139721
 20
32.709376
 40
1.000000
 50
196.257399
 51
264.999892
  0
LINE
  8
CSLAYER1
  6
CONTINUOUS
 62
     6
 10
126.052562
 20
31.713160
 11
126.682384
 21
31.658076
  0
ARC
  8
CSLAYER1
  6
CONTINUOUS
 62
     6
 10
126.699810
 20
31.857325
 40
0.200000
 50
264.999865
 51
359.942691
  0
LINE
  8
CSLAYER1
  6
CONTINUOUS
 62
     6
 10
126.899822
 20
31.589076
 11
126.899822
 21
37.189051
  0
ARC
  8
CSLAYER1
  6
CONTINUOUS
 62
     6
 10
126.999797
 20
37.189051
 40
0.100000
 50
90.000003
 51
180.000005
  0
LINE
  8
CSLAYER1
  6
CONTINUOUS
 62
     6
 10
126.999797
 20
37.289027
 11
127.499797
 21
37.289027
  0
ARC
  8
CSLAYER1
  6
CONTINUOUS
 62
     6
 10
127.499797
 20
37.189051
 40
0.100000
 50
0.000000
 51
90.000003
  0
ARC
  8
CSLAYER1
  6
CONTINUOUS
 62
     6
 10
126.699810
 20
36.920802
 40
0.200000
 50
0.000000
 51
95.000152
  0
LINE
  8
CSLAYER1
  6
CONTINUOUS
 62
     6
 10
126.682384
 20
37.120020
 11
126.052562
 21
37.064906
  0
ARC
  8
CSLAYER1
  6
CONTINUOUS
 62
     6
 10
126.139721
 20
36.068720
 40
1.000000
 50
95.000111
 51
163.742611
  0
ARC
  8
CSLAYER1
  6
CONTINUOUS
 62
     6
 10
131.899822
 20
34.389063
 40
7.000000
 50
163.742994
 51
196.257016
  0
ARC
  8
CSLAYER1
  6
CONTINUOUS
 62
     6
 10
126.999797
 20
31.589076
 40
0.100000
 50
180.000005
 51
270.000001
  0
LINE
  8
CSLAYER1
  6
CONTINUOUS
 62
     6
 10
126.999797
 20
31.489039
 11
127.499797
 21
31.489039
  0
ARC
  8
CSLAYER1
  6
CONTINUOUS
 62
     6
 10
127.499797
 20
31.589076
 40
0.100000
 50
270.000001
 51
359.942691
  0
LINE
  8
CSLAYER1
  6
CONTINUOUS
 62
     6
 10
126.899822
 20
33.793116
 11
127.599804
 21
34.236964
  0
LINE
  8
CSLAYER1
  6
CONTINUOUS
 62
     6
 10
127.599804
 20
34.736964
 11
126.899822
 21
34.293116
  0
LINE
  8
CSLAYER1
  6
CONTINUOUS
 62
     6
 10
127.599834
 20
24.989054
 11
127.599834
 21
74.989054
  0
LINE
  8
CSLAYER1
  6
CONTINUOUS
 62
     6
 10
127.599834
 20
74.989054
 11
131.599834
 21
74.989054
  0
LINE
  8
CSLAYER1
  6
CONTINUOUS
 62
     6
 10
131.599849
 20
79.989025
 11
131.599849
 21
19.989025
  0
LINE
  8
CSLAYER1
  6
CONTINUOUS
 62
     6
 10
131.599849
 20
19.989025
 11
172.599849
 21
19.989025
  0
LINE
  8
CSLAYER1
  6
CONTINUOUS
 62
     6
 10
172.599849
 20
19.989025
 11
172.599849
 21
79.989025
  0
LINE
  8
CSLAYER1
  6
CONTINUOUS
 62
     6
 10
172.599849
 20
79.989025
 11
131.599849
 21
79.989025
  0
LINE
  8
CSLAYER1
  6
CONTINUOUS
 62
     6
 10
138.599849
 20
79.989025
 11
138.599849
 21
19.989025
  0
LINE
  8
CSLAYER1
  6
CONTINUOUS
 62
     6
 10
131.599834
 20
24.989054
 11
127.599834
 21
24.989054
  0
ARC
  8
CSLAYER1
  6
CONTINUOUS
 62
     6
 10
105.599834
 20
26.488948
 40
0.500000
 50
-90.000019
 51
89.999999
  0
LINE
  8
CSLAYER1
  6
CONTINUOUS
 62
     6
 10
152.958431
 20
39.401318
 11
154.806514
 21
40.242321
  0
LINE
  8
CSLAYER1
  6
CONTINUOUS
 62
     6
 10
154.972072
 20
39.923809
 11
153.177730
 21
38.983044
  0
LINE
  8
CSLAYER1
  6
CONTINUOUS
 62
     6
 10
153.410030
 20
38.560986
 11
155.175380
 21
39.532666
  0
LINE
  8
CSLAYER1
  6
CONTINUOUS
 62
     6
 10
155.448818
 20
39.006573
 11
154.637111
 21
40.568219
  0
ARC
  8
CSLAYER1
  6
CONTINUOUS
 62
     6
 10
160.451351
 20
29.381939
 40
12.607053
 50
89.999900
 51
117.463817
  0
ARC
  8
CSLAYER1
  6
CONTINUOUS
 62
     6
 10
159.689251
 20
41.549023
 40
0.879999
 50
-30.000346
 51
29.999656
  0
ARC
  8
CSLAYER1
  6
CONTINUOUS
 62
     6
 10
159.689251
 20
40.669018
 40
0.879999
 50
-30.000346
 51
29.999656
  0
ARC
  8
CSLAYER1
  6
CONTINUOUS
 62
     6
 10
160.451351
 20
29.381939
 40
10.847068
 50
89.999927
 51
117.463817
  0
ARC
  8
CSLAYER1
  6
CONTINUOUS
 62
     6
 10
164.599849
 20
41.989021
 40
5.250000
 50
-160.080973
 51
160.080864
  0
ARC
  8
CSLAYER1
  6
CONTINUOUS
 62
     6
 10
161.213451
 20
43.309033
 40
0.879999
 50
150.000353
 51
210.000354
  0
ARC
  8
CSLAYER1
  6
CONTINUOUS
 62
     6
 10
159.689251
 20
42.429028
 40
0.879999
 50
-29.999656
 51
30.000332
  0
ARC
  8
CSLAYER1
  6
CONTINUOUS
 62
     6
 10
161.213451
 20
41.549023
 40
0.879999
 50
149.999656
 51
209.999658
  0
ARC
  8
CSLAYER1
  6
CONTINUOUS
 62
     6
 10
160.451351
 20
54.596112
 40
12.607053
 50
242.536193
 51
270.000110
  0
LINE
  8
CSLAYER1
  6
CONTINUOUS
 62
     6
 10
154.637111
 20
43.409832
 11
155.448818
 21
44.971478
  0
ARC
  8
CSLAYER1
  6
CONTINUOUS
 62
     6
 10
160.451351
 20
54.596112
 40
10.847068
 50
242.536193
 51
270.000083
  0
ARC
  8
CSLAYER1
  6
CONTINUOUS
 62
     6
 10
159.689251
 20
43.309033
 40
0.879999
 50
-29.999656
 51
30.000332
  0
ARC
  8
CSLAYER1
  6
CONTINUOUS
 62
     6
 10
162.543224
 20
43.309033
 40
0.880005
 50
149.999997
 51
209.999999
  0
LINE
  8
CSLAYER1
  6
CONTINUOUS
 62
     6
 10
161.781124
 20
43.749035
 11
164.599849
 21
43.749035
  0
ARC
  8
CSLAYER1
  6
CONTINUOUS
 62
     6
 10
164.599849
 20
42.869030
 40
0.880000
 50
-89.999999
 51
90.000019
  0
LINE
  8
CSLAYER1
  6
CONTINUOUS
 62
     6
 10
164.599849
 20
41.989025
 11
161.781124
 21
41.989025
  0
ARC
  8
CSLAYER1
  6
CONTINUOUS
 62
     6
 10
161.019024
 20
42.429028
 40
0.880005
 50
-30.000011
 51
29.999977
  0
ARC
  8
CSLAYER1
  6
CONTINUOUS
 62
     6
 10
162.543224
 20
42.429028
 40
0.880005
 50
149.999997
 51
209.999999
  0
ARC
  8
CSLAYER1
  6
CONTINUOUS
 62
     6
 10
162.543224
 20
41.549023
 40
0.880005
 50
149.999997
 51
209.999999
  0
ARC
  8
CSLAYER1
  6
CONTINUOUS
 62
     6
 10
162.543224
 20
40.669018
 40
0.880005
 50
149.999997
 51
209.999999
  0
LINE
  8
CSLAYER1
  6
CONTINUOUS
 62
     6
 10
161.781124
 20
40.229016
 11
164.599849
 21
40.229016
  0
ARC
  8
CSLAYER1
  6
CONTINUOUS
 62
     6
 10
164.599849
 20
41.109021
 40
0.880000
 50
-89.999999
 51
90.000019
  0
ARC
  8
CSLAYER1
  6
CONTINUOUS
 62
     6
 10
164.599849
 20
41.989021
 40
2.500000
 50
-135.251029
 51
135.250717
  0
ARC
  8
CSLAYER1
  6
CONTINUOUS
 62
     6
 10
161.019024
 20
40.669018
 40
0.880005
 50
-30.000011
 51
29.999977
  0
ARC
  8
CSLAYER1
  6
CONTINUOUS
 62
     6
 10
164.599849
 20
41.989021
 40
5.250000
 50
179.473624
 51
180.526271
  0
LINE
  8
CSLAYER1
  6
CONTINUOUS
 62
     6
 10
155.175380
 20
44.445385
 11
153.253383
 21
45.503277
  0
LINE
  8
CSLAYER1
  6
CONTINUOUS
 62
     6
 10
153.028072
 20
45.073498
 11
154.972072
 21
44.054242
  0
LINE
  8
CSLAYER1
  6
CONTINUOUS
 62
     6
 10
154.806514
 20
43.735730
 11
152.828853
 21
44.635693
  0
LINE
  8
CSLAYER1
  6
CONTINUOUS
 62
     6
 10
168.000211
 20
45.989025
 11
172.599849
 21
45.989025
  0
LINE
  8
CSLAYER1
  6
CONTINUOUS
 62
     6
 10
173.798092
 20
46.754405
 11
176.108150
 21
47.805613
  0
LINE
  8
CSLAYER1
  6
CONTINUOUS
 62
     6
 10
176.315120
 20
47.407481
 11
174.072200
 21
46.231547
  0
LINE
  8
CSLAYER1
  6
CONTINUOUS
 62
     6
 10
174.362606
 20
45.703990
 11
176.569271
 21
46.918589
  0
ARC
  8
CSLAYER1
  6
CONTINUOUS
 62
     6
 10
183.164241
 20
34.230174
 40
13.558834
 50
89.999927
 51
117.463817
  0
ARC
  8
CSLAYER1
  6
CONTINUOUS
 62
     6
 10
182.211605
 20
48.339000
 40
1.099999
 50
-30.000346
 51
29.999656
  0
ARC
  8
CSLAYER1
  6
CONTINUOUS
 62
     6
 10
182.211620
 20
49.438990
 40
1.099999
 50
-30.000346
 51
29.999656
  0
ARC
  8
CSLAYER1
  6
CONTINUOUS
 62
     6
 10
184.116878
 20
49.438975
 40
1.099999
 50
149.999656
 51
209.999658
  0
ARC
  8
CSLAYER1
  6
CONTINUOUS
 62
     6
 10
183.164241
 20
34.230174
 40
15.758816
 50
89.999900
 51
117.463817
  0
LINE
  8
CSLAYER1
  6
CONTINUOUS
 62
     6
 10
175.896419
 20
48.213023
 11
176.911068
 21
46.260936
  0
ARC
  8
CSLAYER1
  6
CONTINUOUS
 62
     6
 10
189.599849
 20
49.989024
 40
8.000000
 50
-164.038007
 51
163.614510
  0
ARC
  8
CSLAYER1
  6
CONTINUOUS
 62
     6
 10
182.211605
 20
51.639048
 40
1.099999
 50
-29.999656
 51
30.000332
  0
ARC
  8
CSLAYER1
  6
CONTINUOUS
 62
     6
 10
184.116863
 20
51.639064
 40
1.099999
 50
150.000353
 51
210.000354
  0
ARC
  8
CSLAYER1
  6
CONTINUOUS
 62
     6
 10
183.164241
 20
65.747874
 40
13.558834
 50
242.536193
 51
270.000083
  0
LINE
  8
CSLAYER1
  6
CONTINUOUS
 62
     6
 10
176.911068
 20
53.717112
 11
175.896419
 21
51.765025
  0
ARC
  8
CSLAYER1
  6
CONTINUOUS
 62
     6
 10
183.164241
 20
65.747874
 40
15.758816
 50
242.536193
 51
270.000110
  0
ARC
  8
CSLAYER1
  6
CONTINUOUS
 62
     6
 10
182.211620
 20
50.539058
 40
1.099999
 50
-29.999656
 51
30.000332
  0
ARC
  8
CSLAYER1
  6
CONTINUOUS
 62
     6
 10
189.599849
 20
49.989024
 40
8.000000
 50
179.442517
 51
180.557483
  0
ARC
  8
CSLAYER1
  6
CONTINUOUS
 62
     6
 10
185.123775
 20
50.538996
 40
1.100006
 50
-30.000011
 51
29.999977
  0
ARC
  8
CSLAYER1
  6
CONTINUOUS
 62
     6
 10
187.029049
 20
51.639003
 40
1.100006
 50
149.999997
 51
209.999999
  0
LINE
  8
CSLAYER1
  6
CONTINUOUS
 62
     6
 10
186.076412
 20
52.189036
 11
189.599849
 21
52.189036
  0
ARC
  8
CSLAYER1
  6
CONTINUOUS
 62
     6
 10
189.599849
 20
51.089030
 40
1.100000
 50
-89.999999
 51
90.000019
  0
LINE
  8
CSLAYER1
  6
CONTINUOUS
 62
     6
 10
189.599849
 20
49.989024
 11
186.076412
 21
49.989024
  0
ARC
  8
CSLAYER1
  6
CONTINUOUS
 62
     6
 10
187.029049
 20
50.538996
 40
1.100006
 50
149.999997
 51
209.999999
  0
ARC
  8
CSLAYER1
  6
CONTINUOUS
 62
     6
 10
187.029049
 20
49.439051
 40
1.100006
 50
149.999997
 51
209.999999
  0
ARC
  8
CSLAYER1
  6
CONTINUOUS
 62
     6
 10
187.029049
 20
48.339045
 40
1.100006
 50
149.999997
 51
209.999999
  0
ARC
  8
CSLAYER1
  6
CONTINUOUS
 62
     6
 10
185.123775
 20
48.339045
 40
1.100006
 50
-30.000011
 51
29.999977
  0
LINE
  8
CSLAYER1
  6
CONTINUOUS
 62
     6
 10
186.076412
 20
47.789012
 11
189.599849
 21
47.789012
  0
ARC
  8
CSLAYER1
  6
CONTINUOUS
 62
     6
 10
189.599849
 20
48.889018
 40
1.100000
 50
-89.999999
 51
90.000019
  0
LINE
  8
CSLAYER1
  6
CONTINUOUS
 62
     6
 10
190.699825
 20
48.889018
 11
190.699825
 21
51.089030
  0
LINE
  8
CSLAYER1
  6
CONTINUOUS
 62
     6
 10
176.569271
 20
53.059459
 11
174.166774
 21
54.381846
  0
LINE
  8
CSLAYER1
  6
CONTINUOUS
 62
     6
 10
173.885128
 20
53.844615
 11
176.315120
 21
52.570567
  0
LINE
  8
CSLAYER1
  6
CONTINUOUS
 62
     6
 10
176.108150
 20
52.172435
 11
173.636104
 21
53.297374
  0
LINE
  8
CSLAYER1
  6
CONTINUOUS
 62
     6
 10
172.599849
 20
37.989025
 11
168.000223
 21
37.989025
  0
LINE
  8
CSLAYER1
  6
CONTINUOUS
 62
     6
 10
172.599849
 20
20.477811
 11
200.599865
 21
19.989041
  0
LINE
  8
CSLAYER1
  6
CONTINUOUS
 62
     6
 10
200.599849
 20
18.989024
 11
200.599849
 21
80.989024
  0
LINE
  8
CSLAYER1
  6
CONTINUOUS
 62
     6
 10
200.599849
 20
80.989024
 11
297.599849
 21
80.989024
  0
LINE
  8
CSLAYER1
  6
CONTINUOUS
 62
     6
 10
297.599849
 20
80.989024
 11
297.599849
 21
18.989024
  0
LINE
  8
CSLAYER1
  6
CONTINUOUS
 62
     6
 10
297.599849
 20
18.989024
 11
200.599849
 21
18.989024
  0
LINE
  8
CSLAYER1
  6
CONTINUOUS
 62
     6
 10
200.599865
 20
79.989041
 11
172.599849
 21
79.500271
  0
LINE
  8
CSLAYER1
  6
CONTINUOUS
 62
     6
 10
166.587810
 20
100.339106
 11
165.466594
 21
102.802958
  0
LINE
  8
CSLAYER1
  6
CONTINUOUS
 62
     6
 10
165.785091
 20
102.968516
 11
167.046535
 21
100.562587
  0
LINE
  8
CSLAYER1
  6
CONTINUOUS
 62
     6
 10
167.469997
 20
100.821361
 11
166.176235
 21
103.171809
  0
ARC
  8
CSLAYER1
  6
CONTINUOUS
 62
     6
 10
176.326961
 20
108.447780
 40
10.847068
 50
179.999978
 51
207.463868
  0
ARC
  8
CSLAYER1
  6
CONTINUOUS
 62
     6
 10
165.039882
 20
107.685710
 40
0.879999
 50
60.000350
 51
120.000345
  0
ARC
  8
CSLAYER1
  6
CONTINUOUS
 62
     6
 10
164.159877
 20
109.209910
 40
0.879999
 50
240.000362
 51
300.000350
  0
ARC
  8
CSLAYER1
  6
CONTINUOUS
 62
     6
 10
164.159877
 20
107.685710
 40
0.879999
 50
60.000350
 51
120.000345
  0
ARC
  8
CSLAYER1
  6
CONTINUOUS
 62
     6
 10
152.872829
 20
108.447780
 40
10.847068
 50
332.536202
 51
359.942691
  0
LINE
  8
CSLAYER1
  6
CONTINUOUS
 62
     6
 10
162.497432
 20
103.445262
 11
164.059078
 21
102.633571
  0
ARC
  8
CSLAYER1
  6
CONTINUOUS
 62
     6
 10
152.872829
 20
108.447780
 40
12.607053
 50
332.536202
 51
359.942691
  0
ARC
  8
CSLAYER1
  6
CONTINUOUS
 62
     6
 10
165.039898
 20
111.539683
 40
0.880005
 50
240.000007
 51
299.999995
  0
ARC
  8
CSLAYER1
  6
CONTINUOUS
 62
     6
 10
164.159893
 20
111.539683
 40
0.880005
 50
240.000007
 51
299.999995
  0
LINE
  8
CSLAYER1
  6
CONTINUOUS
 62
     6
 10
163.719890
 20
110.777583
 11
163.719890
 21
115.856588
  0
LINE
  8
CSLAYER1
  6
CONTINUOUS
 62
     6
 10
165.479900
 20
115.856592
 11
165.479900
 21
110.777583
  0
ARC
  8
CSLAYER1
  6
CONTINUOUS
 62
     6
 10
165.039898
 20
110.015483
 40
0.880005
 50
60.000002
 51
120.000003
  0
ARC
  8
CSLAYER1
  6
CONTINUOUS
 62
     6
 10
176.326961
 20
108.447780
 40
12.607053
 50
201.534171
 51
207.463868
  0
LINE
  8
CSLAYER1
  6
CONTINUOUS
 62
     6
 10
165.140682
 20
102.633555
 11
166.702327
 21
103.445262
  0
LINE
  8
CSLAYER1
  6
CONTINUOUS
 62
     6
 10
163.733181
 20
102.802958
 11
162.611980
 21
100.339122
  0
LINE
  8
CSLAYER1
  6
CONTINUOUS
 62
     6
 10
162.153240
 20
100.562587
 11
163.414669
 21
102.968516
  0
LINE
  8
CSLAYER1
  6
CONTINUOUS
 62
     6
 10
163.023525
 20
103.171824
 11
161.729793
 21
100.821361
  0
LINE
  8
CSLAYER1
  6
CONTINUOUS
 62
     6
 10
172.599849
 20
116.336136
 11
172.599849
 21
176.336136
  0
LINE
  8
CSLAYER1
  6
CONTINUOUS
 62
     6
 10
172.599849
 20
176.336136
 11
131.599849
 21
176.336136
  0
LINE
  8
CSLAYER1
  6
CONTINUOUS
 62
     6
 10
131.599849
 20
176.336136
 11
131.599849
 21
116.336136
  0
LINE
  8
CSLAYER1
  6
CONTINUOUS
 62
     6
 10
131.599849
 20
116.336136
 11
172.599849
 21
116.336136
  0
LINE
  8
CSLAYER1
  6
CONTINUOUS
 62
     6
 10
172.599849
 20
116.841774
 11
200.599849
 21
116.336135
  0
LINE
  8
CSLAYER1
  6
CONTINUOUS
 62
     6
 10
200.599849
 20
115.336139
 11
200.599849
 21
177.336139
  0
LINE
  8
CSLAYER1
  6
CONTINUOUS
 62
     6
 10
200.599849
 20
177.336139
 11
297.599849
 21
177.336139
  0
LINE
  8
CSLAYER1
  6
CONTINUOUS
 62
     6
 10
297.599849
 20
177.336139
 11
297.599849
 21
115.336139
  0
LINE
  8
CSLAYER1
  6
CONTINUOUS
 62
     6
 10
297.599849
 20
115.336139
 11
200.599849
 21
115.336139
  0
LINE
  8
CSLAYER1
  6
CONTINUOUS
 62
     6
 10
190.699855
 20
116.508945
 11
190.699855
 21
110.812717
  0
ARC
  8
CSLAYER1
  6
CONTINUOUS
 62
     6
 10
190.149868
 20
111.765354
 40
1.100006
 50
240.000007
 51
299.999995
  0
ARC
  8
CSLAYER1
  6
CONTINUOUS
 62
     6
 10
189.049862
 20
111.765354
 40
1.100006
 50
240.000007
 51
299.999995
  0
LINE
  8
CSLAYER1
  6
CONTINUOUS
 62
     6
 10
188.499859
 20
110.812717
 11
188.499859
 21
116.547352
  0
ARC
  8
CSLAYER1
  6
CONTINUOUS
 62
     6
 10
190.149868
 20
109.860080
 40
1.100006
 50
60.000002
 51
120.000003
  0
ARC
  8
CSLAYER1
  6
CONTINUOUS
 62
     6
 10
190.149837
 20
106.947895
 40
1.099999
 50
60.000350
 51
120.000345
  0
ARC
  8
CSLAYER1
  6
CONTINUOUS
 62
     6
 10
189.049831
 20
108.853138
 40
1.099999
 50
240.000362
 51
300.000350
  0
ARC
  8
CSLAYER1
  6
CONTINUOUS
 62
     6
 10
189.049839
 20
106.947879
 40
1.099999
 50
60.000350
 51
120.000345
  0
ARC
  8
CSLAYER1
  6
CONTINUOUS
 62
     6
 10
204.258693
 20
107.900486
 40
13.558834
 50
179.999978
 51
207.463868
  0
LINE
  8
CSLAYER1
  6
CONTINUOUS
 62
     6
 10
192.227916
 20
101.647312
 11
190.275859
 21
100.632694
  0
ARC
  8
CSLAYER1
  6
CONTINUOUS
 62
     6
 10
204.258693
 20
107.900486
 40
15.758816
 50
202.422068
 51
207.463868
  0
LINE
  8
CSLAYER1
  6
CONTINUOUS
 62
     6
 10
190.683239
 20
100.844440
 11
192.084743
 21
97.764621
  0
LINE
  8
CSLAYER1
  6
CONTINUOUS
 62
     6
 10
192.658153
 20
98.043979
 11
191.081371
 21
101.051380
  0
LINE
  8
CSLAYER1
  6
CONTINUOUS
 62
     6
 10
191.570293
 20
101.305500
 11
193.187465
 21
98.367443
  0
ARC
  8
CSLAYER1
  6
CONTINUOUS
 62
     6
 10
174.941005
 20
107.900486
 40
15.758816
 50
332.536202
 51
359.942691
  0
ARC
  8
CSLAYER1
  6
CONTINUOUS
 62
     6
 10
174.941005
 20
107.900486
 40
13.558834
 50
332.536202
 51
359.942691
  0
LINE
  8
CSLAYER1
  6
CONTINUOUS
 62
     6
 10
186.971782
 20
101.647327
 11
188.923839
 21
100.632709
  0
LINE
  8
CSLAYER1
  6
CONTINUOUS
 62
     6
 10
188.516460
 20
100.844440
 11
187.114971
 21
97.764637
  0
LINE
  8
CSLAYER1
  6
CONTINUOUS
 62
     6
 10
186.541546
 20
98.043979
 11
188.118328
 21
101.051395
  0
LINE
  8
CSLAYER1
  6
CONTINUOUS
 62
     6
 10
187.629406
 20
101.305530
 11
186.012249
 21
98.367458
  0
LINE
  8
CSLAYER1
  6
CONTINUOUS
 62
     6
 10
186.849849
 20
145.536136
 11
192.349849
 21
145.536136
  0
LINE
  8
CSLAYER1
  6
CONTINUOUS
 62
     6
 10
192.349849
 20
145.536136
 11
192.349849
 21
147.136142
  0
LINE
  8
CSLAYER1
  6
CONTINUOUS
 62
     6
 10
192.349849
 20
147.136142
 11
186.849849
 21
147.136142
  0
LINE
  8
CSLAYER1
  6
CONTINUOUS
 62
     6
 10
186.849849
 20
147.136142
 11
186.849849
 21
145.536136
  0
CIRCLE
  8
CSLAYER1
  6
CONTINUOUS
 62
     6
 10
189.599849
 20
146.336139
 40
8.000000
  0
CIRCLE
  8
CSLAYER1
  6
CONTINUOUS
 62
     6
 10
189.599849
 20
146.336139
 40
6.000000
  0
LINE
  8
CSLAYER1
  6
CONTINUOUS
 62
     6
 10
138.599849
 20
116.336136
 11
138.599849
 21
176.336136
  0
LINE
  8
CSLAYER1
  6
CONTINUOUS
 62
     6
 10
131.599834
 20
171.336124
 11
127.599834
 21
171.336122
  0
LINE
  8
CSLAYER1
  6
CONTINUOUS
 62
     6
 10
127.599834
 20
171.336122
 11
127.599834
 21
121.336122
  0
LINE
  8
CSLAYER1
  6
CONTINUOUS
 62
     6
 10
127.599850
 20
121.336122
 11
131.599834
 21
121.336124
  0
LINE
  8
CSLAYER1
  6
CONTINUOUS
 62
     6
 10
127.499797
 20
127.836153
 11
126.999797
 21
127.836153
  0
ARC
  8
CSLAYER1
  6
CONTINUOUS
 62
     6
 10
126.999797
 20
127.936190
 40
0.100000
 50
180.000005
 51
270.000001
  0
LINE
  8
CSLAYER1
  6
CONTINUOUS
 62
     6
 10
126.899822
 20
127.936190
 11
126.899822
 21
133.536166
  0
ARC
  8
CSLAYER1
  6
CONTINUOUS
 62
     6
 10
126.999797
 20
133.536166
 40
0.100000
 50
90.000003
 51
180.000005
  0
LINE
  8
CSLAYER1
  6
CONTINUOUS
 62
     6
 10
126.999797
 20
133.636141
 11
127.499797
 21
133.636141
  0
ARC
  8
CSLAYER1
  6
CONTINUOUS
 62
     6
 10
127.499797
 20
133.536166
 40
0.100000
 50
0.000000
 51
90.000003
  0
ARC
  8
CSLAYER1
  6
CONTINUOUS
 62
     6
 10
126.699810
 20
133.267916
 40
0.200000
 50
0.000000
 51
95.000152
  0
LINE
  8
CSLAYER1
  6
CONTINUOUS
 62
     6
 10
126.682384
 20
133.467135
 11
126.052562
 21
133.412020
  0
ARC
  8
CSLAYER1
  6
CONTINUOUS
 62
     6
 10
126.139721
 20
132.415835
 40
1.000000
 50
95.000111
 51
163.742611
  0
ARC
  8
CSLAYER1
  6
CONTINUOUS
 62
     6
 10
131.899822
 20
130.736178
 40
7.000000
 50
163.742994
 51
196.257016
  0
ARC
  8
CSLAYER1
  6
CONTINUOUS
 62
     6
 10
126.139721
 20
129.056490
 40
1.000000
 50
196.257399
 51
264.999892
  0
LINE
  8
CSLAYER1
  6
CONTINUOUS
 62
     6
 10
126.052562
 20
128.060274
 11
126.682384
 21
128.005190
  0
ARC
  8
CSLAYER1
  6
CONTINUOUS
 62
     6
 10
126.699810
 20
128.204440
 40
0.200000
 50
264.999865
 51
359.942691
  0
ARC
  8
CSLAYER1
  6
CONTINUOUS
 62
     6
 10
127.499797
 20
127.936190
 40
0.100000
 50
270.000001
 51
359.942691
  0
LINE
  8
CSLAYER1
  6
CONTINUOUS
 62
     6
 10
125.446126
 20
128.336141
 11
101.599834
 21
128.336144
  0
ARC
  8
CSLAYER1
  6
CONTINUOUS
 62
     6
 10
100.599834
 20
128.597780
 40
1.261636
 50
217.568822
 51
322.431165
  0
LINE
  8
CSLAYER1
  6
CONTINUOUS
 62
     6
 10
99.599834
 20
127.828543
 11
99.599834
 21
134.336130
  0
LINE
  8
CSLAYER1
  6
CONTINUOUS
 62
     6
 10
99.199840
 20
134.336130
 11
99.199836
 21
140.759168
  0
LINE
  8
CSLAYER1
  6
CONTINUOUS
 62
     6
 10
100.099834
 20
143.336116
 11
101.099834
 21
143.336116
  0
LINE
  8
CSLAYER1
  6
CONTINUOUS
 62
     6
 10
101.099834
 20
143.336116
 11
101.099834
 21
149.336145
  0
LINE
  8
CSLAYER1
  6
CONTINUOUS
 62
     6
 10
101.099834
 20
149.336145
 11
100.099834
 21
149.336145
  0
LINE
  8
CSLAYER1
  6
CONTINUOUS
 62
     6
 10
100.099834
 20
149.336145
 11
100.099834
 21
143.336116
  0
CIRCLE
  8
CSLAYER1
  6
CONTINUOUS
 62
     6
 10
100.599834
 20
146.336130
 40
5.750000
  0
LINE
  8
CSLAYER1
  6
CONTINUOUS
 62
     6
 10
101.999824
 20
140.759166
 11
101.999828
 21
134.336131
  0
LINE
  8
CSLAYER1
  6
CONTINUOUS
 62
     6
 10
101.999828
 20
134.336131
 11
99.199840
 21
134.336130
  0
CIRCLE
  8
CSLAYER1
  6
CONTINUOUS
 62
     6
 10
100.599841
 20
135.836130
 40
0.500000
  0
LINE
  8
CSLAYER1
  6
CONTINUOUS
 62
     6
 10
101.599834
 20
134.336131
 11
101.599834
 21
127.828537
  0
LINE
  8
CSLAYER1
  6
CONTINUOUS
 62
     6
 10
99.599834
 20
128.336144
 11
90.599845
 21
128.336145
  0
LINE
  8
CSLAYER1
  6
CONTINUOUS
 62
     6
 10
90.599845
 20
128.336145
 11
89.599845
 21
129.336145
  0
LINE
  8
CSLAYER1
  6
CONTINUOUS
 62
     6
 10
89.599845
 20
129.336145
 11
89.599823
 21
163.336145
  0
LINE
  8
CSLAYER1
  6
CONTINUOUS
 62
     6
 10
89.599823
 20
163.336145
 11
90.599823
 21
164.336145
  0
LINE
  8
CSLAYER1
  6
CONTINUOUS
 62
     6
 10
90.599823
 20
164.336145
 11
99.599834
 21
164.336144
  0
LINE
  8
CSLAYER1
  6
CONTINUOUS
 62
     6
 10
99.599834
 20
164.861004
 11
99.599834
 21
151.998506
  0
LINE
  8
CSLAYER1
  6
CONTINUOUS
 62
     6
 10
101.599834
 20
151.998506
 11
101.599834
 21
164.860938
  0
ARC
  8
CSLAYER1
  6
CONTINUOUS
 62
     6
 10
100.599805
 20
164.046313
 40
1.289831
 50
39.166091
 51
140.829784
  0
LINE
  8
CSLAYER1
  6
CONTINUOUS
 62
     6
 10
101.599834
 20
164.336144
 11
125.446019
 21
164.336141
  0
ARC
  8
CSLAYER1
  6
CONTINUOUS
 62
     6
 10
131.899822
 20
161.936205
 40
7.000000
 50
163.742994
 51
196.257016
  0
ARC
  8
CSLAYER1
  6
CONTINUOUS
 62
     6
 10
126.139721
 20
160.256518
 40
1.000000
 50
196.257399
 51
264.999892
  0
LINE
  8
CSLAYER1
  6
CONTINUOUS
 62
     6
 10
126.052562
 20
159.260302
 11
126.682384
 21
159.205218
  0
ARC
  8
CSLAYER1
  6
CONTINUOUS
 62
     6
 10
126.699810
 20
159.404467
 40
0.200000
 50
264.999865
 51
359.942691
  0
LINE
  8
CSLAYER1
  6
CONTINUOUS
 62
     6
 10
126.899822
 20
159.136217
 11
126.899822
 21
164.736193
  0
ARC
  8
CSLAYER1
  6
CONTINUOUS
 62
     6
 10
126.999797
 20
164.736193
 40
0.100000
 50
90.000003
 51
180.000005
  0
LINE
  8
CSLAYER1
  6
CONTINUOUS
 62
     6
 10
126.999797
 20
164.836169
 11
127.499797
 21
164.836169
  0
ARC
  8
CSLAYER1
  6
CONTINUOUS
 62
     6
 10
127.499797
 20
164.736193
 40
0.100000
 50
0.000000
 51
90.000003
  0
ARC
  8
CSLAYER1
  6
CONTINUOUS
 62
     6
 10
126.699810
 20
164.467944
 40
0.200000
 50
0.000000
 51
95.000152
  0
LINE
  8
CSLAYER1
  6
CONTINUOUS
 62
     6
 10
126.682384
 20
164.667162
 11
126.052562
 21
164.612048
  0
ARC
  8
CSLAYER1
  6
CONTINUOUS
 62
     6
 10
126.139721
 20
163.615862
 40
1.000000
 50
95.000111
 51
163.742611
  0
LINE
  8
CSLAYER1
  6
CONTINUOUS
 62
     6
 10
126.899822
 20
161.840258
 11
127.599804
 21
162.284106
  0
LINE
  8
CSLAYER1
  6
CONTINUOUS
 62
     6
 10
127.599804
 20
161.784106
 11
126.899822
 21
161.340258
  0
ARC
  8
CSLAYER1
  6
CONTINUOUS
 62
     6
 10
126.999797
 20
159.136217
 40
0.100000
 50
180.000005
 51
270.000001
  0
LINE
  8
CSLAYER1
  6
CONTINUOUS
 62
     6
 10
126.999797
 20
159.036181
 11
127.499797
 21
159.036181
  0
ARC
  8
CSLAYER1
  6
CONTINUOUS
 62
     6
 10
127.499797
 20
159.136217
 40
0.100000
 50
270.000001
 51
359.942691
  0
LINE
  8
CSLAYER1
  6
CONTINUOUS
 62
     6
 10
107.599834
 20
164.336185
 11
107.599834
 21
128.336143
  0
LINE
  8
CSLAYER1
  6
CONTINUOUS
 62
     6
 10
126.899822
 20
130.140231
 11
127.599804
 21
130.584078
  0
LINE
  8
CSLAYER1
  6
CONTINUOUS
 62
     6
 10
127.599804
 20
131.084078
 11
126.899822
 21
130.640231
  0
LINE
  8
CSLAYER1
  6
CONTINUOUS
 62
     6
 10
90.599845
 20
128.336145
 11
90.599828
 21
156.764628
  0
LINE
  8
CSLAYER1
  6
CONTINUOUS
 62
     6
 10
90.599828
 20
156.764628
 11
94.599828
 21
156.764630
  0
LINE
  8
CSLAYER1
  6
CONTINUOUS
 62
     6
 10
94.599828
 20
156.764630
 11
94.599825
 21
161.007306
  0
LINE
  8
CSLAYER1
  6
CONTINUOUS
 62
     6
 10
94.599825
 20
161.007306
 11
90.599825
 21
161.007304
  0
LINE
  8
CSLAYER1
  6
CONTINUOUS
 62
     6
 10
90.599825
 20
161.007304
 11
89.599826
 21
160.007303
  0
LINE
  8
CSLAYER1
  6
CONTINUOUS
 62
     6
 10
90.599825
 20
161.007304
 11
90.599823
 21
164.336145
  0
LINE
  8
CSLAYER1
  6
CONTINUOUS
 62
     6
 10
93.039035
 20
158.911419
 11
93.668857
 21
158.966534
  0
ARC
  8
CSLAYER1
  6
CONTINUOUS
 62
     6
 10
93.686283
 20
158.767254
 40
0.200000
 50
0.057345
 51
95.000171
  0
ARC
  8
CSLAYER1
  6
CONTINUOUS
 62
     6
 10
93.986270
 20
159.035504
 40
0.100000
 50
90.057354
 51
180.000044
  0
LINE
  8
CSLAYER1
  6
CONTINUOUS
 62
     6
 10
93.986270
 20
159.135541
 11
94.486270
 21
159.135541
  0
ARC
  8
CSLAYER1
  6
CONTINUOUS
 62
     6
 10
94.486270
 20
159.035504
 40
0.100000
 50
0.057345
 51
90.000035
  0
LINE
  8
CSLAYER1
  6
CONTINUOUS
 62
     6
 10
93.886264
 20
159.035504
 11
93.886266
 21
156.764630
  0
ARC
  8
CSLAYER1
  6
CONTINUOUS
 62
     6
 10
98.886266
 20
156.235519
 40
7.000000
 50
163.743019
 51
175.665197
  0
ARC
  8
CSLAYER1
  6
CONTINUOUS
 62
     6
 10
93.126194
 20
157.915203
 40
1.000000
 50
95.000143
 51
163.742637
  0
LINE
  8
CSLAYER1
  6
CONTINUOUS
 62
     6
 10
90.599828
 20
156.764628
 11
89.599828
 21
155.764627
  0
LINE
  8
CSLAYER1
  6
CONTINUOUS
 62
     6
 10
70.099834
 20
152.086103
 11
68.899829
 21
152.086103
  0
LINE
  8
CSLAYER1
  6
CONTINUOUS
 62
     6
 10
68.899829
 20
152.086103
 11
68.899829
 21
140.586103
  0
LINE
  8
CSLAYER1
  6
CONTINUOUS
 62
     6
 10
68.899829
 20
140.586103
 11
70.099834
 21
140.586103
  0
LINE
  8
CSLAYER1
  6
CONTINUOUS
 62
     6
 10
70.099834
 20
140.586103
 11
70.099834
 21
152.086103
  0
ARC
  8
CSLAYER1
  6
CONTINUOUS
 62
     6
 10
45.099834
 20
146.336119
 40
25.000000
 50
13.297052
 51
166.702950
  0
LINE
  8
CSLAYER1
  6
CONTINUOUS
 62
     6
 10
21.299831
 20
152.086103
 11
21.299831
 21
140.586103
  0
LINE
  8
CSLAYER1
  6
CONTINUOUS
 62
     6
 10
21.299831
 20
140.586103
 11
20.099834
 21
140.586103
  0
LINE
  8
CSLAYER1
  6
CONTINUOUS
 62
     6
 10
20.099834
 20
140.586103
 11
20.099834
 21
152.086103
  0
LINE
  8
CSLAYER1
  6
CONTINUOUS
 62
     6
 10
20.099834
 20
152.086103
 11
21.299831
 21
152.086103
  0
ARC
  8
CSLAYER1
  6
CONTINUOUS
 62
     6
 10
21.949840
 20
151.373488
 40
0.650002
 50
-3.291680
 51
179.942687
  0
LINE
  8
CSLAYER1
  6
CONTINUOUS
 62
     6
 10
22.599834
 20
152.336119
 11
22.599834
 21
141.336119
  0
ARC
  8
CSLAYER1
  6
CONTINUOUS
 62
     6
 10
21.949840
 20
141.298719
 40
0.650002
 50
-179.999943
 51
3.291720
  0
ARC
  8
CSLAYER1
  6
CONTINUOUS
 62
     6
 10
45.099834
 20
146.336119
 40
25.000000
 50
193.297090
 51
346.702873
  0
ARC
  8
CSLAYER1
  6
CONTINUOUS
 62
     6
 10
68.249828
 20
141.298719
 40
0.650002
 50
-183.291660
 51
0.000002
  0
LINE
  8
CSLAYER1
  6
CONTINUOUS
 62
     6
 10
67.599834
 20
141.336119
 11
67.599834
 21
152.336119
  0
LINE
  8
CSLAYER1
  6
CONTINUOUS
 62
     6
 10
67.599834
 20
152.336119
 11
62.099826
 21
152.336119
  0
ARC
  8
CSLAYER1
  6
CONTINUOUS
 62
     6
 10
45.099834
 20
146.336119
 40
19.000000
 50
18.408466
 51
161.591536
  0
LINE
  8
CSLAYER1
  6
CONTINUOUS
 62
     6
 10
28.099849
 20
152.336119
 11
22.599834
 21
152.336119
  0
ARC
  8
CSLAYER1
  6
CONTINUOUS
 62
     6
 10
29.543483
 20
161.892462
 40
1.750000
 50
253.398415
 51
286.601605
  0
LINE
  8
CSLAYER1
  6
CONTINUOUS
 62
     6
 10
30.043483
 20
160.215414
 11
30.043483
 21
160.892462
  0
ARC
  8
CSLAYER1
  6
CONTINUOUS
 62
     6
 10
30.543483
 20
160.892462
 40
0.500000
 50
90.000001
 51
179.942687
  0
LINE
  8
CSLAYER1
  6
CONTINUOUS
 62
     6
 10
30.543483
 20
161.392462
 11
31.220531
 21
161.392462
  0
ARC
  8
CSLAYER1
  6
CONTINUOUS
 62
     6
 10
29.543483
 20
161.892462
 40
1.750000
 50
-16.601547
 51
16.601587
  0
LINE
  8
CSLAYER1
  6
CONTINUOUS
 62
     6
 10
31.220531
 20
162.392462
 11
30.543483
 21
162.392462
  0
ARC
  8
CSLAYER1
  6
CONTINUOUS
 62
     6
 10
30.543483
 20
162.892462
 40
0.500000
 50
180.000000
 51
269.999981
  0
LINE
  8
CSLAYER1
  6
CONTINUOUS
 62
     6
 10
30.043483
 20
162.892462
 11
30.043483
 21
163.569510
  0
ARC
  8
CSLAYER1
  6
CONTINUOUS
 62
     6
 10
29.543483
 20
161.892462
 40
1.750000
 50
73.398434
 51
106.601568
  0
LINE
  8
CSLAYER1
  6
CONTINUOUS
 62
     6
 10
29.043483
 20
163.569510
 11
29.043483
 21
162.892462
  0
ARC
  8
CSLAYER1
  6
CONTINUOUS
 62
     6
 10
28.543483
 20
162.892462
 40
0.500000
 50
-90.000019
 51
0.000020
  0
LINE
  8
CSLAYER1
  6
CONTINUOUS
 62
     6
 10
28.543483
 20
162.392462
 11
27.866435
 21
162.392462
  0
ARC
  8
CSLAYER1
  6
CONTINUOUS
 62
     6
 10
29.543483
 20
161.892462
 40
1.750000
 50
163.398416
 51
196.601606
  0
LINE
  8
CSLAYER1
  6
CONTINUOUS
 62
     6
 10
27.866435
 20
161.392462
 11
28.543483
 21
161.392462
  0
ARC
  8
CSLAYER1
  6
CONTINUOUS
 62
     6
 10
28.543483
 20
160.892462
 40
0.500000
 50
0.000020
 51
90.000001
  0
LINE
  8
CSLAYER1
  6
CONTINUOUS
 62
     6
 10
29.043483
 20
160.892462
 11
29.043483
 21
160.215414
  0
CIRCLE
  8
CSLAYER1
  6
CONTINUOUS
 62
     6
 10
29.543483
 20
161.892462
 40
2.750000
  0
CIRCLE
  8
CSLAYER1
  6
CONTINUOUS
 62
     6
 10
19.099834
 20
172.336119
 40
2.250000
  0
LINE
  8
CSLAYER1
  6
CONTINUOUS
 62
     6
 10
19.099834
 20
178.336058
 11
71.099834
 21
178.336058
  0
ARC
  8
CSLAYER1
  6
CONTINUOUS
 62
     6
 10
71.099834
 20
172.336119
 40
6.000000
 50
0.000000
 51
90.000003
  0
LINE
  8
CSLAYER1
  6
CONTINUOUS
 62
     6
 10
77.099834
 20
172.336058
 11
77.099834
 21
120.336119
  0
ARC
  8
CSLAYER1
  6
CONTINUOUS
 62
     6
 10
71.099834
 20
120.336119
 40
6.000000
 50
-90.000000
 51
0.000003
  0
LINE
  8
CSLAYER1
  6
CONTINUOUS
 62
     6
 10
71.099834
 20
114.336119
 11
47.299829
 21
114.336119
  0
ARC
  8
CSLAYER1
  6
CONTINUOUS
 62
     6
 10
45.099834
 20
146.336119
 40
31.000000
 50
-85.930427
 51
244.995759
  0
ARC
  8
CSLAYER1
  6
CONTINUOUS
 62
     6
 10
33.485642
 20
118.422429
 40
1.500000
 50
164.534033
 51
254.534033
  0
LINE
  8
CSLAYER1
  6
CONTINUOUS
 62
     6
 10
33.085643
 20
116.976746
 11
40.314061
 21
114.976751
  0
ARC
  8
CSLAYER1
  6
CONTINUOUS
 62
     6
 10
40.714060
 20
116.422435
 40
1.500000
 50
254.534033
 51
344.534033
  0
LINE
  8
CSLAYER1
  6
CONTINUOUS
 62
     6
 10
42.159744
 20
116.022436
 11
32.039959
 21
118.822428
  0
LINE
  8
CSLAYER1
  6
CONTINUOUS
 62
     6
 10
33.485642
 20
118.422429
 11
33.548388
 21
118.649207
  0
LINE
  8
CSLAYER1
  6
CONTINUOUS
 62
     6
 10
35.003579
 20
116.446100
 11
34.251921
 21
113.729443
  0
ARC
  8
CSLAYER1
  6
CONTINUOUS
 62
     6
 10
34.879216
 20
114.346613
 40
0.880005
 50
224.534030
 51
284.534032
  0
ARC
  8
CSLAYER1
  6
CONTINUOUS
 62
     6
 10
35.727355
 20
114.111946
 40
0.880005
 50
224.534030
 51
284.534032
  0
ARC
  8
CSLAYER1
  6
CONTINUOUS
 62
     6
 10
36.575494
 20
113.877279
 40
0.880005
 50
224.534030
 51
284.534032
  0
ARC
  8
CSLAYER1
  6
CONTINUOUS
 62
     6
 10
37.423634
 20
113.642611
 40
0.880005
 50
224.534030
 51
284.534032
  0
LINE
  8
CSLAYER1
  6
CONTINUOUS
 62
     6
 10
37.644477
 20
112.790774
 11
38.396135
 21
115.507431
  0
LINE
  8
CSLAYER1
  6
CONTINUOUS
 62
     6
 10
38.072051
 20
114.336119
 11
42.899831
 21
114.336119
  0
ARC
  8
CSLAYER1
  6
CONTINUOUS
 62
     6
 10
45.099834
 20
146.336119
 40
31.000000
 50
264.072307
 51
265.930431
  0
LINE
  8
CSLAYER1
  6
CONTINUOUS
 62
     6
 10
42.899841
 20
116.416899
 11
42.899817
 21
111.096581
  0
ARC
  8
CSLAYER1
  6
CONTINUOUS
 62
     6
 10
43.449793
 20
112.049202
 40
1.099999
 50
240.000198
 51
300.000186
  0
ARC
  8
CSLAYER1
  6
CONTINUOUS
 62
     6
 10
44.549791
 20
112.049202
 40
1.099999
 50
240.000198
 51
300.000186
  0
ARC
  8
CSLAYER1
  6
CONTINUOUS
 62
     6
 10
44.549799
 20
110.143959
 40
1.099999
 50
60.000186
 51
120.000181
  0
LINE
  8
CSLAYER1
  6
CONTINUOUS
 62
     6
 10
45.099810
 20
111.096581
 11
45.099842
 21
116.416899
  0
LINE
  8
CSLAYER1
  6
CONTINUOUS
 62
     6
 10
47.299839
 20
116.416899
 11
47.299814
 21
111.096581
  0
ARC
  8
CSLAYER1
  6
CONTINUOUS
 62
     6
 10
46.749827
 20
110.143959
 40
1.099999
 50
59.999858
 51
119.999853
  0
ARC
  8
CSLAYER1
  6
CONTINUOUS
 62
     6
 10
46.749834
 20
112.049202
 40
1.099999
 50
239.999870
 51
299.999858
  0
ARC
  8
CSLAYER1
  6
CONTINUOUS
 62
     6
 10
45.649836
 20
112.049202
 40
1.099999
 50
239.999870
 51
299.999858
  0
ARC
  8
CSLAYER1
  6
CONTINUOUS
 62
     6
 10
44.549813
 20
107.231749
 40
1.099999
 50
60.000350
 51
120.000345
  0
ARC
  8
CSLAYER1
  6
CONTINUOUS
 62
     6
 10
43.449803
 20
109.136992
 40
1.099999
 50
240.000362
 51
300.000350
  0
ARC
  8
CSLAYER1
  6
CONTINUOUS
 62
     6
 10
29.340856
 20
108.184261
 40
13.558951
 50
-27.463363
 51
0.000417
  0
LINE
  8
CSLAYER1
  6
CONTINUOUS
 62
     6
 10
41.371794
 20
101.931126
 11
43.323838
 21
100.916511
  0
ARC
  8
CSLAYER1
  6
CONTINUOUS
 62
     6
 10
29.340856
 20
108.184261
 40
15.758933
 50
-27.463461
 51
0.000397
  0
ARC
  8
CSLAYER1
  6
CONTINUOUS
 62
     6
 10
45.649826
 20
109.136992
 40
1.099999
 50
239.999733
 51
299.999721
  0
ARC
  8
CSLAYER1
  6
CONTINUOUS
 62
     6
 10
45.649819
 20
107.231734
 40
1.099999
 50
59.999715
 51
119.999716
  0
ARC
  8
CSLAYER1
  6
CONTINUOUS
 62
     6
 10
60.858839
 20
108.184434
 40
15.759004
 50
180.000235
 51
207.463987
  0
LINE
  8
CSLAYER1
  6
CONTINUOUS
 62
     6
 10
46.875861
 20
100.916526
 11
48.827910
 21
101.931144
  0
ARC
  8
CSLAYER1
  6
CONTINUOUS
 62
     6
 10
60.858839
 20
108.184434
 40
13.559023
 50
180.000308
 51
207.464006
  0
ARC
  8
CSLAYER1
  6
CONTINUOUS
 62
     6
 10
46.749817
 20
107.231719
 40
1.099999
 50
59.999715
 51
119.999716
  0
ARC
  8
CSLAYER1
  6
CONTINUOUS
 62
     6
 10
43.449814
 20
107.231734
 40
1.099999
 50
60.000350
 51
120.000345
  0
ARC
  8
CSLAYER1
  6
CONTINUOUS
 62
     6
 10
47.744165
 20
108.616608
 40
10.847068
 50
164.533960
 51
191.997850
  0
ARC
  8
CSLAYER1
  6
CONTINUOUS
 62
     6
 10
36.662576
 20
110.891983
 40
0.879999
 50
44.533687
 51
104.533689
  0
ARC
  8
CSLAYER1
  6
CONTINUOUS
 62
     6
 10
35.814437
 20
111.126651
 40
0.879999
 50
44.533687
 51
104.533689
  0
ARC
  8
CSLAYER1
  6
CONTINUOUS
 62
     6
 10
36.220889
 20
112.595658
 40
0.879999
 50
224.533689
 51
284.533690
  0
ARC
  8
CSLAYER1
  6
CONTINUOUS
 62
     6
 10
47.744165
 20
108.616608
 40
12.607053
 50
164.533933
 51
191.997850
  0
LINE
  8
CSLAYER1
  6
CONTINUOUS
 62
     6
 10
35.412492
 20
105.995907
 11
37.134043
 21
106.361783
  0
LINE
  8
CSLAYER1
  6
CONTINUOUS
 62
     6
 10
36.554085
 20
106.238538
 11
37.019820
 21
104.277999
  0
LINE
  8
CSLAYER1
  6
CONTINUOUS
 62
     6
 10
36.551099
 20
104.166660
 11
36.122889
 21
106.146897
  0
LINE
  8
CSLAYER1
  6
CONTINUOUS
 62
     6
 10
35.771762
 20
106.072270
 11
36.089491
 21
104.066841
  0
LINE
  8
CSLAYER1
  6
CONTINUOUS
 62
     6
 10
32.673776
 20
106.753669
 11
31.385134
 21
107.952420
  0
ARC
  8
CSLAYER1
  6
CONTINUOUS
 62
     6
 10
23.443022
 20
115.340369
 40
10.847068
 50
317.070225
 51
344.534116
  0
ARC
  8
CSLAYER1
  6
CONTINUOUS
 62
     6
 10
34.118159
 20
111.595985
 40
0.879999
 50
44.534377
 51
104.534365
  0
ARC
  8
CSLAYER1
  6
CONTINUOUS
 62
     6
 10
34.966298
 20
111.361318
 40
0.879999
 50
44.534377
 51
104.534365
  0
ARC
  8
CSLAYER1
  6
CONTINUOUS
 62
     6
 10
23.443022
 20
115.340369
 40
12.607053
 50
317.070225
 51
344.534143
  0
LINE
  8
CSLAYER1
  6
CONTINUOUS
 62
     6
 10
32.404854
 20
107.003843
 11
31.010104
 21
105.337785
  0
LINE
  8
CSLAYER1
  6
CONTINUOUS
 62
     6
 10
30.641277
 20
105.646537
 11
32.142024
 21
107.248342
  0
LINE
  8
CSLAYER1
  6
CONTINUOUS
 62
     6
 10
31.819259
 20
107.548593
 11
30.287144
 21
105.978297
  0
ARC
  8
CSLAYER1
  6
CONTINUOUS
 62
     6
 10
36.699862
 20
115.976764
 40
5.250000
 50
254.007657
 51
255.060304
  0
ARC
  8
CSLAYER1
  6
CONTINUOUS
 62
     6
 10
34.524611
 20
113.064993
 40
0.879999
 50
224.534385
 51
284.534387
  0
ARC
  8
CSLAYER1
  6
CONTINUOUS
 62
     6
 10
35.320903
 20
112.642938
 40
0.880005
 50
44.534022
 51
104.534010
  0
LINE
  8
CSLAYER1
  6
CONTINUOUS
 62
     6
 10
35.948199
 20
113.260109
 11
36.699857
 21
115.976765
  0
LINE
  8
CSLAYER1
  6
CONTINUOUS
 62
     6
 10
34.419779
 20
114.336119
 11
19.099834
 21
114.336119
  0
ARC
  8
CSLAYER1
  6
CONTINUOUS
 62
     6
 10
19.099834
 20
120.336119
 40
6.000000
 50
179.999997
 51
270.000000
  0
LINE
  8
CSLAYER1
  6
CONTINUOUS
 62
     6
 10
13.099834
 20
120.336119
 11
13.099834
 21
172.336058
  0
ARC
  8
CSLAYER1
  6
CONTINUOUS
 62
     6
 10
19.099834
 20
172.336119
 40
6.000000
 50
90.000000
 51
180.000003
  0
LINE
  8
CSLAYER1
  6
CONTINUOUS
 62
     6
 10
42.599803
 20
148.836119
 11
42.569225
 21
146.336119
  0
LINE
  8
CSLAYER1
  6
CONTINUOUS
 62
     6
 10
42.569225
 20
146.336119
 11
40.099803
 21
146.336119
  0
LINE
  8
CSLAYER1
  6
CONTINUOUS
 62
     6
 10
40.099803
 20
146.336119
 11
47.599803
 21
143.836119
  0
LINE
  8
CSLAYER1
  6
CONTINUOUS
 62
     6
 10
47.599803
 20
143.836119
 11
47.582836
 21
146.336119
  0
LINE
  8
CSLAYER1
  6
CONTINUOUS
 62
     6
 10
47.582836
 20
146.336119
 11
50.099803
 21
146.336119
  0
LINE
  8
CSLAYER1
  6
CONTINUOUS
 62
     6
 10
50.099803
 20
146.336119
 11
42.599803
 21
148.836119
  0
ARC
  8
CSLAYER1
  6
CONTINUOUS
 62
     6
 10
54.999332
 20
156.235617
 40
1.750000
 50
163.398416
 51
196.601549
  0
LINE
  8
CSLAYER1
  6
CONTINUOUS
 62
     6
 10
53.322284
 20
156.735617
 11
53.999332
 21
156.735617
  0
ARC
  8
CSLAYER1
  6
CONTINUOUS
 62
     6
 10
53.999332
 20
157.235617
 40
0.500000
 50
-90.000019
 51
0.000020
  0
LINE
  8
CSLAYER1
  6
CONTINUOUS
 62
     6
 10
54.499332
 20
157.235617
 11
54.499332
 21
157.912664
  0
ARC
  8
CSLAYER1
  6
CONTINUOUS
 62
     6
 10
54.999332
 20
156.235617
 40
1.750000
 50
73.398434
 51
106.601568
  0
LINE
  8
CSLAYER1
  6
CONTINUOUS
 62
     6
 10
55.499332
 20
157.912664
 11
55.499332
 21
157.235617
  0
ARC
  8
CSLAYER1
  6
CONTINUOUS
 62
     6
 10
55.999332
 20
157.235617
 40
0.500000
 50
179.999982
 51
269.999964
  0
LINE
  8
CSLAYER1
  6
CONTINUOUS
 62
     6
 10
55.999332
 20
156.735617
 11
56.676380
 21
156.735617
  0
ARC
  8
CSLAYER1
  6
CONTINUOUS
 62
     6
 10
54.999332
 20
156.235617
 40
1.750000
 50
-16.601604
 51
16.601587
  0
LINE
  8
CSLAYER1
  6
CONTINUOUS
 62
     6
 10
56.676380
 20
155.735617
 11
55.999332
 21
155.735617
  0
ARC
  8
CSLAYER1
  6
CONTINUOUS
 62
     6
 10
55.999332
 20
155.235617
 40
0.500000
 50
90.000001
 51
179.942687
  0
LINE
  8
CSLAYER1
  6
CONTINUOUS
 62
     6
 10
55.499332
 20
155.235617
 11
55.499332
 21
154.558569
  0
ARC
  8
CSLAYER1
  6
CONTINUOUS
 62
     6
 10
54.999332
 20
156.235617
 40
1.750000
 50
253.398415
 51
286.601605
  0
LINE
  8
CSLAYER1
  6
CONTINUOUS
 62
     6
 10
54.499332
 20
154.558569
 11
54.499332
 21
155.235617
  0
ARC
  8
CSLAYER1
  6
CONTINUOUS
 62
     6
 10
53.999332
 20
155.235617
 40
0.500000
 50
0.000020
 51
90.000001
  0
LINE
  8
CSLAYER1
  6
CONTINUOUS
 62
     6
 10
53.999332
 20
155.735617
 11
53.322284
 21
155.735617
  0
CIRCLE
  8
CSLAYER1
  6
CONTINUOUS
 62
     6
 10
54.999332
 20
156.235617
 40
2.750000
  0
ARC
  8
CSLAYER1
  6
CONTINUOUS
 62
     6
 10
54.999332
 20
156.235617
 40
3.000000
 50
134.999992
 51
315.000012
  0
LINE
  8
CSLAYER1
  6
CONTINUOUS
 62
     6
 10
52.878009
 20
158.356939
 11
55.528415
 21
161.007345
  0
ARC
  8
CSLAYER1
  6
CONTINUOUS
 62
     6
 10
60.656185
 20
161.892469
 40
1.750000
 50
163.398416
 51
196.601606
  0
LINE
  8
CSLAYER1
  6
CONTINUOUS
 62
     6
 10
58.979137
 20
162.392469
 11
59.656185
 21
162.392469
  0
ARC
  8
CSLAYER1
  6
CONTINUOUS
 62
     6
 10
59.656185
 20
162.892469
 40
0.500000
 50
-90.000019
 51
0.000020
  0
LINE
  8
CSLAYER1
  6
CONTINUOUS
 62
     6
 10
60.156185
 20
162.892469
 11
60.156185
 21
163.569517
  0
ARC
  8
CSLAYER1
  6
CONTINUOUS
 62
     6
 10
60.656185
 20
161.892469
 40
1.750000
 50
73.398434
 51
106.601568
  0
LINE
  8
CSLAYER1
  6
CONTINUOUS
 62
     6
 10
61.156185
 20
163.569517
 11
61.156185
 21
162.892469
  0
ARC
  8
CSLAYER1
  6
CONTINUOUS
 62
     6
 10
61.656185
 20
162.892469
 40
0.500000
 50
180.000000
 51
269.999981
  0
LINE
  8
CSLAYER1
  6
CONTINUOUS
 62
     6
 10
61.656185
 20
162.392469
 11
62.333232
 21
162.392469
  0
ARC
  8
CSLAYER1
  6
CONTINUOUS
 62
     6
 10
60.656185
 20
161.892469
 40
1.750000
 50
-16.601547
 51
16.601587
  0
LINE
  8
CSLAYER1
  6
CONTINUOUS
 62
     6
 10
62.333232
 20
161.392469
 11
61.656185
 21
161.392469
  0
ARC
  8
CSLAYER1
  6
CONTINUOUS
 62
     6
 10
61.656185
 20
160.892469
 40
0.500000
 50
90.000001
 51
179.942687
  0
LINE
  8
CSLAYER1
  6
CONTINUOUS
 62
     6
 10
61.156185
 20
160.892469
 11
61.156185
 21
160.215422
  0
ARC
  8
CSLAYER1
  6
CONTINUOUS
 62
     6
 10
60.656185
 20
161.892469
 40
1.750000
 50
253.398415
 51
286.601605
  0
LINE
  8
CSLAYER1
  6
CONTINUOUS
 62
     6
 10
60.156185
 20
160.215422
 11
60.156185
 21
160.892469
  0
ARC
  8
CSLAYER1
  6
CONTINUOUS
 62
     6
 10
59.656185
 20
160.892469
 40
0.500000
 50
0.000020
 51
90.000001
  0
LINE
  8
CSLAYER1
  6
CONTINUOUS
 62
     6
 10
59.656185
 20
161.392469
 11
58.979137
 21
161.392469
  0
CIRCLE
  8
CSLAYER1
  6
CONTINUOUS
 62
     6
 10
60.656185
 20
161.892469
 40
2.750000
  0
LINE
  8
CSLAYER1
  6
CONTINUOUS
 62
     6
 10
59.771060
 20
156.764700
 11
57.120654
 21
154.114294
  0
ARC
  8
CSLAYER1
  6
CONTINUOUS
 62
     6
 10
68.249828
 20
151.373488
 40
0.650002
 50
0.000020
 51
183.291682
  0
CIRCLE
  8
CSLAYER1
  6
CONTINUOUS
 62
     6
 10
71.099834
 20
172.336119
 40
2.250000
  0
LINE
  8
CSLAYER1
  6
CONTINUOUS
 62
     6
 10
94.849834
 20
217.683153
 11
94.849834
 21
218.683153
  0
LINE
  8
CSLAYER1
  6
CONTINUOUS
 62
     6
 10
94.849834
 20
218.683153
 11
106.349834
 21
218.683153
  0
LINE
  8
CSLAYER1
  6
CONTINUOUS
 62
     6
 10
106.349834
 20
218.683153
 11
106.349834
 21
217.683153
  0
LINE
  8
CSLAYER1
  6
CONTINUOUS
 62
     6
 10
106.349834
 20
217.683153
 11
94.849834
 21
217.683153
  0
ARC
  8
CSLAYER1
  6
CONTINUOUS
 62
     6
 10
95.599834
 20
219.183153
 40
0.500000
 50
90.057318
 51
269.999997
  0
LINE
  8
CSLAYER1
  6
CONTINUOUS
 62
     6
 10
94.599834
 20
219.683153
 11
94.599834
 21
224.683266
  0
ARC
  8
CSLAYER1
  6
CONTINUOUS
 62
     6
 10
100.599817
 20
207.183260
 40
18.500000
 50
93.098552
 51
108.924617
  0
ARC
  8
CSLAYER1
  6
CONTINUOUS
 62
     6
 10
100.599831
 20
226.476933
 40
1.293673
 50
219.376242
 51
320.623679
  0
LINE
  8
CSLAYER1
  6
CONTINUOUS
 62
     6
 10
101.599834
 20
225.656213
 11
101.599834
 21
259.710249
  0
ARC
  8
CSLAYER1
  6
CONTINUOUS
 62
     6
 10
100.599834
 20
258.889539
 40
1.293664
 50
39.376084
 51
140.623916
  0
LINE
  8
CSLAYER1
  6
CONTINUOUS
 62
     6
 10
99.599834
 20
259.710249
 11
99.599834
 21
225.656215
  0
ARC
  8
CSLAYER1
  6
CONTINUOUS
 62
     6
 10
100.599817
 20
207.183260
 40
18.500000
 50
71.075329
 51
86.901394
  0
LINE
  8
CSLAYER1
  6
CONTINUOUS
 62
     6
 10
106.599834
 20
224.683255
 11
106.599834
 21
219.683153
  0
LINE
  8
CSLAYER1
  6
CONTINUOUS
 62
     6
 10
106.599834
 20
219.683153
 11
94.599834
 21
219.683153
  0
LINE
  8
CSLAYER1
  6
CONTINUOUS
 62
     6
 10
94.599834
 20
224.683230
 11
90.599834
 21
224.683230
  0
LINE
  8
CSLAYER1
  6
CONTINUOUS
 62
     6
 10
90.599834
 20
224.683230
 11
90.599834
 21
228.012041
  0
LINE
  8
CSLAYER1
  6
CONTINUOUS
 62
     6
 10
90.599834
 20
228.012041
 11
94.599834
 21
228.012041
  0
LINE
  8
CSLAYER1
  6
CONTINUOUS
 62
     6
 10
94.599834
 20
228.012041
 11
94.599834
 21
232.254717
  0
LINE
  8
CSLAYER1
  6
CONTINUOUS
 62
     6
 10
94.599834
 20
232.254717
 11
90.599834
 21
232.254717
  0
LINE
  8
CSLAYER1
  6
CONTINUOUS
 62
     6
 10
90.599834
 20
232.254717
 11
89.599834
 21
233.254717
  0
LINE
  8
CSLAYER1
  6
CONTINUOUS
 62
     6
 10
90.599834
 20
232.254717
 11
90.599834
 21
260.683230
  0
LINE
  8
CSLAYER1
  6
CONTINUOUS
 62
     6
 10
90.599834
 20
260.683230
 11
89.599834
 21
259.683230
  0
LINE
  8
CSLAYER1
  6
CONTINUOUS
 62
     6
 10
89.599834
 20
259.683230
 11
89.599834
 21
225.683230
  0
LINE
  8
CSLAYER1
  6
CONTINUOUS
 62
     6
 10
89.599834
 20
225.683230
 11
90.599834
 21
224.683230
  0
LINE
  8
CSLAYER1
  6
CONTINUOUS
 62
     6
 10
90.599834
 20
228.012041
 11
89.599834
 21
229.012041
  0
ARC
  8
CSLAYER1
  6
CONTINUOUS
 62
     6
 10
98.886272
 20
232.783831
 40
7.000000
 50
184.334839
 51
196.257016
  0
ARC
  8
CSLAYER1
  6
CONTINUOUS
 62
     6
 10
93.126201
 20
231.104143
 40
1.000000
 50
196.257399
 51
264.999892
  0
LINE
  8
CSLAYER1
  6
CONTINUOUS
 62
     6
 10
93.039043
 20
230.107928
 11
93.668865
 21
230.052813
  0
ARC
  8
CSLAYER1
  6
CONTINUOUS
 62
     6
 10
93.686290
 20
230.252093
 40
0.200000
 50
264.999865
 51
359.942691
  0
ARC
  8
CSLAYER1
  6
CONTINUOUS
 62
     6
 10
93.986278
 20
229.983843
 40
0.100000
 50
179.999991
 51
269.942682
  0
LINE
  8
CSLAYER1
  6
CONTINUOUS
 62
     6
 10
93.986278
 20
229.883807
 11
94.486278
 21
229.883807
  0
ARC
  8
CSLAYER1
  6
CONTINUOUS
 62
     6
 10
94.486278
 20
229.983843
 40
0.100000
 50
270.000001
 51
359.942691
  0
LINE
  8
CSLAYER1
  6
CONTINUOUS
 62
     6
 10
93.886272
 20
229.983843
 11
93.886272
 21
232.254717
  0
ARC
  8
CSLAYER1
  6
CONTINUOUS
 62
     6
 10
100.599834
 20
278.183202
 40
18.500000
 50
251.075356
 51
266.901421
  0
LINE
  8
CSLAYER1
  6
CONTINUOUS
 62
     6
 10
94.599834
 20
260.683230
 11
94.599834
 21
265.683306
  0
LINE
  8
CSLAYER1
  6
CONTINUOUS
 62
     6
 10
94.599834
 20
265.683306
 11
106.599834
 21
265.683306
  0
LINE
  8
CSLAYER1
  6
CONTINUOUS
 62
     6
 10
106.599834
 20
265.683306
 11
106.599834
 21
260.683202
  0
ARC
  8
CSLAYER1
  6
CONTINUOUS
 62
     6
 10
100.599834
 20
278.183202
 40
18.500000
 50
273.098579
 51
288.924644
  0
LINE
  8
CSLAYER1
  6
CONTINUOUS
 62
     6
 10
94.599834
 20
260.683230
 11
90.599834
 21
260.683230
  0
ARC
  8
CSLAYER1
  6
CONTINUOUS
 62
     6
 10
95.599834
 20
266.183306
 40
0.500000
 50
90.000003
 51
269.942682
  0
LINE
  8
CSLAYER1
  6
CONTINUOUS
 62
     6
 10
94.849834
 20
266.683306
 11
94.849834
 21
267.683306
  0
LINE
  8
CSLAYER1
  6
CONTINUOUS
 62
     6
 10
94.849834
 20
267.683306
 11
106.349834
 21
267.683306
  0
LINE
  8
CSLAYER1
  6
CONTINUOUS
 62
     6
 10
106.349834
 20
267.683306
 11
106.349834
 21
266.683306
  0
LINE
  8
CSLAYER1
  6
CONTINUOUS
 62
     6
 10
106.349834
 20
266.683306
 11
94.849834
 21
266.683306
  0
ARC
  8
CSLAYER1
  6
CONTINUOUS
 62
     6
 10
105.599834
 20
266.183306
 40
0.500000
 50
-89.999999
 51
90.000019
  0
LINE
  8
CSLAYER1
  6
CONTINUOUS
 62
     6
 10
106.599834
 20
260.683230
 11
125.446033
 21
260.683230
  0
ARC
  8
CSLAYER1
  6
CONTINUOUS
 62
     6
 10
131.899822
 20
258.283297
 40
7.000000
 50
163.742994
 51
196.257016
  0
ARC
  8
CSLAYER1
  6
CONTINUOUS
 62
     6
 10
126.139721
 20
256.603609
 40
1.000000
 50
196.257399
 51
264.999892
  0
LINE
  8
CSLAYER1
  6
CONTINUOUS
 62
     6
 10
126.052562
 20
255.607393
 11
126.682384
 21
255.552309
  0
ARC
  8
CSLAYER1
  6
CONTINUOUS
 62
     6
 10
126.699810
 20
255.751558
 40
0.200000
 50
264.999865
 51
359.942691
  0
LINE
  8
CSLAYER1
  6
CONTINUOUS
 62
     6
 10
126.899822
 20
255.483309
 11
126.899822
 21
261.083284
  0
ARC
  8
CSLAYER1
  6
CONTINUOUS
 62
     6
 10
126.999797
 20
261.083284
 40
0.100000
 50
90.000003
 51
180.000005
  0
LINE
  8
CSLAYER1
  6
CONTINUOUS
 62
     6
 10
126.999797
 20
261.183260
 11
127.499797
 21
261.183260
  0
ARC
  8
CSLAYER1
  6
CONTINUOUS
 62
     6
 10
127.499797
 20
261.083284
 40
0.100000
 50
0.000000
 51
90.000003
  0
ARC
  8
CSLAYER1
  6
CONTINUOUS
 62
     6
 10
126.699810
 20
260.815035
 40
0.200000
 50
0.000000
 51
95.000152
  0
LINE
  8
CSLAYER1
  6
CONTINUOUS
 62
     6
 10
126.682384
 20
261.014254
 11
126.052562
 21
260.959139
  0
ARC
  8
CSLAYER1
  6
CONTINUOUS
 62
     6
 10
126.139721
 20
259.962954
 40
1.000000
 50
95.000111
 51
163.742611
  0
LINE
  8
CSLAYER1
  6
CONTINUOUS
 62
     6
 10
126.899822
 20
258.187349
 11
127.599804
 21
258.631197
  0
LINE
  8
CSLAYER1
  6
CONTINUOUS
 62
     6
 10
127.599804
 20
258.131197
 11
126.899822
 21
257.687349
  0
ARC
  8
CSLAYER1
  6
CONTINUOUS
 62
     6
 10
126.999797
 20
255.483309
 40
0.100000
 50
180.000005
 51
270.000001
  0
LINE
  8
CSLAYER1
  6
CONTINUOUS
 62
     6
 10
126.999797
 20
255.383272
 11
127.499797
 21
255.383272
  0
ARC
  8
CSLAYER1
  6
CONTINUOUS
 62
     6
 10
127.499797
 20
255.483309
 40
0.100000
 50
270.000001
 51
359.942691
  0
LINE
  8
CSLAYER1
  6
CONTINUOUS
 62
     6
 10
127.599834
 20
267.683260
 11
127.599834
 21
217.683260
  0
LINE
  8
CSLAYER1
  6
CONTINUOUS
 62
     6
 10
127.599834
 20
217.683260
 11
131.599834
 21
217.683260
  0
LINE
  8
CSLAYER1
  6
CONTINUOUS
 62
     6
 10
131.599849
 20
212.683231
 11
131.599849
 21
272.683231
  0
LINE
  8
CSLAYER1
  6
CONTINUOUS
 62
     6
 10
131.599849
 20
272.683231
 11
172.599849
 21
272.683231
  0
LINE
  8
CSLAYER1
  6
CONTINUOUS
 62
     6
 10
172.599849
 20
272.683231
 11
172.599849
 21
212.683231
  0
LINE
  8
CSLAYER1
  6
CONTINUOUS
 62
     6
 10
172.599849
 20
212.683231
 11
131.599849
 21
212.683231
  0
LINE
  8
CSLAYER1
  6
CONTINUOUS
 62
     6
 10
138.599849
 20
212.683231
 11
138.599849
 21
272.683231
  0
LINE
  8
CSLAYER1
  6
CONTINUOUS
 62
     6
 10
131.599834
 20
267.683260
 11
127.599834
 21
267.683260
  0
LINE
  8
CSLAYER1
  6
CONTINUOUS
 62
     6
 10
107.599834
 20
260.683230
 11
107.599834
 21
224.683276
  0
LINE
  8
CSLAYER1
  6
CONTINUOUS
 62
     6
 10
106.599834
 20
224.683230
 11
125.446112
 21
224.683230
  0
ARC
  8
CSLAYER1
  6
CONTINUOUS
 62
     6
 10
126.139721
 20
225.403582
 40
1.000000
 50
196.257399
 51
264.999892
  0
LINE
  8
CSLAYER1
  6
CONTINUOUS
 62
     6
 10
126.052562
 20
224.407366
 11
126.682384
 21
224.352282
  0
ARC
  8
CSLAYER1
  6
CONTINUOUS
 62
     6
 10
126.699810
 20
224.551531
 40
0.200000
 50
264.999865
 51
359.942691
  0
LINE
  8
CSLAYER1
  6
CONTINUOUS
 62
     6
 10
126.899822
 20
224.283281
 11
126.899822
 21
229.883257
  0
ARC
  8
CSLAYER1
  6
CONTINUOUS
 62
     6
 10
126.999797
 20
229.883257
 40
0.100000
 50
90.000003
 51
180.000005
  0
LINE
  8
CSLAYER1
  6
CONTINUOUS
 62
     6
 10
126.999797
 20
229.983232
 11
127.499797
 21
229.983232
  0
ARC
  8
CSLAYER1
  6
CONTINUOUS
 62
     6
 10
127.499797
 20
229.883257
 40
0.100000
 50
0.000000
 51
90.000003
  0
ARC
  8
CSLAYER1
  6
CONTINUOUS
 62
     6
 10
126.699810
 20
229.615007
 40
0.200000
 50
0.000000
 51
95.000152
  0
LINE
  8
CSLAYER1
  6
CONTINUOUS
 62
     6
 10
126.682384
 20
229.814226
 11
126.052562
 21
229.759111
  0
ARC
  8
CSLAYER1
  6
CONTINUOUS
 62
     6
 10
126.139721
 20
228.762926
 40
1.000000
 50
95.000111
 51
163.742611
  0
ARC
  8
CSLAYER1
  6
CONTINUOUS
 62
     6
 10
131.899822
 20
227.083269
 40
7.000000
 50
163.742994
 51
196.257016
  0
ARC
  8
CSLAYER1
  6
CONTINUOUS
 62
     6
 10
126.999797
 20
224.283281
 40
0.100000
 50
180.000005
 51
270.000001
  0
LINE
  8
CSLAYER1
  6
CONTINUOUS
 62
     6
 10
126.999797
 20
224.183245
 11
127.499797
 21
224.183245
  0
ARC
  8
CSLAYER1
  6
CONTINUOUS
 62
     6
 10
127.499797
 20
224.283281
 40
0.100000
 50
270.000001
 51
359.942691
  0
LINE
  8
CSLAYER1
  6
CONTINUOUS
 62
     6
 10
126.899822
 20
226.487322
 11
127.599804
 21
226.931170
  0
LINE
  8
CSLAYER1
  6
CONTINUOUS
 62
     6
 10
127.599804
 20
227.431170
 11
126.899822
 21
226.987322
  0
LINE
  8
CSLAYER1
  6
CONTINUOUS
 62
     6
 10
172.599849
 20
272.194477
 11
200.599865
 21
272.683247
  0
LINE
  8
CSLAYER1
  6
CONTINUOUS
 62
     6
 10
200.599849
 20
273.683230
 11
200.599849
 21
211.683230
  0
LINE
  8
CSLAYER1
  6
CONTINUOUS
 62
     6
 10
200.599849
 20
211.683230
 11
297.599849
 21
211.683230
  0
LINE
  8
CSLAYER1
  6
CONTINUOUS
 62
     6
 10
297.599849
 20
211.683230
 11
297.599849
 21
273.683230
  0
LINE
  8
CSLAYER1
  6
CONTINUOUS
 62
     6
 10
297.599849
 20
273.683230
 11
200.599849
 21
273.683230
  0
LINE
  8
CSLAYER1
  6
CONTINUOUS
 62
     6
 10
200.599865
 20
212.683247
 11
172.599849
 21
213.172017
  0
LINE
  8
CSLAYER1
  6
CONTINUOUS
 62
     6
 10
172.599849
 20
175.830585
 11
200.599849
 21
176.336135
  0
ARC
  8
CSLAYER1
  6
CONTINUOUS
 62
     6
 10
105.599834
 20
219.183153
 40
0.500000
 50
-90.000019
 51
89.999999
  0
LINE
  8
CSLAYER1
  6
CONTINUOUS
 62
     6
 10
67.599834
 20
141.836119
 11
63.599834
 21
141.836119
  0
LINE
  8
CSLAYER1
  6
CONTINUOUS
 62
     6
 10
63.599834
 20
141.836119
 11
63.599834
 21
140.336119
  0
LINE
  8
CSLAYER1
  6
CONTINUOUS
 62
     6
 10
63.599834
 20
140.336119
 11
62.099826
 21
140.336119
  0
ARC
  8
CSLAYER1
  6
CONTINUOUS
 62
     6
 10
45.099834
 20
146.336119
 40
19.000000
 50
198.408504
 51
341.591516
  0
LINE
  8
CSLAYER1
  6
CONTINUOUS
 62
     6
 10
26.599834
 20
140.336119
 11
28.099849
 21
140.336119
  0
LINE
  8
CSLAYER1
  6
CONTINUOUS
 62
     6
 10
26.599834
 20
140.336119
 11
26.599834
 21
141.836119
  0
LINE
  8
CSLAYER1
  6
CONTINUOUS
 62
     6
 10
26.599834
 20
141.836119
 11
22.599834
 21
141.836119
  0
LINE
  8
CSLAYER1
  6
CONTINUOUS
 62
     6
 10
24.699825
 20
141.836119
 11
24.699825
 21
134.336111
  0
LINE
  8
CSLAYER1
  6
CONTINUOUS
 62
     6
 10
24.699825
 20
134.336111
 11
25.199825
 21
134.336119
  0
LINE
  8
CSLAYER1
  6
CONTINUOUS
 62
     6
 10
25.199825
 20
134.336119
 11
25.199825
 21
141.836119
  0
LINE
  8
CSLAYER1
  6
CONTINUOUS
 62
     6
 10
30.428615
 20
135.907538
 11
33.079006
 21
138.557943
  0
ARC
  8
CSLAYER1
  6
CONTINUOUS
 62
     6
 10
35.200343
 20
136.436621
 40
3.000000
 50
-44.999971
 51
134.999992
  0
LINE
  8
CSLAYER1
  6
CONTINUOUS
 62
     6
 10
37.321651
 20
134.315298
 11
34.671260
 21
131.664892
  0
ARC
  8
CSLAYER1
  6
CONTINUOUS
 62
     6
 10
35.200343
 20
136.436621
 40
1.750000
 50
253.398415
 51
286.601605
  0
LINE
  8
CSLAYER1
  6
CONTINUOUS
 62
     6
 10
35.700343
 20
134.759573
 11
35.700343
 21
135.436621
  0
ARC
  8
CSLAYER1
  6
CONTINUOUS
 62
     6
 10
36.200343
 20
135.436621
 40
0.500000
 50
90.000001
 51
179.942687
  0
LINE
  8
CSLAYER1
  6
CONTINUOUS
 62
     6
 10
36.200343
 20
135.936621
 11
36.877376
 21
135.936621
  0
ARC
  8
CSLAYER1
  6
CONTINUOUS
 62
     6
 10
35.200343
 20
136.436621
 40
1.750000
 50
-16.601547
 51
16.601587
  0
LINE
  8
CSLAYER1
  6
CONTINUOUS
 62
     6
 10
36.877376
 20
136.936621
 11
36.200343
 21
136.936621
  0
ARC
  8
CSLAYER1
  6
CONTINUOUS
 62
     6
 10
36.200343
 20
137.436621
 40
0.500000
 50
180.000000
 51
269.999981
  0
LINE
  8
CSLAYER1
  6
CONTINUOUS
 62
     6
 10
35.700343
 20
137.436621
 11
35.700343
 21
138.113668
  0
ARC
  8
CSLAYER1
  6
CONTINUOUS
 62
     6
 10
35.200343
 20
136.436621
 40
1.750000
 50
73.398434
 51
106.601568
  0
LINE
  8
CSLAYER1
  6
CONTINUOUS
 62
     6
 10
34.700343
 20
138.113668
 11
34.700343
 21
137.436621
  0
ARC
  8
CSLAYER1
  6
CONTINUOUS
 62
     6
 10
34.200343
 20
137.436621
 40
0.500000
 50
-90.000019
 51
0.000020
  0
LINE
  8
CSLAYER1
  6
CONTINUOUS
 62
     6
 10
34.200343
 20
136.936621
 11
33.523280
 21
136.936621
  0
ARC
  8
CSLAYER1
  6
CONTINUOUS
 62
     6
 10
35.200343
 20
136.436621
 40
1.750000
 50
163.398416
 51
196.601606
  0
LINE
  8
CSLAYER1
  6
CONTINUOUS
 62
     6
 10
33.523280
 20
135.936621
 11
34.200343
 21
135.936621
  0
ARC
  8
CSLAYER1
  6
CONTINUOUS
 62
     6
 10
34.200343
 20
135.436621
 40
0.500000
 50
0.000020
 51
90.000001
  0
LINE
  8
CSLAYER1
  6
CONTINUOUS
 62
     6
 10
34.700343
 20
135.436621
 11
34.700343
 21
134.759573
  0
CIRCLE
  8
CSLAYER1
  6
CONTINUOUS
 62
     6
 10
35.200343
 20
136.436621
 40
2.750000
  0
ARC
  8
CSLAYER1
  6
CONTINUOUS
 62
     6
 10
29.543483
 20
130.779768
 40
1.750000
 50
-16.601547
 51
16.601587
  0
LINE
  8
CSLAYER1
  6
CONTINUOUS
 62
     6
 10
31.220531
 20
130.279768
 11
30.543483
 21
130.279768
  0
ARC
  8
CSLAYER1
  6
CONTINUOUS
 62
     6
 10
30.543483
 20
129.779768
 40
0.500000
 50
90.000001
 51
179.942687
  0
LINE
  8
CSLAYER1
  6
CONTINUOUS
 62
     6
 10
30.043483
 20
129.779768
 11
30.043483
 21
129.102720
  0
ARC
  8
CSLAYER1
  6
CONTINUOUS
 62
     6
 10
29.543483
 20
130.779768
 40
1.750000
 50
253.398415
 51
286.601605
  0
LINE
  8
CSLAYER1
  6
CONTINUOUS
 62
     6
 10
29.043483
 20
129.102720
 11
29.043483
 21
129.779768
  0
ARC
  8
CSLAYER1
  6
CONTINUOUS
 62
     6
 10
28.543483
 20
129.779768
 40
0.500000
 50
0.000020
 51
90.000001
  0
LINE
  8
CSLAYER1
  6
CONTINUOUS
 62
     6
 10
28.543483
 20
130.279768
 11
27.866435
 21
130.279768
  0
ARC
  8
CSLAYER1
  6
CONTINUOUS
 62
     6
 10
29.543483
 20
130.779768
 40
1.750000
 50
163.398416
 51
196.601606
  0
LINE
  8
CSLAYER1
  6
CONTINUOUS
 62
     6
 10
27.866435
 20
131.279768
 11
28.543483
 21
131.279768
  0
ARC
  8
CSLAYER1
  6
CONTINUOUS
 62
     6
 10
28.543483
 20
131.779768
 40
0.500000
 50
-90.000019
 51
0.000020
  0
LINE
  8
CSLAYER1
  6
CONTINUOUS
 62
     6
 10
29.043483
 20
131.779768
 11
29.043483
 21
132.456816
  0
ARC
  8
CSLAYER1
  6
CONTINUOUS
 62
     6
 10
29.543483
 20
130.779768
 40
1.750000
 50
73.398434
 51
106.601568
  0
LINE
  8
CSLAYER1
  6
CONTINUOUS
 62
     6
 10
30.043483
 20
132.456816
 11
30.043483
 21
131.779768
  0
ARC
  8
CSLAYER1
  6
CONTINUOUS
 62
     6
 10
30.543483
 20
131.779768
 40
0.500000
 50
180.000000
 51
269.999981
  0
LINE
  8
CSLAYER1
  6
CONTINUOUS
 62
     6
 10
30.543483
 20
131.279768
 11
31.220531
 21
131.279768
  0
CIRCLE
  8
CSLAYER1
  6
CONTINUOUS
 62
     6
 10
29.543483
 20
130.779768
 40
2.750000
  0
CIRCLE
  8
CSLAYER1
  6
CONTINUOUS
 62
     6
 10
19.099834
 20
120.336119
 40
2.250000
  0
ARC
  8
CSLAYER1
  6
CONTINUOUS
 62
     6
 10
37.017181
 20
112.173604
 40
0.880005
 50
44.534022
 51
104.534010
  0
LINE
  8
CSLAYER1
  6
CONTINUOUS
 62
     6
 10
40.714060
 20
116.422435
 11
40.776806
 21
116.649212
  0
LINE
  8
CSLAYER1
  6
CONTINUOUS
 62
     6
 10
41.859775
 20
101.677488
 11
40.082931
 21
98.656488
  0
LINE
  8
CSLAYER1
  6
CONTINUOUS
 62
     6
 10
40.733614
 20
98.318283
 11
42.347791
 21
101.423840
  0
LINE
  8
CSLAYER1
  6
CONTINUOUS
 62
     6
 10
42.835803
 20
101.170188
 11
41.384298
 21
97.980077
  0
LINE
  8
CSLAYER1
  6
CONTINUOUS
 62
     6
 10
47.363869
 20
101.170189
 11
48.815376
 21
97.980078
  0
LINE
  8
CSLAYER1
  6
CONTINUOUS
 62
     6
 10
49.466059
 20
98.318284
 11
47.851882
 21
101.423842
  0
LINE
  8
CSLAYER1
  6
CONTINUOUS
 62
     6
 10
48.339897
 20
101.677489
 11
50.116742
 21
98.656490
  0
CIRCLE
  8
CSLAYER1
  6
CONTINUOUS
 62
     6
 10
71.099834
 20
120.336119
 40
2.250000
  0
ARC
  8
CSLAYER1
  6
CONTINUOUS
 62
     6
 10
60.656185
 20
130.779768
 40
1.750000
 50
253.398415
 51
286.601605
  0
LINE
  8
CSLAYER1
  6
CONTINUOUS
 62
     6
 10
60.156185
 20
129.102720
 11
60.156185
 21
129.779768
  0
ARC
  8
CSLAYER1
  6
CONTINUOUS
 62
     6
 10
59.656185
 20
129.779768
 40
0.500000
 50
0.000020
 51
90.000001
  0
LINE
  8
CSLAYER1
  6
CONTINUOUS
 62
     6
 10
59.656185
 20
130.279768
 11
58.979137
 21
130.279768
  0
ARC
  8
CSLAYER1
  6
CONTINUOUS
 62
     6
 10
60.656185
 20
130.779768
 40
1.750000
 50
163.398416
 51
196.601606
  0
LINE
  8
CSLAYER1
  6
CONTINUOUS
 62
     6
 10
58.979137
 20
131.279768
 11
59.656185
 21
131.279768
  0
ARC
  8
CSLAYER1
  6
CONTINUOUS
 62
     6
 10
59.656185
 20
131.779768
 40
0.500000
 50
-90.000019
 51
0.000020
  0
LINE
  8
CSLAYER1
  6
CONTINUOUS
 62
     6
 10
60.156185
 20
131.779768
 11
60.156185
 21
132.456816
  0
ARC
  8
CSLAYER1
  6
CONTINUOUS
 62
     6
 10
60.656185
 20
130.779768
 40
1.750000
 50
73.398434
 51
106.601568
  0
LINE
  8
CSLAYER1
  6
CONTINUOUS
 62
     6
 10
61.156185
 20
132.456816
 11
61.156185
 21
131.779768
  0
ARC
  8
CSLAYER1
  6
CONTINUOUS
 62
     6
 10
61.656185
 20
131.779768
 40
0.500000
 50
180.000000
 51
269.999981
  0
LINE
  8
CSLAYER1
  6
CONTINUOUS
 62
     6
 10
61.656185
 20
131.279768
 11
62.333232
 21
131.279768
  0
ARC
  8
CSLAYER1
  6
CONTINUOUS
 62
     6
 10
60.656185
 20
130.779768
 40
1.750000
 50
-16.601547
 51
16.601587
  0
LINE
  8
CSLAYER1
  6
CONTINUOUS
 62
     6
 10
62.333232
 20
130.279768
 11
61.656185
 21
130.279768
  0
ARC
  8
CSLAYER1
  6
CONTINUOUS
 62
     6
 10
61.656185
 20
129.779768
 40
0.500000
 50
90.000001
 51
179.942687
  0
LINE
  8
CSLAYER1
  6
CONTINUOUS
 62
     6
 10
61.156185
 20
129.779768
 11
61.156185
 21
129.102720
  0
CIRCLE
  8
CSLAYER1
  6
CONTINUOUS
 62
     6
 10
60.656185
 20
130.779768
 40
2.750000
  0
LINE
  8
CSLAYER1
  6
CONTINUOUS
 62
     6
 10
64.999843
 20
134.336119
 11
64.999843
 21
141.836119
  0
LINE
  8
CSLAYER1
  6
CONTINUOUS
 62
     6
 10
65.499843
 20
141.836119
 11
65.499835
 21
134.336111
  0
LINE
  8
CSLAYER1
  6
CONTINUOUS
 62
     6
 10
65.499835
 20
134.336111
 11
64.999843
 21
134.336119
  0
CIRCLE
  8
CSLAYER1
  6
CONTINUOUS
 62
     6
 10
45.099834
 20
146.336119
 40
30.000017
  0
CIRCLE
  8
CSLAYER1
  6
CONTINUOUS
 62
     6
 10
45.099826
 20
146.336119
 40
18.000000
  0
CIRCLE
  8
CSLAYER1
  6
CONTINUOUS
 62
     6
 10
45.099803
 20
146.336119
 40
5.000000
  0
CIRCLE
  8
CSLAYER1
  6
CONTINUOUS
 62
     6
 10
45.099803
 20
146.336119
 40
5.800000
  0
LINE
  8
CSLAYER1
  6
CONTINUOUS
 62
     6
 10
297.599849
 20
116.336129
 11
298.599849
 21
116.336129
  0
LINE
  8
CSLAYER1
  6
CONTINUOUS
 62
     6
 10
298.599849
 20
116.336129
 11
298.599849
 21
176.336129
  0
ARC
  8
CSLAYER1
  6
CONTINUOUS
 62
     6
 10
300.599849
 20
176.336129
 40
2.000000
 50
90.000000
 51
180.000000
  0
LINE
  8
CSLAYER1
  6
CONTINUOUS
 62
     6
 10
300.599849
 20
178.336129
 11
307.599849
 21
178.336129
  0
LINE
  8
CSLAYER1
  6
CONTINUOUS
 62
     6
 10
307.599849
 20
178.336129
 11
307.599849
 21
114.336129
  0
LINE
  8
CSLAYER1
  6
CONTINUOUS
 62
     6
 10
307.599849
 20
114.336129
 11
300.599849
 21
114.336129
  0
ARC
  8
CSLAYER1
  6
CONTINUOUS
 62
     6
 10
300.599849
 20
116.336129
 40
2.000000
 50
180.000000
 51
270.000000
  0
LINE
  8
CSLAYER1
  6
CONTINUOUS
 62
     6
 10
307.599849
 20
131.336129
 11
309.599849
 21
131.336129
  0
LINE
  8
CSLAYER1
  6
CONTINUOUS
 62
     6
 10
309.599849
 20
131.336129
 11
309.599849
 21
161.336129
  0
LINE
  8
CSLAYER1
  6
CONTINUOUS
 62
     6
 10
309.599849
 20
161.336129
 11
307.599849
 21
161.336129
  0
LINE
  8
CSLAYER1
  6
CONTINUOUS
 62
     6
 10
309.599849
 20
150.336129
 11
334.099849
 21
150.336129
  0
LINE
  8
CSLAYER1
  6
CONTINUOUS
 62
     6
 10
334.099849
 20
150.336129
 11
334.099849
 21
142.336129
  0
LINE
  8
CSLAYER1
  6
CONTINUOUS
 62
     6
 10
334.099849
 20
142.336129
 11
309.599849
 21
142.336129
  0
LINE
  8
CSLAYER1
  6
CONTINUOUS
 62
     6
 10
307.599849
 20
81.989024
 11
307.599849
 21
17.989024
  0
LINE
  8
CSLAYER1
  6
CONTINUOUS
 62
     6
 10
307.599849
 20
17.989024
 11
300.599849
 21
17.989024
  0
ARC
  8
CSLAYER1
  6
CONTINUOUS
 62
     6
 10
300.599849
 20
19.989024
 40
2.000000
 50
180.000000
 51
270.000000
  0
LINE
  8
CSLAYER1
  6
CONTINUOUS
 62
     6
 10
298.599849
 20
19.989024
 11
298.599849
 21
79.989024
  0
ARC
  8
CSLAYER1
  6
CONTINUOUS
 62
     6
 10
300.599849
 20
79.989024
 40
2.000000
 50
90.000000
 51
180.000000
  0
LINE
  8
CSLAYER1
  6
CONTINUOUS
 62
     6
 10
300.599849
 20
81.989024
 11
307.599849
 21
81.989024
  0
LINE
  8
CSLAYER1
  6
CONTINUOUS
 62
     6
 10
298.599849
 20
79.989024
 11
297.599849
 21
79.989024
  0
LINE
  8
CSLAYER1
  6
CONTINUOUS
 62
     6
 10
307.599849
 20
64.989024
 11
309.599849
 21
64.989024
  0
LINE
  8
CSLAYER1
  6
CONTINUOUS
 62
     6
 10
309.599849
 20
64.989024
 11
309.599849
 21
34.989024
  0
LINE
  8
CSLAYER1
  6
CONTINUOUS
 62
     6
 10
309.599849
 20
34.989024
 11
307.599849
 21
34.989024
  0
LINE
  8
CSLAYER1
  6
CONTINUOUS
 62
     6
 10
309.599849
 20
45.989024
 11
334.099849
 21
45.989024
  0
LINE
  8
CSLAYER1
  6
CONTINUOUS
 62
     6
 10
334.099849
 20
45.989024
 11
334.099849
 21
53.989024
  0
LINE
  8
CSLAYER1
  6
CONTINUOUS
 62
     6
 10
334.099849
 20
53.989024
 11
309.599849
 21
53.989024
  0
LINE
  8
CSLAYER1
  6
CONTINUOUS
 62
     6
 10
298.599849
 20
19.989024
 11
297.599849
 21
19.989024
  0
ARC
  8
CSLAYER1
  6
CONTINUOUS
 62
     6
 10
349.599849
 20
120.336135
 40
6.000000
 50
180.000000
 51
270.000003
  0
LINE
  8
CSLAYER1
  6
CONTINUOUS
 62
     6
 10
343.599849
 20
120.336196
 11
343.599849
 21
172.336135
  0
ARC
  8
CSLAYER1
  6
CONTINUOUS
 62
     6
 10
349.599849
 20
172.336135
 40
6.000000
 50
90.000000
 51
180.000003
  0
LINE
  8
CSLAYER1
  6
CONTINUOUS
 62
     6
 10
349.599849
 20
178.336135
 11
401.599849
 21
178.336135
  0
ARC
  8
CSLAYER1
  6
CONTINUOUS
 62
     6
 10
401.599849
 20
172.336135
 40
6.000000
 50
-0.000003
 51
90.000000
  0
LINE
  8
CSLAYER1
  6
CONTINUOUS
 62
     6
 10
407.599849
 20
172.336135
 11
407.599849
 21
120.336196
  0
ARC
  8
CSLAYER1
  6
CONTINUOUS
 62
     6
 10
401.599849
 20
120.336135
 40
6.000000
 50
-90.000000
 51
0.000003
  0
LINE
  8
CSLAYER1
  6
CONTINUOUS
 62
     6
 10
401.599849
 20
114.336196
 11
349.599849
 21
114.336196
  0
CIRCLE
  8
CSLAYER1
  6
CONTINUOUS
 62
     6
 10
349.599849
 20
120.336135
 40
2.250000
  0
ARC
  8
CSLAYER1
  6
CONTINUOUS
 62
     6
 10
375.599849
 20
145.648784
 40
11.323712
 50
-37.903087
 51
217.903071
  0
ARC
  8
CSLAYER1
  6
CONTINUOUS
 62
     6
 10
383.602332
 20
139.418362
 40
1.181817
 50
230.236306
 51
322.096613
  0
ARC
  8
CSLAYER1
  6
CONTINUOUS
 62
     6
 10
381.226361
 20
136.562980
 40
2.532799
 50
50.235874
 51
203.481567
  0
LINE
  8
CSLAYER1
  6
CONTINUOUS
 62
     6
 10
378.903300
 20
135.553793
 11
379.408010
 21
133.906450
  0
CIRCLE
  8
CSLAYER1
  6
CONTINUOUS
 62
     6
 10
381.226361
 20
136.562980
 40
1.181817
  0
LINE
  8
CSLAYER1
  6
CONTINUOUS
 62
     6
 10
372.296399
 20
135.553793
 11
371.791688
 21
133.906450
  0
ARC
  8
CSLAYER1
  6
CONTINUOUS
 62
     6
 10
369.973337
 20
136.562980
 40
2.532799
 50
-23.481552
 51
129.764124
  0
ARC
  8
CSLAYER1
  6
CONTINUOUS
 62
     6
 10
367.597366
 20
139.418362
 40
1.181817
 50
217.903402
 51
309.763723
  0
CIRCLE
  8
CSLAYER1
  6
CONTINUOUS
 62
     6
 10
369.973337
 20
136.562980
 40
1.181817
  0
CIRCLE
  8
CSLAYER1
  6
CONTINUOUS
 62
     6
 10
375.599834
 20
146.336135
 40
4.000000
  0
CIRCLE
  8
CSLAYER1
  6
CONTINUOUS
 62
     6
 10
375.599834
 20
146.336135
 40
15.000000
  0
CIRCLE
  8
CSLAYER1
  6
CONTINUOUS
 62
     6
 10
375.599834
 20
146.336135
 40
17.500000
  0
CIRCLE
  8
CSLAYER1
  6
CONTINUOUS
 62
     6
 10
375.599849
 20
146.336135
 40
13.000000
  0
CIRCLE
  8
CSLAYER1
  6
CONTINUOUS
 62
     6
 10
375.599849
 20
146.336135
 40
5.000000
  0
ARC
  8
CSLAYER1
  6
CONTINUOUS
 62
     6
 10
392.570369
 20
129.365584
 40
2.397500
 50
73.398434
 51
106.601595
  0
LINE
  8
CSLAYER1
  6
CONTINUOUS
 62
     6
 10
393.255367
 20
131.663146
 11
393.255367
 21
130.735579
  0
ARC
  8
CSLAYER1
  6
CONTINUOUS
 62
     6
 10
393.940364
 20
130.735579
 40
0.685000
 50
180.000000
 51
270.000009
  0
LINE
  8
CSLAYER1
  6
CONTINUOUS
 62
     6
 10
393.940364
 20
130.050582
 11
394.867916
 21
130.050582
  0
ARC
  8
CSLAYER1
  6
CONTINUOUS
 62
     6
 10
392.570369
 20
129.365584
 40
2.397500
 50
-16.601576
 51
16.601586
  0
LINE
  8
CSLAYER1
  6
CONTINUOUS
 62
     6
 10
394.867916
 20
128.680587
 11
393.940364
 21
128.680587
  0
ARC
  8
CSLAYER1
  6
CONTINUOUS
 62
     6
 10
393.940364
 20
127.995589
 40
0.685000
 50
90.000001
 51
179.942691
  0
LINE
  8
CSLAYER1
  6
CONTINUOUS
 62
     6
 10
393.255367
 20
127.995589
 11
393.255367
 21
127.068023
  0
ARC
  8
CSLAYER1
  6
CONTINUOUS
 62
     6
 10
392.570369
 20
129.365584
 40
2.397500
 50
253.398442
 51
286.601576
  0
LINE
  8
CSLAYER1
  6
CONTINUOUS
 62
     6
 10
391.885372
 20
127.068023
 11
391.885372
 21
127.995589
  0
ARC
  8
CSLAYER1
  6
CONTINUOUS
 62
     6
 10
391.200374
 20
127.995589
 40
0.685000
 50
0.000005
 51
90.000001
  0
LINE
  8
CSLAYER1
  6
CONTINUOUS
 62
     6
 10
391.200374
 20
128.680587
 11
390.272823
 21
128.680587
  0
ARC
  8
CSLAYER1
  6
CONTINUOUS
 62
     6
 10
392.570369
 20
129.365584
 40
2.397500
 50
163.398416
 51
196.601604
  0
LINE
  8
CSLAYER1
  6
CONTINUOUS
 62
     6
 10
390.272823
 20
130.050582
 11
391.200374
 21
130.050582
  0
ARC
  8
CSLAYER1
  6
CONTINUOUS
 62
     6
 10
391.200374
 20
130.735579
 40
0.685000
 50
-89.999991
 51
0.000005
  0
LINE
  8
CSLAYER1
  6
CONTINUOUS
 62
     6
 10
391.885372
 20
130.735579
 11
391.885372
 21
131.663146
  0
CIRCLE
  8
CSLAYER1
  6
CONTINUOUS
 62
     6
 10
392.570369
 20
129.365584
 40
4.500000
  0
CIRCLE
  8
CSLAYER1
  6
CONTINUOUS
 62
     6
 10
392.570369
 20
129.365584
 40
5.500000
  0
CIRCLE
  8
CSLAYER1
  6
CONTINUOUS
 62
     6
 10
401.599849
 20
120.336135
 40
2.250000
  0
CIRCLE
  8
CSLAYER1
  6
CONTINUOUS
 62
     6
 10
401.599849
 20
172.336135
 40
2.250000
  0
ARC
  8
CSLAYER1
  6
CONTINUOUS
 62
     6
 10
358.629329
 20
163.306685
 40
2.397500
 50
-16.601584
 51
16.601604
  0
LINE
  8
CSLAYER1
  6
CONTINUOUS
 62
     6
 10
360.926876
 20
162.621688
 11
359.999324
 21
162.621688
  0
ARC
  8
CSLAYER1
  6
CONTINUOUS
 62
     6
 10
359.999324
 20
161.936690
 40
0.685000
 50
90.000009
 51
180.000005
  0
LINE
  8
CSLAYER1
  6
CONTINUOUS
 62
     6
 10
359.314327
 20
161.936690
 11
359.314327
 21
161.009124
  0
ARC
  8
CSLAYER1
  6
CONTINUOUS
 62
     6
 10
358.629329
 20
163.306685
 40
2.397500
 50
253.398434
 51
286.601595
  0
LINE
  8
CSLAYER1
  6
CONTINUOUS
 62
     6
 10
357.944332
 20
161.009124
 11
357.944332
 21
161.936690
  0
ARC
  8
CSLAYER1
  6
CONTINUOUS
 62
     6
 10
357.259334
 20
161.936690
 40
0.685000
 50
0.000000
 51
90.000009
  0
LINE
  8
CSLAYER1
  6
CONTINUOUS
 62
     6
 10
357.259334
 20
162.621688
 11
356.331783
 21
162.621688
  0
ARC
  8
CSLAYER1
  6
CONTINUOUS
 62
     6
 10
358.629329
 20
163.306685
 40
2.397500
 50
163.398424
 51
196.601586
  0
LINE
  8
CSLAYER1
  6
CONTINUOUS
 62
     6
 10
356.331783
 20
163.991683
 11
357.259334
 21
163.991683
  0
ARC
  8
CSLAYER1
  6
CONTINUOUS
 62
     6
 10
357.259334
 20
164.676680
 40
0.685000
 50
270.000001
 51
359.942691
  0
LINE
  8
CSLAYER1
  6
CONTINUOUS
 62
     6
 10
357.944332
 20
164.676680
 11
357.944332
 21
165.604247
  0
ARC
  8
CSLAYER1
  6
CONTINUOUS
 62
     6
 10
358.629329
 20
163.306685
 40
2.397500
 50
73.398442
 51
106.601576
  0
LINE
  8
CSLAYER1
  6
CONTINUOUS
 62
     6
 10
359.314327
 20
165.604247
 11
359.314327
 21
164.676680
  0
ARC
  8
CSLAYER1
  6
CONTINUOUS
 62
     6
 10
359.999324
 20
164.676680
 40
0.685000
 50
180.000005
 51
270.000001
  0
LINE
  8
CSLAYER1
  6
CONTINUOUS
 62
     6
 10
359.999324
 20
163.991683
 11
360.926876
 21
163.991683
  0
CIRCLE
  8
CSLAYER1
  6
CONTINUOUS
 62
     6
 10
358.629329
 20
163.306685
 40
4.500000
  0
CIRCLE
  8
CSLAYER1
  6
CONTINUOUS
 62
     6
 10
358.629329
 20
163.306685
 40
5.500000
  0
CIRCLE
  8
CSLAYER1
  6
CONTINUOUS
 62
     6
 10
349.599849
 20
172.336135
 40
2.250000
  0
LINE
  8
CSLAYER1
  6
CONTINUOUS
 62
     6
 10
298.599849
 20
176.336129
 11
297.599849
 21
176.336129
  0
LINE
  8
CSLAYER1
  6
CONTINUOUS
 62
     6
 10
300.599849
 20
210.683230
 11
307.599849
 21
210.683230
  0
LINE
  8
CSLAYER1
  6
CONTINUOUS
 62
     6
 10
307.599849
 20
210.683230
 11
307.599849
 21
274.683230
  0
LINE
  8
CSLAYER1
  6
CONTINUOUS
 62
     6
 10
307.599849
 20
274.683230
 11
300.599849
 21
274.683230
  0
ARC
  8
CSLAYER1
  6
CONTINUOUS
 62
     6
 10
300.599849
 20
272.683230
 40
2.000000
 50
90.000000
 51
180.000000
  0
LINE
  8
CSLAYER1
  6
CONTINUOUS
 62
     6
 10
298.599849
 20
272.683230
 11
298.599849
 21
212.683230
  0
ARC
  8
CSLAYER1
  6
CONTINUOUS
 62
     6
 10
300.599849
 20
212.683230
 40
2.000000
 50
180.000000
 51
270.000000
  0
LINE
  8
CSLAYER1
  6
CONTINUOUS
 62
     6
 10
298.599849
 20
212.683230
 11
297.599849
 21
212.683230
  0
LINE
  8
CSLAYER1
  6
CONTINUOUS
 62
     6
 10
307.599849
 20
227.683230
 11
309.599849
 21
227.683230
  0
LINE
  8
CSLAYER1
  6
CONTINUOUS
 62
     6
 10
309.599849
 20
227.683230
 11
309.599849
 21
257.683230
  0
LINE
  8
CSLAYER1
  6
CONTINUOUS
 62
     6
 10
309.599849
 20
257.683230
 11
307.599849
 21
257.683230
  0
LINE
  8
CSLAYER1
  6
CONTINUOUS
 62
     6
 10
309.599849
 20
246.683230
 11
334.099849
 21
246.683230
  0
LINE
  8
CSLAYER1
  6
CONTINUOUS
 62
     6
 10
334.099849
 20
246.683230
 11
334.099849
 21
238.683230
  0
LINE
  8
CSLAYER1
  6
CONTINUOUS
 62
     6
 10
334.099849
 20
238.683230
 11
309.599849
 21
238.683230
  0
LINE
  8
CSLAYER1
  6
CONTINUOUS
 62
     6
 10
298.599849
 20
272.683230
 11
297.599849
 21
272.683230
  0
POLYLINE
  8
CSLAYER1
  6
CONTINUOUS
 62
     6
 66
     1
 10
0.0
 20
0.0
 30
0.0
  0
VERTEX
  8
CSLAYER1
  6
CONTINUOUS
 62
     6
 10
160.684326
 20
116.336136
 30
0.0
  0
VERTEX
  8
CSLAYER1
  6
CONTINUOUS
 62
     6
 10
161.004037
 20
116.242435
 30
0.0
  0
VERTEX
  8
CSLAYER1
  6
CONTINUOUS
 62
     6
 10
161.351113
 20
116.157053
 30
0.0
  0
VERTEX
  8
CSLAYER1
  6
CONTINUOUS
 62
     6
 10
161.722915
 20
116.080638
 30
0.0
  0
VERTEX
  8
CSLAYER1
  6
CONTINUOUS
 62
     6
 10
162.116612
 20
116.013772
 30
0.0
  0
VERTEX
  8
CSLAYER1
  6
CONTINUOUS
 62
     6
 10
162.529207
 20
115.956964
 30
0.0
  0
VERTEX
  8
CSLAYER1
  6
CONTINUOUS
 62
     6
 10
162.957562
 20
115.910647
 30
0.0
  0
VERTEX
  8
CSLAYER1
  6
CONTINUOUS
 62
     6
 10
163.398415
 20
115.875173
 30
0.0
  0
VERTEX
  8
CSLAYER1
  6
CONTINUOUS
 62
     6
 10
163.848412
 20
115.850812
 30
0.0
  0
VERTEX
  8
CSLAYER1
  6
CONTINUOUS
 62
     6
 10
164.304128
 20
115.837749
 30
0.0
  0
VERTEX
  8
CSLAYER1
  6
CONTINUOUS
 62
     6
 10
164.762095
 20
115.836084
 30
0.0
  0
VERTEX
  8
CSLAYER1
  6
CONTINUOUS
 62
     6
 10
165.218826
 20
115.845829
 30
0.0
  0
VERTEX
  8
CSLAYER1
  6
CONTINUOUS
 62
     6
 10
165.670847
 20
115.866911
 30
0.0
  0
VERTEX
  8
CSLAYER1
  6
CONTINUOUS
 62
     6
 10
166.114717
 20
115.899169
 30
0.0
  0
VERTEX
  8
CSLAYER1
  6
CONTINUOUS
 62
     6
 10
166.547058
 20
115.942356
 30
0.0
  0
VERTEX
  8
CSLAYER1
  6
CONTINUOUS
 62
     6
 10
166.964580
 20
115.996146
 30
0.0
  0
VERTEX
  8
CSLAYER1
  6
CONTINUOUS
 62
     6
 10
167.364104
 20
116.060128
 30
0.0
  0
VERTEX
  8
CSLAYER1
  6
CONTINUOUS
 62
     6
 10
167.742591
 20
116.133815
 30
0.0
  0
VERTEX
  8
CSLAYER1
  6
CONTINUOUS
 62
     6
 10
168.097160
 20
116.216647
 30
0.0
  0
VERTEX
  8
CSLAYER1
  6
CONTINUOUS
 62
     6
 10
168.425112
 20
116.307992
 30
0.0
  0
VERTEX
  8
CSLAYER1
  6
CONTINUOUS
 62
     6
 10
168.515373
 20
116.336136
 30
0.0
  0
SEQEND
  0
ENDSEC
  0
EOF
