  0
SECTION
  2
HEADER
  9
$ACADVER
  1
AC1006
  9
$INSBASE
 10
0.000000
 20
0.000000
 30
0.0
  9
$EXTMIN
 10
0.000000
 20
0.000000
  9
$EXTMAX
 10
420.000000
 20
297.000000
  9
$LIMMIN
 10
0.000000
 20
0.000000
  9
$LIMMAX
 10
420.000000
 20
297.000000
  9
$VIEWCTR
 10
210.000000
 20
148.500000
  9
$VIEWSIZE
 40
297.000000
  9
$SNAPMODE
 70
     0
  9
$SNAPUNIT
 10
1.0
 20
1.0
  9
$SNAPBASE
 10
0.0
 20
0.0
  9
$SNAPANG
 50
0.0
  9
$SNAPSTYLE
 70
     0
  9
$SNAPISOPAIR
 70
     0
  9
$GRIDMODE
 70
     0
  9
$GRIDUNIT
 10
0.0
 20
0.0
  9
$ORTHOMODE
 70
     0
  9
$REGENMODE
 70
     1
  9
$FILLMODE
 70
     1
  9
$QTEXTMODE
 70
     0
  9
$DRAGMODE
 70
     2
  9
$LTSCALE
 40
15.000000
  9
$OSMODE
 70
     0
  9
$ATTMODE
 70
     1
  9
$TEXTSIZE
 40
0.2
  9
$TRACEWID
 40
0.05
  9
$TEXTSTYLE
  7
STANDARD
  9
$CLAYER
  8
CSLAYER1
  9
$CELTYPE
  6
BYLAYER
  9
$CECOLOR
 62
   256
  9
$DIMSCALE
 40
1.0
  9
$DIMASZ
 40
0.18
  9
$DIMEXO
 40
0.0625
  9
$DIMDLI
 40
0.38
  9
$DIMRND
 40
0.0
  9
$DIMDLE
 40
0.0
  9
$DIMEXE
 40
0.18
  9
$DIMTP
 40
0.0
  9
$DIMTM
 40
0.0
  9
$DIMTXT
 40
0.18
  9
$DIMCEN
 40
0.09
  9
$DIMTSZ
 40
0.0
  9
$DIMTOL
 70
     0
  9
$DIMLIM
 70
     0
  9
$DIMTIH
 70
     1
  9
$DIMTOH
 70
     1
  9
$DIMSE1
 70
     0
  9
$DIMSE2
 70
     0
  9
$DIMTAD
 70
     0
  9
$DIMZIN
 70
     0
  9
$DIMBLK
  1

  9
$LUNITS
 70
     2
  9
$LUPREC
 70
     4
  9
$AXISMODE
 70
     0
  9
$AXISUNIT
 10
0.0
 20
0.0
  9
$SKETCHINC
 40
0.1
  9
$FILLETRAD
 40
0.0
  9
$AUNITS
 70
     0
  9
$AUPREC
 70
     0
  9
$MENU
  1
ACAD
  9
$ELEVATION
 40
0.0
  9
$THICKNESS
 40
0.0
  9
$VIEWDIR
 10
0.0
 20
0.0
 30
1.0
  9
$LIMCHECK
 70
     0
  9
$BLIPMODE
 70
     1
  9
$CHAMFERA
 40
0.0
  9
$CHAMFERB
 40
0.0
  9
$FASTZOOM
 70
     1
  9
$SKPOLY
 70
     0
  9
$TDCREATE
 40
0.000000
  9
$TDUPDATE
 40
0.000000
  9
$TDINDWG
 40
0.0
  9
$TDUSRTIMER
 40
0.0
  9
$USRTIMER
 70
     1
  9
$ANGBASE
 50
0.0
  9
$ANGDIR
 70
     0
  9
$PDMODE
 70
     0
  9
$PDSIZE
 40
0.0
  9
$PLINEWID
 40
0.0
  9
$COORDS
 70
     0
  9
$USERI1
 70
     0
  9
$USERI2
 70
     0
  9
$USERI3
 70
     0
  9
$USERI4
 70
     0
  9
$USERI5
 70
     0
  9
$USERR1
 40
0.0
  9
$USERR2
 40
0.0
  9
$USERR3
 40
0.0
  9
$USERR4
 40
0.0
  9
$USERR5
 40
0.0
  0
ENDSEC
  0
SECTION
  2
TABLES
  0
TABLE
  2
LTYPE
 70
     9
  0
LTYPE
  2
CONTINUOUS
 70
    64
  3
Solid line
 72
    65
 73
     0
 40
0.0
  0
LTYPE
  2
DASHED
 70
    64
  3
__ __ __ __ __ __ __ __ __ __ __ __ __ __ __
 72
    65
 73
     2
 40
0.75
 49
0.5
 49
-0.25
  0
LTYPE
  2
HIDDEN
 70
    64
  3
_ _ _ _ _ _ _ _ _ _ _ _ _ _ _ _ _ _ _ _ _ _ _
 72
    65
 73
     2
 40
0.375
 49
0.25
 49
-0.125
  0
LTYPE
  2
DOT
 70
    64
  3
...............................................
 72
    65
 73
     2
 40
0.25
 49
0.0
 49
-0.25
  0
LTYPE
  2
DASHDOT
 70
    64
  3
__ . __ . __ . __ . __ . __ . __ . __ . __ . __
 72
    65
 73
     4
 40
1.0
 49
0.5
 49
-0.25
 49
0.0
 49
-0.25
  0
LTYPE
  2
DIVIDE
 70
    64
  3
__ . . __ . . __ . . __ . . __ . . __ . . __
 72
    65
 73
     6
 40
1.25
 49
0.5
 49
-0.25
 49
0.0
 49
-0.25
 49
0.0
 49
-0.25
  0
LTYPE
  2
CENTER
 70
    64
  3
____ _ ____ _ ____ _ ____ _ ____ _ ____ _ ____ 
 72
    65
 73
     4
 40
2.0
 49
1.25
 49
-0.25
 49
0.25
 49
-0.25
  0
LTYPE
  2
PHANTOM
 70
    64
  3
______  __  __  ______  __  __  ______  __  __ 
 72
    65
 73
     6
 40
2.5
 49
1.25
 49
-0.25
 49
0.25
 49
-0.25
 49
0.25
 49
-0.25
  0
LTYPE
  2
BORDER
 70
    64
  3
__ __ . __ __ . __ __ . __ __ . __ __ . __ __ .
 72
    65
 73
     6
 40
1.75
 49
0.5
 49
-0.25
 49
0.5
 49
-0.25
 49
0.0
 49
-0.25
  0
ENDTAB
  0
TABLE
  2
LAYER
 70
    16
  0
LAYER
  2
CSLAYER1
 70
    64
 62
     7
  6
CONTINUOUS
  0
LAYER
  2
CSLAYER2
 70
    64
 62
     7
  6
CONTINUOUS
  0
LAYER
  2
CSLAYER3
 70
    64
 62
     7
  6
CONTINUOUS
  0
LAYER
  2
CSLAYER4
 70
    64
 62
     7
  6
CONTINUOUS
  0
LAYER
  2
CSLAYER5
 70
    64
 62
     7
  6
CONTINUOUS
  0
LAYER
  2
CSLAYER6
 70
    64
 62
     7
  6
CONTINUOUS
  0
LAYER
  2
CSLAYER7
 70
    64
 62
     7
  6
CONTINUOUS
  0
LAYER
  2
CSLAYER8
 70
    64
 62
     7
  6
CONTINUOUS
  0
LAYER
  2
CSLAYER9
 70
    64
 62
     7
  6
CONTINUOUS
  0
LAYER
  2
CSLAYER10
 70
    64
 62
     7
  6
CONTINUOUS
  0
LAYER
  2
CSLAYER11
 70
    64
 62
     7
  6
CONTINUOUS
  0
LAYER
  2
CSLAYER12
 70
    64
 62
     7
  6
CONTINUOUS
  0
LAYER
  2
CSLAYER13
 70
    64
 62
     7
  6
CONTINUOUS
  0
LAYER
  2
CSLAYER14
 70
    64
 62
     7
  6
CONTINUOUS
  0
LAYER
  2
CSLAYER15
 70
    64
 62
     7
  6
CONTINUOUS
  0
LAYER
  2
CSLAYER16
 70
    64
 62
     7
  6
CONTINUOUS
  0
ENDTAB
  0
TABLE
  2
STYLE
 70
     1
  0
STYLE
  2
JX_FONT
 70
     0
 40
1.0
 41
1.0
 50
0.0
 71
     0
 42
1.0
  3
monotxt
  4
bigfont
  0
ENDTAB
  0
TABLE
  2
VIEW
 70
     0
  0
ENDTAB
  0
ENDSEC
  0
SECTION
  2
BLOCKS
  0
ENDSEC
  0
SECTION
  2
ENTITIES
  0
LINE
  8
CSLAYER1
  6
CENTER
 62
     3
 10
64.728715
 20
105.042732
 11
64.728700
 21
188.702031
  0
LINE
  8
CSLAYER1
  6
CENTER
 62
     3
 10
85.478700
 20
179.702046
 11
95.948212
 21
179.702046
  0
LINE
  8
CSLAYER1
  6
CENTER
 62
     3
 10
90.728700
 20
184.952046
 11
90.728700
 21
174.452046
  0
LINE
  8
CSLAYER1
  6
CENTER
 62
     3
 10
99.728706
 20
153.702031
 11
29.728706
 21
153.702031
  0
LINE
  8
CSLAYER1
  6
CENTER
 62
     3
 10
38.728684
 20
174.452031
 11
38.728684
 21
184.921543
  0
LINE
  8
CSLAYER1
  6
CENTER
 62
     3
 10
33.478684
 20
179.702031
 11
43.978684
 21
179.702031
  0
LINE
  8
CSLAYER1
  6
CENTER
 62
     3
 10
38.728700
 20
132.952015
 11
38.728700
 21
122.452015
  0
LINE
  8
CSLAYER1
  6
CENTER
 62
     3
 10
33.509187
 20
127.702015
 11
43.978700
 21
127.702015
  0
LINE
  8
CSLAYER1
  6
CENTER
 62
     3
 10
85.478715
 20
127.702031
 11
95.978715
 21
127.702031
  0
LINE
  8
CSLAYER1
  6
CENTER
 62
     3
 10
90.728715
 20
122.482518
 11
90.728715
 21
132.952031
  0
LINE
  8
CSLAYER1
  6
CENTER
 62
     3
 10
121.428700
 20
153.702031
 11
310.228700
 21
153.702031
  0
LINE
  8
CSLAYER1
  6
CENTER
 62
     3
 10
282.728706
 20
179.702026
 11
268.728706
 21
179.702029
  0
LINE
  8
CSLAYER1
  6
CONTINUOUS
 62
     3
 10
238.728700
 20
184.702035
 11
238.728700
 21
170.202004
  0
ARC
  8
CSLAYER1
  6
CONTINUOUS
 62
     3
 10
237.728700
 20
170.202004
 40
1.000000
 50
270.000001
 51
359.942691
  0
LINE
  8
CSLAYER1
  6
CONTINUOUS
 62
     3
 10
237.728700
 20
169.202004
 11
201.728715
 21
169.202004
  0
ARC
  8
CSLAYER1
  6
CONTINUOUS
 62
     3
 10
201.728715
 20
170.202004
 40
1.000000
 50
180.000005
 51
270.000001
  0
LINE
  8
CSLAYER1
  6
CONTINUOUS
 62
     3
 10
200.728715
 20
170.202004
 11
200.728715
 21
184.702035
  0
LINE
  8
CSLAYER1
  6
CONTINUOUS
 62
     3
 10
201.728700
 20
215.855287
 11
237.728700
 21
215.855287
  0
ARC
  8
CSLAYER1
  6
CONTINUOUS
 62
     3
 10
237.728700
 20
216.855287
 40
1.000000
 50
270.000001
 51
359.942691
  0
LINE
  8
CSLAYER1
  6
CONTINUOUS
 62
     3
 10
238.728700
 20
216.855287
 11
238.728700
 21
268.548855
  0
ARC
  8
CSLAYER1
  6
CONTINUOUS
 62
     3
 10
237.728700
 20
268.548855
 40
1.000000
 50
0.057319
 51
90.000009
  0
LINE
  8
CSLAYER1
  6
CONTINUOUS
 62
     3
 10
237.728700
 20
269.548855
 11
201.728700
 21
269.548855
  0
ARC
  8
CSLAYER1
  6
CONTINUOUS
 62
     3
 10
201.728700
 20
268.548855
 40
1.000000
 50
90.000009
 51
180.000005
  0
LINE
  8
CSLAYER1
  6
CONTINUOUS
 62
     3
 10
200.728700
 20
268.548855
 11
200.728700
 21
216.855287
  0
ARC
  8
CSLAYER1
  6
CONTINUOUS
 62
     3
 10
201.728700
 20
216.855287
 40
1.000000
 50
180.000005
 51
270.000001
  0
LINE
  8
CSLAYER1
  6
CENTER
 62
     3
 10
162.728700
 20
166.702046
 11
162.728700
 21
105.130513
  0
LINE
  8
CSLAYER1
  6
CENTER
 62
     3
 10
162.728700
 20
70.702000
 11
162.728700
 21
48.702000
  0
LINE
  8
CSLAYER1
  6
CENTER
 62
     3
 10
121.428700
 20
59.702000
 11
310.228700
 21
59.702000
  0
LINE
  8
CSLAYER1
  6
CENTER
 62
     3
 10
282.728700
 20
33.701989
 11
268.728700
 21
33.701989
  0
LINE
  8
CSLAYER1
  6
CENTER
 62
     3
 10
268.728706
 20
85.701999
 11
282.728706
 21
85.701996
  0
LINE
  8
CSLAYER1
  6
CENTER
 62
     3
 10
282.728700
 20
127.702019
 11
268.728700
 21
127.702019
  0
LINE
  8
CSLAYER1
  6
CENTER
 62
     3
 10
330.289430
 20
127.702031
 11
340.228700
 21
127.702031
  0
LINE
  8
CSLAYER1
  6
CENTER
 62
     3
 10
335.228700
 20
122.702031
 11
335.228700
 21
132.702031
  0
LINE
  8
CSLAYER1
  6
CENTER
 62
     3
 10
361.228700
 20
118.702031
 11
361.228700
 21
188.702031
  0
ARC
  8
CSLAYER1
  6
CENTER
 62
     3
 10
361.228700
 20
153.702015
 40
24.000000
 50
114.927254
 51
155.072670
  0
LINE
  8
CSLAYER1
  6
CENTER
 62
     3
 10
349.237975
 20
165.692770
 11
339.278321
 21
175.652409
  0
LINE
  8
CSLAYER1
  6
CENTER
 62
     3
 10
335.228700
 20
174.702031
 11
335.228700
 21
184.641301
  0
LINE
  8
CSLAYER1
  6
CENTER
 62
     3
 10
330.228700
 20
179.702031
 11
340.228700
 21
179.702031
  0
LINE
  8
CSLAYER1
  6
CENTER
 62
     3
 10
326.228700
 20
153.702031
 11
396.228700
 21
153.702031
  0
LINE
  8
CSLAYER1
  6
CENTER
 62
     3
 10
387.228700
 20
174.702031
 11
387.228700
 21
184.702031
  0
LINE
  8
CSLAYER1
  6
CENTER
 62
     3
 10
392.167970
 20
179.702031
 11
382.228700
 21
179.702031
  0
ARC
  8
CSLAYER1
  6
CENTER
 62
     3
 10
361.228700
 20
153.702046
 40
24.000000
 50
294.927254
 51
335.072670
  0
LINE
  8
CSLAYER1
  6
CENTER
 62
     3
 10
373.219424
 20
141.711291
 11
383.179078
 21
131.751652
  0
LINE
  8
CSLAYER1
  6
CENTER
 62
     3
 10
387.228700
 20
132.702031
 11
387.228700
 21
122.702031
  0
LINE
  8
CSLAYER1
  6
CENTER
 62
     3
 10
392.167970
 20
127.702031
 11
382.228700
 21
127.702031
  0
LINE
  8
CSLAYER1
  6
CENTER
 62
     3
 10
282.728700
 20
216.702056
 11
268.728700
 21
216.702056
  0
LINE
  8
CSLAYER1
  6
CENTER
 62
     3
 10
310.228700
 20
242.702067
 11
121.428700
 21
242.702067
  0
CIRCLE
  8
CSLAYER1
  6
CONTINUOUS
 62
     3
 10
162.728700
 20
153.702046
 40
4.912286
  0
LINE
  8
CSLAYER1
  6
CENTER
 62
     3
 10
268.728706
 20
268.702066
 11
282.728706
 21
268.702063
  0
TEXT
  8
CSLAYER1
 62
     3
 10
58.674385
 20
134.492386
 40
2.000000
 41
1.500000
  1
1
 50
0.000000
 51
10.000000
  7
JX_FONT
 72
     5
 11
60.674385
 21
134.492386
  0
TEXT
  8
CSLAYER1
 62
     3
 10
61.174385
 20
134.492386
 40
2.000000
 41
1.500000
  1
2
 50
0.000000
 51
10.000000
  7
JX_FONT
 72
     5
 11
63.174385
 21
134.492386
  0
TEXT
  8
CSLAYER1
 62
     3
 10
63.674385
 20
134.492386
 40
2.000000
 41
1.500000
  1
3
 50
0.000000
 51
10.000000
  7
JX_FONT
 72
     5
 11
65.674385
 21
134.492386
  0
TEXT
  8
CSLAYER1
 62
     3
 10
66.174385
 20
134.492386
 40
2.000000
 41
1.500000
  1
4
 50
0.000000
 51
10.000000
  7
JX_FONT
 72
     5
 11
68.174385
 21
134.492386
  0
TEXT
  8
CSLAYER1
 62
     3
 10
68.674377
 20
134.492386
 40
2.000000
 41
1.500000
  1
5
 50
0.000000
 51
10.000000
  7
JX_FONT
 72
     5
 11
70.674377
 21
134.492386
  0
TEXT
  8
CSLAYER1
 62
     3
 10
217.098770
 20
182.316071
 40
3.500000
 41
1.125000
  1
N P
 50
-90.000000
 51
10.000000
  7
JX_FONT
 72
     5
 11
217.098770
 21
171.816071
  0
TEXT
  8
CSLAYER1
 62
     3
 10
218.507614
 20
248.200470
 40
3.500000
 41
1.125000
  1
N P
 50
-90.000000
 51
10.000000
  7
JX_FONT
 72
     5
 11
218.507614
 21
237.700470
  0
LINE
  8
CSLAYER1
  6
CONTINUOUS
 62
     6
 10
60.570421
 20
105.322075
 11
62.147207
 21
108.329491
  0
LINE
  8
CSLAYER1
  6
CONTINUOUS
 62
     6
 10
62.545350
 20
108.122536
 11
61.143846
 21
105.042733
  0
LINE
  8
CSLAYER1
  6
CONTINUOUS
 62
     6
 10
60.041127
 20
105.645554
 11
61.658288
 21
108.583626
  0
ARC
  8
CSLAYER1
  6
CONTINUOUS
 62
     6
 10
48.969888
 20
115.178582
 40
13.558834
 50
-27.463808
 51
0.000082
  0
ARC
  8
CSLAYER1
  6
CONTINUOUS
 62
     6
 10
63.078729
 20
114.225975
 40
1.099999
 50
60.000350
 51
120.000345
  0
ARC
  8
CSLAYER1
  6
CONTINUOUS
 62
     6
 10
63.078718
 20
116.131234
 40
1.099999
 50
240.000362
 51
300.000350
  0
ARC
  8
CSLAYER1
  6
CONTINUOUS
 62
     6
 10
64.178727
 20
114.225991
 40
1.099999
 50
60.000350
 51
120.000345
  0
ARC
  8
CSLAYER1
  6
CONTINUOUS
 62
     6
 10
48.969888
 20
115.178582
 40
15.758816
 50
-27.463808
 51
0.000109
  0
LINE
  8
CSLAYER1
  6
CONTINUOUS
 62
     6
 10
62.952714
 20
107.910805
 11
61.000661
 21
108.925423
  0
LINE
  8
CSLAYER1
  6
CONTINUOUS
 62
     6
 10
66.504739
 20
107.910805
 11
68.456788
 21
108.925423
  0
ARC
  8
CSLAYER1
  6
CONTINUOUS
 62
     6
 10
80.487565
 20
115.178597
 40
13.558834
 50
179.999978
 51
207.463868
  0
ARC
  8
CSLAYER1
  6
CONTINUOUS
 62
     6
 10
66.378732
 20
114.225960
 40
1.099999
 50
59.999715
 51
119.999716
  0
ARC
  8
CSLAYER1
  6
CONTINUOUS
 62
     6
 10
65.278734
 20
114.225975
 40
1.099999
 50
59.999715
 51
119.999716
  0
ARC
  8
CSLAYER1
  6
CONTINUOUS
 62
     6
 10
65.278741
 20
116.131234
 40
1.099999
 50
239.999733
 51
299.999721
  0
ARC
  8
CSLAYER1
  6
CONTINUOUS
 62
     6
 10
80.487565
 20
115.178597
 40
15.758816
 50
179.999950
 51
207.463868
  0
LINE
  8
CSLAYER1
  6
CONTINUOUS
 62
     6
 10
66.912103
 20
108.122551
 11
68.313615
 21
105.042733
  0
LINE
  8
CSLAYER1
  6
CONTINUOUS
 62
     6
 10
68.887033
 20
105.322091
 11
67.310243
 21
108.329491
  0
LINE
  8
CSLAYER1
  6
CONTINUOUS
 62
     6
 10
67.799173
 20
108.583611
 11
69.416337
 21
105.645554
  0
ARC
  8
CSLAYER1
  6
CONTINUOUS
 62
     6
 10
66.378747
 20
119.131234
 40
1.099999
 50
239.999870
 51
299.999858
  0
ARC
  8
CSLAYER1
  6
CONTINUOUS
 62
     6
 10
65.278749
 20
119.131234
 40
1.099999
 50
239.999870
 51
299.999858
  0
LINE
  8
CSLAYER1
  6
CONTINUOUS
 62
     6
 10
64.728723
 20
118.178612
 11
64.728707
 21
123.782795
  0
LINE
  8
CSLAYER1
  6
CONTINUOUS
 62
     6
 10
64.728700
 20
125.002031
 11
65.103700
 21
125.377031
  0
LINE
  8
CSLAYER1
  6
CONTINUOUS
 62
     6
 10
65.103700
 20
125.377031
 11
65.103700
 21
127.502031
  0
LINE
  8
CSLAYER1
  6
CONTINUOUS
 62
     6
 10
64.353700
 20
127.502031
 11
64.353700
 21
125.377031
  0
LINE
  8
CSLAYER1
  6
CONTINUOUS
 62
     6
 10
64.353700
 20
125.377031
 11
64.728700
 21
125.002031
  0
LINE
  8
CSLAYER1
  6
CONTINUOUS
 62
     6
 10
66.853700
 20
125.377031
 11
67.228700
 21
125.002031
  0
LINE
  8
CSLAYER1
  6
CONTINUOUS
 62
     6
 10
67.228700
 20
125.002031
 11
67.603700
 21
125.377031
  0
LINE
  8
CSLAYER1
  6
CONTINUOUS
 62
     6
 10
67.603700
 20
125.377031
 11
67.603700
 21
127.502031
  0
LINE
  8
CSLAYER1
  6
CONTINUOUS
 62
     6
 10
66.853700
 20
127.502031
 11
66.853700
 21
125.377031
  0
LINE
  8
CSLAYER1
  6
CONTINUOUS
 62
     6
 10
66.928704
 20
123.782795
 11
66.928727
 21
118.178612
  0
ARC
  8
CSLAYER1
  6
CONTINUOUS
 62
     6
 10
66.378740
 20
117.225991
 40
1.099999
 50
59.999858
 51
119.999853
  0
ARC
  8
CSLAYER1
  6
CONTINUOUS
 62
     6
 10
64.178712
 20
117.225991
 40
1.099999
 50
60.000186
 51
120.000181
  0
ARC
  8
CSLAYER1
  6
CONTINUOUS
 62
     6
 10
63.078706
 20
119.131234
 40
1.099999
 50
240.000198
 51
300.000186
  0
LINE
  8
CSLAYER1
  6
CONTINUOUS
 62
     6
 10
62.528730
 20
118.178612
 11
62.528706
 21
123.782795
  0
ARC
  8
CSLAYER1
  6
CONTINUOUS
 62
     6
 10
64.728700
 20
153.702015
 40
31.000000
 50
-85.930411
 51
265.930447
  0
LINE
  8
CSLAYER1
  6
CONTINUOUS
 62
     6
 10
66.928704
 20
121.702031
 11
90.728669
 21
121.702031
  0
ARC
  8
CSLAYER1
  6
CONTINUOUS
 62
     6
 10
90.728700
 20
127.702061
 40
6.000000
 50
-89.999990
 51
0.000016
  0
LINE
  8
CSLAYER1
  6
CONTINUOUS
 62
     6
 10
96.728669
 20
127.702031
 11
96.728669
 21
179.702031
  0
ARC
  8
CSLAYER1
  6
CONTINUOUS
 62
     6
 10
90.728669
 20
179.702031
 40
6.000000
 50
0.000010
 51
90.000016
  0
LINE
  8
CSLAYER1
  6
CONTINUOUS
 62
     6
 10
90.728669
 20
185.702031
 11
38.728700
 21
185.702031
  0
ARC
  8
CSLAYER1
  6
CONTINUOUS
 62
     6
 10
38.728700
 20
179.702000
 40
6.000000
 50
90.000010
 51
180.000016
  0
LINE
  8
CSLAYER1
  6
CONTINUOUS
 62
     6
 10
32.728700
 20
179.702031
 11
32.728700
 21
127.702031
  0
ARC
  8
CSLAYER1
  6
CONTINUOUS
 62
     6
 10
38.728730
 20
127.702031
 40
6.000000
 50
180.000010
 51
270.000016
  0
LINE
  8
CSLAYER1
  6
CONTINUOUS
 62
     6
 10
38.728700
 20
121.702031
 11
62.528706
 21
121.702031
  0
LINE
  8
CSLAYER1
  6
CONTINUOUS
 62
     6
 10
62.228700
 20
125.002031
 11
61.853700
 21
125.377031
  0
LINE
  8
CSLAYER1
  6
CONTINUOUS
 62
     6
 10
61.853700
 20
125.377031
 11
61.853700
 21
127.502031
  0
LINE
  8
CSLAYER1
  6
CONTINUOUS
 62
     6
 10
62.603700
 20
127.502031
 11
62.603700
 21
125.377031
  0
LINE
  8
CSLAYER1
  6
CONTINUOUS
 62
     6
 10
62.603700
 20
125.377031
 11
62.228700
 21
125.002031
  0
LINE
  8
CSLAYER1
  6
CONTINUOUS
 62
     6
 10
60.103700
 20
125.377031
 11
59.728700
 21
125.002031
  0
LINE
  8
CSLAYER1
  6
CONTINUOUS
 62
     6
 10
59.728700
 20
125.002031
 11
59.353700
 21
125.377031
  0
LINE
  8
CSLAYER1
  6
CONTINUOUS
 62
     6
 10
59.353700
 20
125.377031
 11
59.353700
 21
127.502031
  0
LINE
  8
CSLAYER1
  6
CONTINUOUS
 62
     6
 10
60.103700
 20
127.502031
 11
60.103700
 21
125.377031
  0
LINE
  8
CSLAYER1
  6
CONTINUOUS
 62
     6
 10
60.103700
 20
129.702031
 11
60.103700
 21
131.902031
  0
LINE
  8
CSLAYER1
  6
CONTINUOUS
 62
     6
 10
60.103700
 20
131.902031
 11
60.478700
 21
132.402031
  0
LINE
  8
CSLAYER1
  6
CONTINUOUS
 62
     6
 10
60.478700
 20
132.402031
 11
60.478700
 21
133.902031
  0
LINE
  8
CSLAYER1
  6
CONTINUOUS
 62
     6
 10
61.478700
 20
133.902031
 11
61.478700
 21
132.402031
  0
LINE
  8
CSLAYER1
  6
CONTINUOUS
 62
     6
 10
61.478700
 20
132.402031
 11
61.853700
 21
131.902031
  0
LINE
  8
CSLAYER1
  6
CONTINUOUS
 62
     6
 10
61.853700
 20
131.902031
 11
61.853700
 21
129.702031
  0
LINE
  8
CSLAYER1
  6
CONTINUOUS
 62
     6
 10
62.603700
 20
129.702031
 11
62.603700
 21
131.902031
  0
LINE
  8
CSLAYER1
  6
CONTINUOUS
 62
     6
 10
62.603700
 20
131.902031
 11
62.978700
 21
132.402031
  0
LINE
  8
CSLAYER1
  6
CONTINUOUS
 62
     6
 10
62.978700
 20
132.402031
 11
62.978700
 21
133.902031
  0
LINE
  8
CSLAYER1
  6
CONTINUOUS
 62
     6
 10
63.978700
 20
133.902031
 11
63.978700
 21
132.402031
  0
LINE
  8
CSLAYER1
  6
CONTINUOUS
 62
     6
 10
63.978700
 20
132.402031
 11
64.353700
 21
131.902031
  0
LINE
  8
CSLAYER1
  6
CONTINUOUS
 62
     6
 10
64.353700
 20
131.902031
 11
64.353700
 21
129.702031
  0
LINE
  8
CSLAYER1
  6
CONTINUOUS
 62
     6
 10
65.103700
 20
129.702031
 11
65.103700
 21
131.902031
  0
LINE
  8
CSLAYER1
  6
CONTINUOUS
 62
     6
 10
65.103700
 20
131.902031
 11
65.478700
 21
132.402031
  0
LINE
  8
CSLAYER1
  6
CONTINUOUS
 62
     6
 10
65.478700
 20
132.402031
 11
65.478700
 21
133.902031
  0
LINE
  8
CSLAYER1
  6
CONTINUOUS
 62
     6
 10
66.478700
 20
133.902031
 11
66.478700
 21
132.402031
  0
LINE
  8
CSLAYER1
  6
CONTINUOUS
 62
     6
 10
66.478700
 20
132.402031
 11
66.853700
 21
131.902031
  0
LINE
  8
CSLAYER1
  6
CONTINUOUS
 62
     6
 10
66.853700
 20
131.902031
 11
66.853700
 21
129.702031
  0
LINE
  8
CSLAYER1
  6
CONTINUOUS
 62
     6
 10
67.603700
 20
129.702031
 11
67.603700
 21
131.902031
  0
LINE
  8
CSLAYER1
  6
CONTINUOUS
 62
     6
 10
67.603700
 20
131.902031
 11
67.978700
 21
132.402031
  0
LINE
  8
CSLAYER1
  6
CONTINUOUS
 62
     6
 10
67.978700
 20
132.402031
 11
67.978700
 21
133.902031
  0
LINE
  8
CSLAYER1
  6
CONTINUOUS
 62
     6
 10
68.978700
 20
133.902031
 11
68.978700
 21
132.402031
  0
LINE
  8
CSLAYER1
  6
CONTINUOUS
 62
     6
 10
68.978700
 20
132.402031
 11
69.353700
 21
131.902031
  0
LINE
  8
CSLAYER1
  6
CONTINUOUS
 62
     6
 10
69.353700
 20
131.902031
 11
69.353700
 21
129.702031
  0
LINE
  8
CSLAYER1
  6
CONTINUOUS
 62
     6
 10
70.103700
 20
129.702031
 11
70.103700
 21
131.902031
  0
LINE
  8
CSLAYER1
  6
CONTINUOUS
 62
     6
 10
70.103700
 20
131.902031
 11
70.478700
 21
132.402031
  0
LINE
  8
CSLAYER1
  6
CONTINUOUS
 62
     6
 10
70.478700
 20
132.402031
 11
70.478700
 21
133.902031
  0
LINE
  8
CSLAYER1
  6
CONTINUOUS
 62
     6
 10
71.228700
 20
133.902031
 11
58.228700
 21
133.902031
  0
ARC
  8
CSLAYER1
  6
CONTINUOUS
 62
     6
 10
58.228700
 20
132.902031
 40
1.000000
 50
90.000000
 51
180.000000
  0
ARC
  8
CSLAYER1
  6
CONTINUOUS
 62
     6
 10
56.228700
 20
132.902031
 40
1.000000
 50
270.000000
 51
360.000000
  0
LINE
  8
CSLAYER1
  6
CONTINUOUS
 62
     6
 10
56.228700
 20
131.902031
 11
51.728700
 21
131.902031
  0
LINE
  8
CSLAYER1
  6
CONTINUOUS
 62
     6
 10
51.728700
 20
131.902031
 11
51.728700
 21
131.202031
  0
ARC
  8
CSLAYER1
  6
CONTINUOUS
 62
     6
 10
53.228700
 20
131.202031
 40
1.500000
 50
180.000000
 51
270.000000
  0
LINE
  8
CSLAYER1
  6
CONTINUOUS
 62
     6
 10
53.228700
 20
129.702031
 11
76.228700
 21
129.702031
  0
ARC
  8
CSLAYER1
  6
CONTINUOUS
 62
     6
 10
76.228700
 20
131.202031
 40
1.500000
 50
270.000000
 51
360.000000
  0
LINE
  8
CSLAYER1
  6
CONTINUOUS
 62
     6
 10
77.728700
 20
131.202031
 11
77.728700
 21
131.902031
  0
LINE
  8
CSLAYER1
  6
CONTINUOUS
 62
     6
 10
77.728700
 20
131.902031
 11
73.228700
 21
131.902031
  0
ARC
  8
CSLAYER1
  6
CONTINUOUS
 62
     6
 10
73.228700
 20
132.902031
 40
1.000000
 50
180.000000
 51
270.000000
  0
ARC
  8
CSLAYER1
  6
CONTINUOUS
 62
     6
 10
71.228700
 20
132.902031
 40
1.000000
 50
0.000000
 51
90.000000
  0
LINE
  8
CSLAYER1
  6
CONTINUOUS
 62
     6
 10
70.103700
 20
127.502031
 11
70.103700
 21
125.377031
  0
LINE
  8
CSLAYER1
  6
CONTINUOUS
 62
     6
 10
70.103700
 20
125.377031
 11
69.728700
 21
125.002031
  0
LINE
  8
CSLAYER1
  6
CONTINUOUS
 62
     6
 10
69.728700
 20
125.002031
 11
69.353700
 21
125.377031
  0
LINE
  8
CSLAYER1
  6
CONTINUOUS
 62
     6
 10
69.353700
 20
125.377031
 11
69.353700
 21
127.502031
  0
LINE
  8
CSLAYER1
  6
CONTINUOUS
 62
     6
 10
77.728700
 20
127.502031
 11
51.728700
 21
127.502031
  0
ARC
  8
CSLAYER1
  6
CONTINUOUS
 62
     6
 10
51.728700
 20
129.502031
 40
2.000000
 50
180.000000
 51
270.000000
  0
LINE
  8
CSLAYER1
  6
CONTINUOUS
 62
     6
 10
49.728700
 20
129.502031
 11
49.728700
 21
153.702031
  0
ARC
  8
CSLAYER1
  6
CONTINUOUS
 62
     6
 10
64.728700
 20
153.702031
 40
15.000000
 50
-0.000000
 51
180.000000
  0
LINE
  8
CSLAYER1
  6
CONTINUOUS
 62
     6
 10
79.728700
 20
153.702031
 11
79.728700
 21
129.502031
  0
ARC
  8
CSLAYER1
  6
CONTINUOUS
 62
     6
 10
77.728700
 20
129.502031
 40
2.000000
 50
270.000000
 51
360.000000
  0
CIRCLE
  8
CSLAYER1
  6
CONTINUOUS
 62
     6
 10
90.728715
 20
127.702031
 40
2.250000
  0
ARC
  8
CSLAYER1
  6
CONTINUOUS
 62
     6
 10
64.728700
 20
153.702031
 40
9.250000
 50
317.513110
 51
342.486890
  0
LINE
  8
CSLAYER1
  6
CONTINUOUS
 62
     6
 10
73.549945
 20
150.918483
 11
71.988692
 21
151.819873
  0
LINE
  8
CSLAYER1
  6
CONTINUOUS
 62
     6
 10
68.728700
 20
153.202031
 11
68.728700
 21
154.202031
  0
LINE
  8
CSLAYER1
  6
CONTINUOUS
 62
     6
 10
68.728700
 20
154.202031
 11
60.728700
 21
154.202031
  0
LINE
  8
CSLAYER1
  6
CONTINUOUS
 62
     6
 10
60.728700
 20
154.202031
 11
60.728700
 21
153.202031
  0
LINE
  8
CSLAYER1
  6
CONTINUOUS
 62
     6
 10
60.728700
 20
153.202031
 11
68.728700
 21
153.202031
  0
CIRCLE
  8
CSLAYER1
  6
CONTINUOUS
 62
     6
 10
64.728700
 20
153.702015
 40
30.000000
  0
CIRCLE
  8
CSLAYER1
  6
CONTINUOUS
 62
     6
 10
64.728700
 20
153.702031
 40
7.500000
  0
LINE
  8
CSLAYER1
  6
CONTINUOUS
 62
     6
 10
62.728700
 20
160.930447
 11
62.728700
 21
162.733226
  0
ARC
  8
CSLAYER1
  6
CONTINUOUS
 62
     6
 10
64.728700
 20
153.702031
 40
9.250000
 50
77.513110
 51
102.486890
  0
LINE
  8
CSLAYER1
  6
CONTINUOUS
 62
     6
 10
66.728700
 20
162.733226
 11
66.728700
 21
160.930447
  0
ARC
  8
CSLAYER1
  6
CONTINUOUS
 62
     6
 10
64.728700
 20
153.702031
 40
12.000000
 50
15.000000
 51
65.000000
  0
LINE
  8
CSLAYER1
  6
CONTINUOUS
 62
     6
 10
76.319809
 20
156.807859
 11
79.217587
 21
157.584316
  0
LINE
  8
CSLAYER1
  6
CONTINUOUS
 62
     6
 10
69.800119
 20
164.577724
 11
71.067973
 21
167.296647
  0
ARC
  8
CSLAYER1
  6
CONTINUOUS
 62
     6
 10
64.728700
 20
153.702031
 40
12.000000
 50
115.000000
 51
165.000000
  0
LINE
  8
CSLAYER1
  6
CONTINUOUS
 62
     6
 10
53.137590
 20
156.807859
 11
50.239812
 21
157.584316
  0
LINE
  8
CSLAYER1
  6
CONTINUOUS
 62
     6
 10
55.907454
 20
150.918483
 11
57.468708
 21
151.819873
  0
ARC
  8
CSLAYER1
  6
CONTINUOUS
 62
     6
 10
64.728700
 20
153.702031
 40
9.250000
 50
197.513110
 51
222.486890
  0
LINE
  8
CSLAYER1
  6
CONTINUOUS
 62
     6
 10
57.907454
 20
147.454382
 11
59.468708
 21
148.355772
  0
LINE
  8
CSLAYER1
  6
CONTINUOUS
 62
     6
 10
69.988692
 20
148.355772
 11
71.549945
 21
147.454382
  0
LINE
  8
CSLAYER1
  6
CONTINUOUS
 62
     6
 10
58.978700
 20
133.902031
 11
58.978700
 21
132.402031
  0
LINE
  8
CSLAYER1
  6
CONTINUOUS
 62
     6
 10
58.978700
 20
132.402031
 11
59.353700
 21
131.902031
  0
LINE
  8
CSLAYER1
  6
CONTINUOUS
 62
     6
 10
59.353700
 20
131.902031
 11
59.353700
 21
129.702031
  0
ARC
  8
CSLAYER1
  6
CONTINUOUS
 62
     6
 10
64.178705
 20
119.131234
 40
1.099999
 50
240.000198
 51
300.000186
  0
CIRCLE
  8
CSLAYER1
  6
CONTINUOUS
 62
     6
 10
38.728700
 20
127.702015
 40
2.250000
  0
LINE
  8
CSLAYER1
  6
CONTINUOUS
 62
     6
 10
59.657280
 20
164.577724
 11
58.389426
 21
167.296647
  0
CIRCLE
  8
CSLAYER1
  6
CONTINUOUS
 62
     6
 10
38.728684
 20
179.702031
 40
2.250000
  0
CIRCLE
  8
CSLAYER1
  6
CONTINUOUS
 62
     6
 10
90.728700
 20
179.702046
 40
2.250000
  0
LINE
  8
CSLAYER1
  6
CONTINUOUS
 62
     6
 10
124.519154
 20
167.296711
 11
128.252918
 21
167.296711
  0
LINE
  8
CSLAYER1
  6
CONTINUOUS
 62
     6
 10
128.252918
 20
167.296711
 11
128.252918
 21
157.584370
  0
LINE
  8
CSLAYER1
  6
CONTINUOUS
 62
     6
 10
128.252918
 20
157.584370
 11
124.428700
 21
157.584370
  0
LINE
  8
CSLAYER1
  6
CONTINUOUS
 62
     6
 10
128.252918
 20
162.641682
 11
142.728700
 21
162.641682
  0
LINE
  8
CSLAYER1
  6
CONTINUOUS
 62
     6
 10
142.728700
 20
166.071125
 11
128.252918
 21
166.071125
  0
LINE
  8
CSLAYER1
  6
CONTINUOUS
 62
     6
 10
128.252918
 20
164.773518
 11
134.236042
 21
164.773518
  0
LINE
  8
CSLAYER1
  6
CONTINUOUS
 62
     6
 10
134.236042
 20
164.773518
 11
134.236042
 21
163.737080
  0
LINE
  8
CSLAYER1
  6
CONTINUOUS
 62
     6
 10
134.236042
 20
163.737080
 11
128.252918
 21
163.737080
  0
LINE
  8
CSLAYER1
  6
CONTINUOUS
 62
     6
 10
124.428700
 20
166.702046
 11
124.428700
 21
129.502031
  0
ARC
  8
CSLAYER1
  6
CONTINUOUS
 62
     6
 10
126.428700
 20
129.502031
 40
2.000000
 50
180.000005
 51
270.000001
  0
LINE
  8
CSLAYER1
  6
CONTINUOUS
 62
     6
 10
126.428700
 20
127.502031
 11
142.728700
 21
127.502031
  0
LINE
  8
CSLAYER1
  6
CONTINUOUS
 62
     6
 10
142.728700
 20
125.225727
 11
143.728700
 21
124.225727
  0
LINE
  8
CSLAYER1
  6
CONTINUOUS
 62
     6
 10
143.728700
 20
124.225727
 11
143.728700
 21
183.178364
  0
LINE
  8
CSLAYER1
  6
CONTINUOUS
 62
     6
 10
143.728700
 20
183.178364
 11
173.728730
 21
183.702046
  0
LINE
  8
CSLAYER1
  6
CONTINUOUS
 62
     6
 10
173.728700
 20
184.702035
 11
173.728700
 21
122.702035
  0
LINE
  8
CSLAYER1
  6
CONTINUOUS
 62
     6
 10
173.728700
 20
122.702035
 11
270.728700
 21
122.702035
  0
LINE
  8
CSLAYER1
  6
CONTINUOUS
 62
     6
 10
270.728700
 20
122.702035
 11
270.728700
 21
184.702035
  0
LINE
  8
CSLAYER1
  6
CONTINUOUS
 62
     6
 10
270.728700
 20
184.702035
 11
173.728700
 21
184.702035
  0
LINE
  8
CSLAYER1
  6
CONTINUOUS
 62
     6
 10
173.728700
 20
211.702071
 11
173.728700
 21
273.702071
  0
LINE
  8
CSLAYER1
  6
CONTINUOUS
 62
     6
 10
173.728700
 20
273.702071
 11
270.728700
 21
273.702071
  0
LINE
  8
CSLAYER1
  6
CONTINUOUS
 62
     6
 10
270.728700
 20
273.702071
 11
270.728700
 21
211.702071
  0
LINE
  8
CSLAYER1
  6
CONTINUOUS
 62
     6
 10
270.728700
 20
211.702071
 11
173.728700
 21
211.702071
  0
LINE
  8
CSLAYER1
  6
CONTINUOUS
 62
     6
 10
173.728715
 20
212.702083
 11
143.728700
 21
213.225734
  0
LINE
  8
CSLAYER1
  6
CONTINUOUS
 62
     6
 10
143.728700
 20
213.127376
 11
143.728700
 21
272.080043
  0
LINE
  8
CSLAYER1
  6
CONTINUOUS
 62
     6
 10
143.728700
 20
272.080043
 11
142.728700
 21
271.080043
  0
LINE
  8
CSLAYER1
  6
CONTINUOUS
 62
     6
 10
142.728700
 20
271.080043
 11
142.728700
 21
214.127376
  0
LINE
  8
CSLAYER1
  6
CONTINUOUS
 62
     6
 10
142.728700
 20
214.127376
 11
143.728700
 21
213.127376
  0
LINE
  8
CSLAYER1
  6
CONTINUOUS
 62
     6
 10
143.728700
 20
183.178334
 11
142.728700
 21
182.178334
  0
LINE
  8
CSLAYER1
  6
CONTINUOUS
 62
     6
 10
142.728700
 20
182.178364
 11
142.728700
 21
125.225727
  0
LINE
  8
CSLAYER1
  6
CONTINUOUS
 62
     6
 10
143.728700
 20
124.225727
 11
173.728730
 21
123.702046
  0
LINE
  8
CSLAYER1
  6
CONTINUOUS
 62
     6
 10
163.828736
 20
123.874897
 11
163.828736
 21
118.178608
  0
ARC
  8
CSLAYER1
  6
CONTINUOUS
 62
     6
 10
163.278733
 20
119.131245
 40
1.100006
 50
240.000007
 51
299.999995
  0
ARC
  8
CSLAYER1
  6
CONTINUOUS
 62
     6
 10
162.178727
 20
119.131245
 40
1.100006
 50
240.000007
 51
299.999995
  0
LINE
  8
CSLAYER1
  6
CONTINUOUS
 62
     6
 10
161.628724
 20
118.178608
 11
161.628724
 21
123.912190
  0
ARC
  8
CSLAYER1
  6
CONTINUOUS
 62
     6
 10
163.278733
 20
117.225972
 40
1.100006
 50
60.000002
 51
120.000003
  0
ARC
  8
CSLAYER1
  6
CONTINUOUS
 62
     6
 10
163.278703
 20
114.313816
 40
1.099999
 50
60.000350
 51
120.000345
  0
ARC
  8
CSLAYER1
  6
CONTINUOUS
 62
     6
 10
162.178696
 20
116.219059
 40
1.099999
 50
240.000362
 51
300.000350
  0
ARC
  8
CSLAYER1
  6
CONTINUOUS
 62
     6
 10
162.178712
 20
114.313801
 40
1.099999
 50
60.000350
 51
120.000345
  0
ARC
  8
CSLAYER1
  6
CONTINUOUS
 62
     6
 10
177.387544
 20
115.266377
 40
13.558834
 50
179.999978
 51
207.463868
  0
LINE
  8
CSLAYER1
  6
CONTINUOUS
 62
     6
 10
165.356782
 20
109.013203
 11
163.404725
 21
107.998616
  0
ARC
  8
CSLAYER1
  6
CONTINUOUS
 62
     6
 10
177.387544
 20
115.266377
 40
15.758816
 50
201.534143
 51
207.463868
  0
LINE
  8
CSLAYER1
  6
CONTINUOUS
 62
     6
 10
162.052705
 20
107.998616
 11
160.100648
 21
109.013264
  0
ARC
  8
CSLAYER1
  6
CONTINUOUS
 62
     6
 10
148.069886
 20
115.266377
 40
13.558834
 50
332.536202
 51
359.877558
  0
ARC
  8
CSLAYER1
  6
CONTINUOUS
 62
     6
 10
148.069886
 20
115.266377
 40
15.758816
 50
332.536202
 51
359.942691
  0
LINE
  8
CSLAYER1
  6
CONTINUOUS
 62
     6
 10
161.645326
 20
108.210347
 11
160.243836
 21
105.130574
  0
LINE
  8
CSLAYER1
  6
CONTINUOUS
 62
     6
 10
159.670411
 20
105.409870
 11
161.247193
 21
108.417317
  0
LINE
  8
CSLAYER1
  6
CONTINUOUS
 62
     6
 10
160.758271
 20
108.671467
 11
159.141114
 21
105.733357
  0
LINE
  8
CSLAYER1
  6
CONTINUOUS
 62
     6
 10
163.812104
 20
108.210347
 11
165.213624
 21
105.130513
  0
LINE
  8
CSLAYER1
  6
CONTINUOUS
 62
     6
 10
165.787019
 20
105.409870
 11
164.210236
 21
108.417317
  0
LINE
  8
CSLAYER1
  6
CONTINUOUS
 62
     6
 10
164.699159
 20
108.671406
 11
166.316346
 21
105.733357
  0
LINE
  8
CSLAYER1
  6
CONTINUOUS
 62
     6
 10
173.728700
 20
90.702004
 11
173.728700
 21
28.702004
  0
LINE
  8
CSLAYER1
  6
CONTINUOUS
 62
     6
 10
173.728700
 20
28.702004
 11
270.728700
 21
28.702004
  0
LINE
  8
CSLAYER1
  6
CONTINUOUS
 62
     6
 10
270.728700
 20
28.702011
 11
270.728700
 21
90.702011
  0
LINE
  8
CSLAYER1
  6
CONTINUOUS
 62
     6
 10
270.728700
 20
90.702004
 11
173.728700
 21
90.702004
  0
LINE
  8
CSLAYER1
  6
CONTINUOUS
 62
     6
 10
173.728730
 20
89.702015
 11
143.728700
 21
89.178334
  0
LINE
  8
CSLAYER1
  6
CONTINUOUS
 62
     6
 10
143.728700
 20
89.178334
 11
143.728700
 21
30.225697
  0
LINE
  8
CSLAYER1
  6
CONTINUOUS
 62
     6
 10
143.728700
 20
30.225697
 11
173.728730
 21
29.702015
  0
ARC
  8
CSLAYER1
  6
CONTINUOUS
 62
     6
 10
162.728700
 20
58.601994
 40
1.100006
 50
-90.000027
 51
89.999992
  0
ARC
  8
CSLAYER1
  6
CONTINUOUS
 62
     6
 10
162.728700
 20
60.802006
 40
1.100006
 50
-89.999999
 51
90.000019
  0
LINE
  8
CSLAYER1
  6
CONTINUOUS
 62
     6
 10
162.728700
 20
61.901982
 11
158.451322
 21
61.901982
  0
ARC
  8
CSLAYER1
  6
CONTINUOUS
 62
     6
 10
159.403959
 20
61.352009
 40
1.100006
 50
149.999997
 51
209.999999
  0
ARC
  8
CSLAYER1
  6
CONTINUOUS
 62
     6
 10
159.403959
 20
60.252003
 40
1.100006
 50
149.999997
 51
209.999999
  0
ARC
  8
CSLAYER1
  6
CONTINUOUS
 62
     6
 10
159.403959
 20
59.151997
 40
1.100006
 50
149.999997
 51
209.999999
  0
ARC
  8
CSLAYER1
  6
CONTINUOUS
 62
     6
 10
159.403959
 20
58.051991
 40
1.100006
 50
149.999997
 51
209.999999
  0
ARC
  8
CSLAYER1
  6
CONTINUOUS
 62
     6
 10
157.498686
 20
58.051991
 40
1.100006
 50
-30.000011
 51
29.999977
  0
LINE
  8
CSLAYER1
  6
CONTINUOUS
 62
     6
 10
158.451322
 20
57.502018
 11
162.728700
 21
57.502018
  0
LINE
  8
CSLAYER1
  6
CONTINUOUS
 62
     6
 10
163.828706
 20
58.601994
 11
163.828706
 21
60.802006
  0
LINE
  8
CSLAYER1
  6
CONTINUOUS
 62
     6
 10
162.728700
 20
59.702000
 11
158.451322
 21
59.702000
  0
ARC
  8
CSLAYER1
  6
CONTINUOUS
 62
     6
 10
157.498686
 20
60.252003
 40
1.100006
 50
-30.000011
 51
29.999977
  0
ARC
  8
CSLAYER1
  6
CONTINUOUS
 62
     6
 10
155.859724
 20
60.252033
 40
1.099999
 50
-29.999656
 51
30.000332
  0
ARC
  8
CSLAYER1
  6
CONTINUOUS
 62
     6
 10
157.764967
 20
59.152027
 40
1.099999
 50
150.000353
 51
210.000354
  0
ARC
  8
CSLAYER1
  6
CONTINUOUS
 62
     6
 10
155.859709
 20
59.152012
 40
1.099999
 50
-29.999656
 51
30.000332
  0
LINE
  8
CSLAYER1
  6
CONTINUOUS
 62
     6
 10
156.812345
 20
59.701969
 11
155.539091
 21
59.701969
  0
ARC
  8
CSLAYER1
  6
CONTINUOUS
 62
     6
 10
155.539091
 20
43.943180
 40
15.758816
 50
90.000003
 51
117.463872
  0
LINE
  8
CSLAYER1
  6
CONTINUOUS
 62
     6
 10
148.271299
 20
57.925968
 11
149.285917
 21
55.973942
  0
ARC
  8
CSLAYER1
  6
CONTINUOUS
 62
     6
 10
155.539091
 20
43.943150
 40
13.558834
 50
89.999975
 51
117.463872
  0
LINE
  8
CSLAYER1
  6
CONTINUOUS
 62
     6
 10
155.539121
 20
57.502018
 11
156.812345
 21
57.502018
  0
ARC
  8
CSLAYER1
  6
CONTINUOUS
 62
     6
 10
155.859724
 20
58.052021
 40
1.099999
 50
-29.999656
 51
30.000332
  0
ARC
  8
CSLAYER1
  6
CONTINUOUS
 62
     6
 10
155.539091
 20
75.460850
 40
15.758816
 50
242.536193
 51
269.942682
  0
LINE
  8
CSLAYER1
  6
CONTINUOUS
 62
     6
 10
148.271330
 20
61.478031
 11
149.285948
 21
63.430058
  0
ARC
  8
CSLAYER1
  6
CONTINUOUS
 62
     6
 10
155.539091
 20
75.460850
 40
13.558834
 50
242.536193
 51
269.942682
  0
LINE
  8
CSLAYER1
  6
CONTINUOUS
 62
     6
 10
155.539121
 20
61.902012
 11
156.812345
 21
61.902012
  0
ARC
  8
CSLAYER1
  6
CONTINUOUS
 62
     6
 10
155.859709
 20
61.352024
 40
1.099999
 50
-29.999656
 51
30.000332
  0
ARC
  8
CSLAYER1
  6
CONTINUOUS
 62
     6
 10
157.764967
 20
61.352040
 40
1.099999
 50
150.000353
 51
210.000354
  0
ARC
  8
CSLAYER1
  6
CONTINUOUS
 62
     6
 10
162.728700
 20
59.702000
 40
8.000000
 50
-164.038116
 51
164.037904
  0
LINE
  8
CSLAYER1
  6
CONTINUOUS
 62
     6
 10
148.944120
 20
56.631535
 11
146.006040
 21
55.014378
  0
LINE
  8
CSLAYER1
  6
CONTINUOUS
 62
     6
 10
146.682585
 20
55.543705
 11
148.690000
 21
57.120487
  0
LINE
  8
CSLAYER1
  6
CONTINUOUS
 62
     6
 10
148.483061
 20
57.518620
 11
146.403227
 21
56.117100
  0
LINE
  8
CSLAYER1
  6
CONTINUOUS
 62
     6
 10
148.483061
 20
61.885380
 11
146.403257
 21
63.286869
  0
LINE
  8
CSLAYER1
  6
CONTINUOUS
 62
     6
 10
146.682585
 20
63.860295
 11
148.690000
 21
62.283512
  0
LINE
  8
CSLAYER1
  6
CONTINUOUS
 62
     6
 10
148.944151
 20
62.772465
 11
146.006071
 21
64.389591
  0
LINE
  8
CSLAYER1
  6
CONTINUOUS
 62
     6
 10
142.728700
 20
68.702000
 11
139.728700
 21
68.702000
  0
LINE
  8
CSLAYER1
  6
CONTINUOUS
 62
     6
 10
139.728700
 20
68.702000
 11
139.728700
 21
50.702000
  0
LINE
  8
CSLAYER1
  6
CONTINUOUS
 62
     6
 10
139.728700
 20
50.702000
 11
142.728700
 21
50.702000
  0
LINE
  8
CSLAYER1
  6
CONTINUOUS
 62
     6
 10
139.728700
 20
52.452000
 11
132.628700
 21
52.452000
  0
LINE
  8
CSLAYER1
  6
CONTINUOUS
 62
     6
 10
132.628700
 20
52.452000
 11
132.628700
 21
66.952000
  0
LINE
  8
CSLAYER1
  6
CONTINUOUS
 62
     6
 10
132.628700
 20
66.952000
 11
139.728700
 21
66.952000
  0
LINE
  8
CSLAYER1
  6
CONTINUOUS
 62
     6
 10
137.048700
 20
65.102000
 11
136.408700
 21
65.102000
  0
LINE
  8
CSLAYER1
  6
CONTINUOUS
 62
     6
 10
136.408700
 20
65.102000
 11
136.408700
 21
64.462000
  0
LINE
  8
CSLAYER1
  6
CONTINUOUS
 62
     6
 10
136.408700
 20
64.462000
 11
137.048700
 21
64.462000
  0
LINE
  8
CSLAYER1
  6
CONTINUOUS
 62
     6
 10
137.048700
 20
64.462000
 11
137.048700
 21
65.102000
  0
LINE
  8
CSLAYER1
  6
CONTINUOUS
 62
     6
 10
137.048700
 20
62.562000
 11
136.408700
 21
62.562000
  0
LINE
  8
CSLAYER1
  6
CONTINUOUS
 62
     6
 10
136.408700
 20
62.562000
 11
136.408700
 21
61.922000
  0
LINE
  8
CSLAYER1
  6
CONTINUOUS
 62
     6
 10
136.408700
 20
61.922000
 11
137.048700
 21
61.922000
  0
LINE
  8
CSLAYER1
  6
CONTINUOUS
 62
     6
 10
137.048700
 20
61.922000
 11
137.048700
 21
62.562000
  0
LINE
  8
CSLAYER1
  6
CONTINUOUS
 62
     6
 10
137.048700
 20
60.022000
 11
136.408700
 21
60.022000
  0
LINE
  8
CSLAYER1
  6
CONTINUOUS
 62
     6
 10
136.408700
 20
60.022000
 11
136.408700
 21
59.382000
  0
LINE
  8
CSLAYER1
  6
CONTINUOUS
 62
     6
 10
136.408700
 20
59.382000
 11
137.048700
 21
59.382000
  0
LINE
  8
CSLAYER1
  6
CONTINUOUS
 62
     6
 10
137.048700
 20
59.382000
 11
137.048700
 21
60.022000
  0
LINE
  8
CSLAYER1
  6
CONTINUOUS
 62
     6
 10
137.048700
 20
57.482000
 11
136.408700
 21
57.482000
  0
LINE
  8
CSLAYER1
  6
CONTINUOUS
 62
     6
 10
136.408700
 20
57.482000
 11
136.408700
 21
56.842000
  0
LINE
  8
CSLAYER1
  6
CONTINUOUS
 62
     6
 10
136.408700
 20
56.842000
 11
137.048700
 21
56.842000
  0
LINE
  8
CSLAYER1
  6
CONTINUOUS
 62
     6
 10
137.048700
 20
56.842000
 11
137.048700
 21
57.482000
  0
LINE
  8
CSLAYER1
  6
CONTINUOUS
 62
     6
 10
137.048700
 20
54.942000
 11
136.408700
 21
54.942000
  0
LINE
  8
CSLAYER1
  6
CONTINUOUS
 62
     6
 10
136.408700
 20
54.942000
 11
136.408700
 21
54.302000
  0
LINE
  8
CSLAYER1
  6
CONTINUOUS
 62
     6
 10
136.408700
 20
54.302000
 11
137.048700
 21
54.302000
  0
LINE
  8
CSLAYER1
  6
CONTINUOUS
 62
     6
 10
137.048700
 20
54.302000
 11
137.048700
 21
54.942000
  0
LINE
  8
CSLAYER1
  6
CONTINUOUS
 62
     6
 10
139.728700
 20
47.202000
 11
139.728700
 21
44.702000
  0
LINE
  8
CSLAYER1
  6
CONTINUOUS
 62
     6
 10
139.728700
 20
47.202000
 11
142.728700
 21
47.202000
  0
LINE
  8
CSLAYER1
  6
CONTINUOUS
 62
     6
 10
142.728700
 20
44.702000
 11
126.428700
 21
44.702000
  0
ARC
  8
CSLAYER1
  6
CONTINUOUS
 62
     6
 10
126.428700
 20
46.702000
 40
2.000000
 50
180.000000
 51
270.000000
  0
LINE
  8
CSLAYER1
  6
CONTINUOUS
 62
     6
 10
124.428700
 20
46.702000
 11
124.428700
 21
72.702000
  0
ARC
  8
CSLAYER1
  6
CONTINUOUS
 62
     6
 10
126.428700
 20
72.702000
 40
2.000000
 50
90.000000
 51
180.000000
  0
LINE
  8
CSLAYER1
  6
CONTINUOUS
 62
     6
 10
126.428700
 20
74.702000
 11
142.728700
 21
74.702000
  0
LINE
  8
CSLAYER1
  6
CONTINUOUS
 62
     6
 10
139.728700
 20
74.702000
 11
139.728700
 21
72.202000
  0
LINE
  8
CSLAYER1
  6
CONTINUOUS
 62
     6
 10
139.728700
 20
72.202000
 11
142.728700
 21
72.202000
  0
LINE
  8
CSLAYER1
  6
CONTINUOUS
 62
     6
 10
142.728700
 20
31.225697
 11
143.728700
 21
30.225697
  0
LINE
  8
CSLAYER1
  6
CONTINUOUS
 62
     6
 10
142.728700
 20
31.225697
 11
142.728700
 21
88.178334
  0
LINE
  8
CSLAYER1
  6
CONTINUOUS
 62
     6
 10
142.728700
 20
88.178334
 11
143.728700
 21
89.178334
  0
LINE
  8
CSLAYER1
  6
CONTINUOUS
 62
     6
 10
137.048700
 20
125.002031
 11
136.408685
 21
125.002031
  0
LINE
  8
CSLAYER1
  6
CONTINUOUS
 62
     6
 10
136.408685
 20
125.002031
 11
136.408685
 21
127.502031
  0
LINE
  8
CSLAYER1
  6
CONTINUOUS
 62
     6
 10
137.048700
 20
127.502031
 11
137.048700
 21
125.002031
  0
LINE
  8
CSLAYER1
  6
CONTINUOUS
 62
     6
 10
159.978700
 20
152.902058
 11
165.478700
 21
152.902058
  0
LINE
  8
CSLAYER1
  6
CONTINUOUS
 62
     6
 10
165.478700
 20
152.902058
 11
165.478700
 21
154.502034
  0
LINE
  8
CSLAYER1
  6
CONTINUOUS
 62
     6
 10
165.478700
 20
154.502034
 11
159.978700
 21
154.502034
  0
LINE
  8
CSLAYER1
  6
CONTINUOUS
 62
     6
 10
159.978700
 20
154.502034
 11
159.978700
 21
152.902058
  0
CIRCLE
  8
CSLAYER1
  6
CONTINUOUS
 62
     6
 10
162.728700
 20
153.702046
 40
8.000000
  0
CIRCLE
  8
CSLAYER1
  6
CONTINUOUS
 62
     6
 10
162.728700
 20
153.702046
 40
5.500000
  0
LINE
  8
CSLAYER1
  6
CONTINUOUS
 62
     6
 10
142.728700
 20
168.702046
 11
126.428700
 21
168.702046
  0
ARC
  8
CSLAYER1
  6
CONTINUOUS
 62
     6
 10
126.428700
 20
166.702046
 40
2.000000
 50
89.999999
 51
179.999995
  0
LINE
  8
CSLAYER1
  6
CONTINUOUS
 62
     6
 10
140.028718
 20
166.071125
 11
140.028718
 21
168.702046
  0
LINE
  8
CSLAYER1
  6
CONTINUOUS
 62
     6
 10
142.728700
 20
227.702067
 11
126.428700
 21
227.702067
  0
ARC
  8
CSLAYER1
  6
CONTINUOUS
 62
     6
 10
126.428700
 20
229.702067
 40
2.000000
 50
180.000000
 51
270.000000
  0
LINE
  8
CSLAYER1
  6
CONTINUOUS
 62
     6
 10
124.428700
 20
229.702067
 11
124.428700
 21
255.702067
  0
ARC
  8
CSLAYER1
  6
CONTINUOUS
 62
     6
 10
126.428700
 20
255.702067
 40
2.000000
 50
90.000000
 51
180.000000
  0
LINE
  8
CSLAYER1
  6
CONTINUOUS
 62
     6
 10
126.428700
 20
257.702067
 11
142.728700
 21
257.702067
  0
LINE
  8
CSLAYER1
  6
CONTINUOUS
 62
     6
 10
142.728700
 20
254.747098
 11
128.252918
 21
254.747098
  0
LINE
  8
CSLAYER1
  6
CONTINUOUS
 62
     6
 10
128.252918
 20
257.190961
 11
125.093336
 21
257.190961
  0
LINE
  8
CSLAYER1
  6
CONTINUOUS
 62
     6
 10
128.252918
 20
257.190961
 11
128.252918
 21
249.041346
  0
LINE
  8
CSLAYER1
  6
CONTINUOUS
 62
     6
 10
128.252918
 20
249.041346
 11
124.428700
 21
249.041346
  0
LINE
  8
CSLAYER1
  6
CONTINUOUS
 62
     6
 10
128.252918
 20
251.187677
 11
142.728700
 21
251.187677
  0
LINE
  8
CSLAYER1
  6
CONTINUOUS
 62
     6
 10
142.728700
 20
234.216458
 11
128.252918
 21
234.216458
  0
LINE
  8
CSLAYER1
  6
CONTINUOUS
 62
     6
 10
128.252918
 20
232.581679
 11
134.236042
 21
232.581679
  0
LINE
  8
CSLAYER1
  6
CONTINUOUS
 62
     6
 10
134.236042
 20
232.581679
 11
134.236042
 21
231.553171
  0
LINE
  8
CSLAYER1
  6
CONTINUOUS
 62
     6
 10
134.236042
 20
231.553171
 11
128.252918
 21
231.553171
  0
LINE
  8
CSLAYER1
  6
CONTINUOUS
 62
     6
 10
128.252918
 20
230.657037
 11
142.728700
 21
230.657037
  0
LINE
  8
CSLAYER1
  6
CONTINUOUS
 62
     6
 10
128.252918
 20
228.213174
 11
125.093336
 21
228.213174
  0
LINE
  8
CSLAYER1
  6
CONTINUOUS
 62
     6
 10
128.252918
 20
228.213174
 11
128.252918
 21
236.362789
  0
LINE
  8
CSLAYER1
  6
CONTINUOUS
 62
     6
 10
128.252918
 20
236.362789
 11
124.428700
 21
236.362789
  0
LINE
  8
CSLAYER1
  6
CONTINUOUS
 62
     6
 10
143.728700
 20
272.178401
 11
173.728715
 21
272.702052
  0
LINE
  8
CSLAYER1
  6
CONTINUOUS
 62
     6
 10
270.728684
 20
272.702087
 11
271.728684
 21
272.702087
  0
ARC
  8
CSLAYER1
  6
CONTINUOUS
 62
     6
 10
273.728700
 20
272.702071
 40
2.000000
 50
90.000003
 51
179.999991
  0
LINE
  8
CSLAYER1
  6
CONTINUOUS
 62
     6
 10
273.728700
 20
274.702071
 11
280.728700
 21
274.702071
  0
LINE
  8
CSLAYER1
  6
CONTINUOUS
 62
     6
 10
280.728700
 20
274.702071
 11
280.728700
 21
210.702041
  0
LINE
  8
CSLAYER1
  6
CONTINUOUS
 62
     6
 10
280.728700
 20
210.702041
 11
273.728700
 21
210.702041
  0
ARC
  8
CSLAYER1
  6
CONTINUOUS
 62
     6
 10
273.728700
 20
212.702041
 40
2.000000
 50
180.000005
 51
269.999973
  0
LINE
  8
CSLAYER1
  6
CONTINUOUS
 62
     6
 10
271.728700
 20
212.702041
 11
271.728700
 21
272.702071
  0
LINE
  8
CSLAYER1
  6
CONTINUOUS
 62
     6
 10
271.728700
 20
272.702071
 11
270.728700
 21
272.702071
  0
LINE
  8
CSLAYER1
  6
CONTINUOUS
 62
     6
 10
280.728700
 20
257.702071
 11
282.728700
 21
257.702071
  0
LINE
  8
CSLAYER1
  6
CONTINUOUS
 62
     6
 10
282.728700
 20
257.702071
 11
282.728700
 21
227.702071
  0
LINE
  8
CSLAYER1
  6
CONTINUOUS
 62
     6
 10
282.728700
 20
227.702071
 11
280.728700
 21
227.702071
  0
LINE
  8
CSLAYER1
  6
CONTINUOUS
 62
     6
 10
282.728715
 20
238.702071
 11
307.228700
 21
238.702071
  0
LINE
  8
CSLAYER1
  6
CONTINUOUS
 62
     6
 10
307.228700
 20
238.702071
 11
307.228700
 21
246.702071
  0
LINE
  8
CSLAYER1
  6
CONTINUOUS
 62
     6
 10
307.228700
 20
246.702071
 11
282.728700
 21
246.702071
  0
LINE
  8
CSLAYER1
  6
CONTINUOUS
 62
     6
 10
271.728700
 20
212.702071
 11
270.728700
 21
212.702071
  0
ARC
  8
CSLAYER1
  6
CONTINUOUS
 62
     6
 10
273.728700
 20
183.702035
 40
2.000000
 50
90.000003
 51
179.999991
  0
LINE
  8
CSLAYER1
  6
CONTINUOUS
 62
     6
 10
271.728700
 20
183.702035
 11
270.728700
 21
183.702035
  0
LINE
  8
CSLAYER1
  6
CONTINUOUS
 62
     6
 10
270.728684
 20
183.702050
 11
271.728684
 21
183.702050
  0
LINE
  8
CSLAYER1
  6
CONTINUOUS
 62
     6
 10
271.728700
 20
183.702035
 11
271.728700
 21
123.702004
  0
ARC
  8
CSLAYER1
  6
CONTINUOUS
 62
     6
 10
273.728700
 20
123.702004
 40
2.000000
 50
180.000005
 51
269.999973
  0
LINE
  8
CSLAYER1
  6
CONTINUOUS
 62
     6
 10
273.728700
 20
121.702004
 11
280.728700
 21
121.702004
  0
LINE
  8
CSLAYER1
  6
CONTINUOUS
 62
     6
 10
280.728700
 20
121.702004
 11
280.728700
 21
185.702035
  0
LINE
  8
CSLAYER1
  6
CONTINUOUS
 62
     6
 10
280.728700
 20
185.702035
 11
273.728700
 21
185.702035
  0
LINE
  8
CSLAYER1
  6
CONTINUOUS
 62
     6
 10
280.728700
 20
168.702035
 11
282.728700
 21
168.702035
  0
LINE
  8
CSLAYER1
  6
CONTINUOUS
 62
     6
 10
282.728700
 20
168.702035
 11
282.728700
 21
138.702035
  0
LINE
  8
CSLAYER1
  6
CONTINUOUS
 62
     6
 10
282.728700
 20
138.702035
 11
280.728700
 21
138.702035
  0
LINE
  8
CSLAYER1
  6
CONTINUOUS
 62
     6
 10
271.728700
 20
123.702035
 11
270.728700
 21
123.702035
  0
ARC
  8
CSLAYER1
  6
CONTINUOUS
 62
     6
 10
273.728700
 20
89.702004
 40
2.000000
 50
90.000003
 51
179.999991
  0
LINE
  8
CSLAYER1
  6
CONTINUOUS
 62
     6
 10
271.728700
 20
89.702004
 11
270.728700
 21
89.702004
  0
LINE
  8
CSLAYER1
  6
CONTINUOUS
 62
     6
 10
270.728684
 20
89.702020
 11
271.728684
 21
89.702020
  0
LINE
  8
CSLAYER1
  6
CONTINUOUS
 62
     6
 10
271.728700
 20
89.702004
 11
271.728700
 21
29.701974
  0
ARC
  8
CSLAYER1
  6
CONTINUOUS
 62
     6
 10
273.728700
 20
29.701974
 40
2.000000
 50
180.000005
 51
269.999973
  0
LINE
  8
CSLAYER1
  6
CONTINUOUS
 62
     6
 10
273.728700
 20
27.701974
 11
280.728700
 21
27.701974
  0
LINE
  8
CSLAYER1
  6
CONTINUOUS
 62
     6
 10
280.728700
 20
27.701974
 11
280.728700
 21
91.702004
  0
LINE
  8
CSLAYER1
  6
CONTINUOUS
 62
     6
 10
280.728700
 20
91.702004
 11
273.728700
 21
91.702004
  0
LINE
  8
CSLAYER1
  6
CONTINUOUS
 62
     6
 10
280.728700
 20
74.702004
 11
282.728700
 21
74.702004
  0
LINE
  8
CSLAYER1
  6
CONTINUOUS
 62
     6
 10
282.728700
 20
74.702004
 11
282.728700
 21
44.702004
  0
LINE
  8
CSLAYER1
  6
CONTINUOUS
 62
     6
 10
282.728700
 20
44.702004
 11
280.728700
 21
44.702004
  0
LINE
  8
CSLAYER1
  6
CONTINUOUS
 62
     6
 10
282.728715
 20
55.702004
 11
307.228700
 21
55.702004
  0
LINE
  8
CSLAYER1
  6
CONTINUOUS
 62
     6
 10
307.228700
 20
55.702004
 11
307.228700
 21
63.702004
  0
LINE
  8
CSLAYER1
  6
CONTINUOUS
 62
     6
 10
307.228700
 20
63.702004
 11
282.728700
 21
63.702004
  0
LINE
  8
CSLAYER1
  6
CONTINUOUS
 62
     6
 10
271.728700
 20
29.702004
 11
270.728700
 21
29.702004
  0
ARC
  8
CSLAYER1
  6
CONTINUOUS
 62
     6
 10
335.228700
 20
127.702031
 40
6.000000
 50
180.000000
 51
270.000003
  0
LINE
  8
CSLAYER1
  6
CONTINUOUS
 62
     6
 10
329.228761
 20
127.702031
 11
329.228761
 21
179.702031
  0
ARC
  8
CSLAYER1
  6
CONTINUOUS
 62
     6
 10
335.228700
 20
179.702031
 40
6.000000
 50
90.000000
 51
180.000003
  0
LINE
  8
CSLAYER1
  6
CONTINUOUS
 62
     6
 10
335.228761
 20
185.702031
 11
387.228700
 21
185.702031
  0
ARC
  8
CSLAYER1
  6
CONTINUOUS
 62
     6
 10
387.228700
 20
179.702031
 40
6.000000
 50
0.000000
 51
90.000003
  0
LINE
  8
CSLAYER1
  6
CONTINUOUS
 62
     6
 10
393.228700
 20
179.702031
 11
393.228700
 21
127.702031
  0
ARC
  8
CSLAYER1
  6
CONTINUOUS
 62
     6
 10
387.228700
 20
127.702031
 40
6.000000
 50
269.999997
 51
360.000000
  0
LINE
  8
CSLAYER1
  6
CONTINUOUS
 62
     6
 10
387.228700
 20
121.702031
 11
335.228761
 21
121.702031
  0
CIRCLE
  8
CSLAYER1
  6
CONTINUOUS
 62
     6
 10
335.228700
 20
127.702031
 40
2.250000
  0
ARC
  8
CSLAYER1
  6
CONTINUOUS
 62
     6
 10
361.228700
 20
153.014680
 40
11.323712
 50
-37.903087
 51
217.903071
  0
ARC
  8
CSLAYER1
  6
CONTINUOUS
 62
     6
 10
369.231183
 20
146.784257
 40
1.181817
 50
230.236306
 51
322.096613
  0
ARC
  8
CSLAYER1
  6
CONTINUOUS
 62
     6
 10
366.855212
 20
143.928876
 40
2.532799
 50
50.235874
 51
203.481567
  0
LINE
  8
CSLAYER1
  6
CONTINUOUS
 62
     6
 10
364.532150
 20
142.919689
 11
365.036861
 21
141.272346
  0
CIRCLE
  8
CSLAYER1
  6
CONTINUOUS
 62
     6
 10
366.855212
 20
143.928876
 40
1.181817
  0
LINE
  8
CSLAYER1
  6
CONTINUOUS
 62
     6
 10
357.925249
 20
142.919689
 11
357.420539
 21
141.272346
  0
ARC
  8
CSLAYER1
  6
CONTINUOUS
 62
     6
 10
355.602188
 20
143.928876
 40
2.532799
 50
-23.481552
 51
129.764124
  0
ARC
  8
CSLAYER1
  6
CONTINUOUS
 62
     6
 10
353.226217
 20
146.784257
 40
1.181817
 50
217.903402
 51
309.763723
  0
CIRCLE
  8
CSLAYER1
  6
CONTINUOUS
 62
     6
 10
355.602188
 20
143.928876
 40
1.181817
  0
ARC
  8
CSLAYER1
  6
CONTINUOUS
 62
     6
 10
378.199220
 20
136.731480
 40
2.397500
 50
163.398416
 51
196.601604
  0
LINE
  8
CSLAYER1
  6
CONTINUOUS
 62
     6
 10
375.901673
 20
136.046482
 11
376.829224
 21
136.046482
  0
ARC
  8
CSLAYER1
  6
CONTINUOUS
 62
     6
 10
376.829224
 20
135.361485
 40
0.685000
 50
0.000005
 51
90.000001
  0
LINE
  8
CSLAYER1
  6
CONTINUOUS
 62
     6
 10
377.514222
 20
135.361485
 11
377.514222
 21
134.433918
  0
ARC
  8
CSLAYER1
  6
CONTINUOUS
 62
     6
 10
378.199220
 20
136.731480
 40
2.397500
 50
253.398442
 51
286.601576
  0
LINE
  8
CSLAYER1
  6
CONTINUOUS
 62
     6
 10
378.884217
 20
134.433918
 11
378.884217
 21
135.361485
  0
ARC
  8
CSLAYER1
  6
CONTINUOUS
 62
     6
 10
379.569215
 20
135.361485
 40
0.685000
 50
90.000001
 51
179.942691
  0
LINE
  8
CSLAYER1
  6
CONTINUOUS
 62
     6
 10
379.569215
 20
136.046482
 11
380.496766
 21
136.046482
  0
ARC
  8
CSLAYER1
  6
CONTINUOUS
 62
     6
 10
378.199220
 20
136.731480
 40
2.397500
 50
-16.601576
 51
16.601586
  0
LINE
  8
CSLAYER1
  6
CONTINUOUS
 62
     6
 10
380.496766
 20
137.416478
 11
379.569215
 21
137.416478
  0
ARC
  8
CSLAYER1
  6
CONTINUOUS
 62
     6
 10
379.569215
 20
138.101475
 40
0.685000
 50
180.000000
 51
270.000009
  0
LINE
  8
CSLAYER1
  6
CONTINUOUS
 62
     6
 10
378.884217
 20
138.101475
 11
378.884217
 21
139.029042
  0
ARC
  8
CSLAYER1
  6
CONTINUOUS
 62
     6
 10
378.199220
 20
136.731480
 40
2.397500
 50
73.398434
 51
106.601595
  0
LINE
  8
CSLAYER1
  6
CONTINUOUS
 62
     6
 10
377.514222
 20
139.029042
 11
377.514222
 21
138.101475
  0
ARC
  8
CSLAYER1
  6
CONTINUOUS
 62
     6
 10
376.829224
 20
138.101475
 40
0.685000
 50
-89.999991
 51
0.000005
  0
LINE
  8
CSLAYER1
  6
CONTINUOUS
 62
     6
 10
376.829224
 20
137.416478
 11
375.901673
 21
137.416478
  0
CIRCLE
  8
CSLAYER1
  6
CONTINUOUS
 62
     6
 10
378.199220
 20
136.731480
 40
5.500000
  0
CIRCLE
  8
CSLAYER1
  6
CONTINUOUS
 62
     6
 10
378.199220
 20
136.731480
 40
4.500000
  0
CIRCLE
  8
CSLAYER1
  6
CONTINUOUS
 62
     6
 10
387.228700
 20
127.702031
 40
2.250000
  0
CIRCLE
  8
CSLAYER1
  6
CONTINUOUS
 62
     6
 10
361.228700
 20
153.702031
 40
13.000000
  0
CIRCLE
  8
CSLAYER1
  6
CONTINUOUS
 62
     6
 10
361.228700
 20
153.702031
 40
5.000000
  0
CIRCLE
  8
CSLAYER1
  6
CONTINUOUS
 62
     6
 10
361.228700
 20
153.702046
 40
4.000000
  0
CIRCLE
  8
CSLAYER1
  6
CONTINUOUS
 62
     6
 10
361.228700
 20
153.702046
 40
15.000000
  0
CIRCLE
  8
CSLAYER1
  6
CONTINUOUS
 62
     6
 10
361.228700
 20
153.702046
 40
17.500000
  0
ARC
  8
CSLAYER1
  6
CONTINUOUS
 62
     6
 10
344.258180
 20
170.672581
 40
2.397500
 50
253.398434
 51
286.601595
  0
LINE
  8
CSLAYER1
  6
CONTINUOUS
 62
     6
 10
343.573182
 20
168.375019
 11
343.573182
 21
169.302586
  0
ARC
  8
CSLAYER1
  6
CONTINUOUS
 62
     6
 10
342.888184
 20
169.302586
 40
0.685000
 50
0.000000
 51
90.000009
  0
LINE
  8
CSLAYER1
  6
CONTINUOUS
 62
     6
 10
342.888184
 20
169.987583
 11
341.960633
 21
169.987583
  0
ARC
  8
CSLAYER1
  6
CONTINUOUS
 62
     6
 10
344.258180
 20
170.672581
 40
2.397500
 50
163.398424
 51
196.601586
  0
LINE
  8
CSLAYER1
  6
CONTINUOUS
 62
     6
 10
341.960633
 20
171.357579
 11
342.888184
 21
171.357579
  0
ARC
  8
CSLAYER1
  6
CONTINUOUS
 62
     6
 10
342.888184
 20
172.042576
 40
0.685000
 50
270.000001
 51
359.942691
  0
LINE
  8
CSLAYER1
  6
CONTINUOUS
 62
     6
 10
343.573182
 20
172.042576
 11
343.573182
 21
172.970143
  0
ARC
  8
CSLAYER1
  6
CONTINUOUS
 62
     6
 10
344.258180
 20
170.672581
 40
2.397500
 50
73.398442
 51
106.601576
  0
LINE
  8
CSLAYER1
  6
CONTINUOUS
 62
     6
 10
344.943177
 20
172.970143
 11
344.943177
 21
172.042576
  0
ARC
  8
CSLAYER1
  6
CONTINUOUS
 62
     6
 10
345.628175
 20
172.042576
 40
0.685000
 50
180.000005
 51
270.000001
  0
LINE
  8
CSLAYER1
  6
CONTINUOUS
 62
     6
 10
345.628175
 20
171.357579
 11
346.555726
 21
171.357579
  0
ARC
  8
CSLAYER1
  6
CONTINUOUS
 62
     6
 10
344.258180
 20
170.672581
 40
2.397500
 50
-16.601584
 51
16.601604
  0
LINE
  8
CSLAYER1
  6
CONTINUOUS
 62
     6
 10
346.555726
 20
169.987583
 11
345.628175
 21
169.987583
  0
ARC
  8
CSLAYER1
  6
CONTINUOUS
 62
     6
 10
345.628175
 20
169.302586
 40
0.685000
 50
90.000009
 51
180.000005
  0
LINE
  8
CSLAYER1
  6
CONTINUOUS
 62
     6
 10
344.943177
 20
169.302586
 11
344.943177
 21
168.375019
  0
CIRCLE
  8
CSLAYER1
  6
CONTINUOUS
 62
     6
 10
344.258180
 20
170.672581
 40
5.500000
  0
CIRCLE
  8
CSLAYER1
  6
CONTINUOUS
 62
     6
 10
344.258180
 20
170.672581
 40
4.500000
  0
CIRCLE
  8
CSLAYER1
  6
CONTINUOUS
 62
     6
 10
335.228700
 20
179.702031
 40
2.250000
  0
CIRCLE
  8
CSLAYER1
  6
CONTINUOUS
 62
     6
 10
387.228700
 20
179.702031
 40
2.250000
  0
LINE
  8
CSLAYER1
  6
CONTINUOUS
 62
     6
 10
307.228700
 20
157.702035
 11
307.228700
 21
149.702035
  0
LINE
  8
CSLAYER1
  6
CONTINUOUS
 62
     6
 10
307.228700
 20
149.702035
 11
282.728715
 21
149.702035
  0
LINE
  8
CSLAYER1
  6
CONTINUOUS
 62
     6
 10
282.728700
 20
157.702035
 11
307.228700
 21
157.702035
  0
TEXT
  8
CSLAYER1
 62
     6
 10
53.419167
 20
135.533905
 40
2.000000
 41
0.934615
  1
HEDS-5500
 50
90.000000
 51
0.000000
  7
JX_FONT
 72
     5
 11
53.419167
 21
151.733905
  0
ENDSEC
  0
EOF
