  0
SECTION
  2
HEADER
  9
$ACADVER
  1
AC1006
  9
$INSBASE
 10
0.000000
 20
0.000000
 30
0.0
  9
$EXTMIN
 10
0.000000
 20
0.000000
  9
$EXTMAX
 10
841.000000
 20
594.000000
  9
$LIMMIN
 10
0.000000
 20
0.000000
  9
$LIMMAX
 10
841.000000
 20
594.000000
  9
$VIEWCTR
 10
420.500000
 20
297.000000
  9
$VIEWSIZE
 40
594.000000
  9
$SNAPMODE
 70
     0
  9
$SNAPUNIT
 10
1.0
 20
1.0
  9
$SNAPBASE
 10
0.0
 20
0.0
  9
$SNAPANG
 50
0.0
  9
$SNAPSTYLE
 70
     0
  9
$SNAPISOPAIR
 70
     0
  9
$GRIDMODE
 70
     0
  9
$GRIDUNIT
 10
0.0
 20
0.0
  9
$ORTHOMODE
 70
     0
  9
$REGENMODE
 70
     1
  9
$FILLMODE
 70
     1
  9
$QTEXTMODE
 70
     0
  9
$DRAGMODE
 70
     2
  9
$LTSCALE
 40
15.000000
  9
$OSMODE
 70
     0
  9
$ATTMODE
 70
     1
  9
$TEXTSIZE
 40
0.2
  9
$TRACEWID
 40
0.05
  9
$TEXTSTYLE
  7
STANDARD
  9
$CLAYER
  8
CSLAYER1
  9
$CELTYPE
  6
BYLAYER
  9
$CECOLOR
 62
   256
  9
$DIMSCALE
 40
1.0
  9
$DIMASZ
 40
0.18
  9
$DIMEXO
 40
0.0625
  9
$DIMDLI
 40
0.38
  9
$DIMRND
 40
0.0
  9
$DIMDLE
 40
0.0
  9
$DIMEXE
 40
0.18
  9
$DIMTP
 40
0.0
  9
$DIMTM
 40
0.0
  9
$DIMTXT
 40
0.18
  9
$DIMCEN
 40
0.09
  9
$DIMTSZ
 40
0.0
  9
$DIMTOL
 70
     0
  9
$DIMLIM
 70
     0
  9
$DIMTIH
 70
     1
  9
$DIMTOH
 70
     1
  9
$DIMSE1
 70
     0
  9
$DIMSE2
 70
     0
  9
$DIMTAD
 70
     0
  9
$DIMZIN
 70
     0
  9
$DIMBLK
  1

  9
$LUNITS
 70
     2
  9
$LUPREC
 70
     4
  9
$AXISMODE
 70
     0
  9
$AXISUNIT
 10
0.0
 20
0.0
  9
$SKETCHINC
 40
0.1
  9
$FILLETRAD
 40
0.0
  9
$AUNITS
 70
     0
  9
$AUPREC
 70
     0
  9
$MENU
  1
ACAD
  9
$ELEVATION
 40
0.0
  9
$THICKNESS
 40
0.0
  9
$VIEWDIR
 10
0.0
 20
0.0
 30
1.0
  9
$LIMCHECK
 70
     0
  9
$BLIPMODE
 70
     1
  9
$CHAMFERA
 40
0.0
  9
$CHAMFERB
 40
0.0
  9
$FASTZOOM
 70
     1
  9
$SKPOLY
 70
     0
  9
$TDCREATE
 40
0.000000
  9
$TDUPDATE
 40
0.000000
  9
$TDINDWG
 40
0.0
  9
$TDUSRTIMER
 40
0.0
  9
$USRTIMER
 70
     1
  9
$ANGBASE
 50
0.0
  9
$ANGDIR
 70
     0
  9
$PDMODE
 70
     0
  9
$PDSIZE
 40
0.0
  9
$PLINEWID
 40
0.0
  9
$COORDS
 70
     0
  9
$USERI1
 70
     0
  9
$USERI2
 70
     0
  9
$USERI3
 70
     0
  9
$USERI4
 70
     0
  9
$USERI5
 70
     0
  9
$USERR1
 40
0.0
  9
$USERR2
 40
0.0
  9
$USERR3
 40
0.0
  9
$USERR4
 40
0.0
  9
$USERR5
 40
0.0
  0
ENDSEC
  0
SECTION
  2
TABLES
  0
TABLE
  2
LTYPE
 70
     9
  0
LTYPE
  2
CONTINUOUS
 70
    64
  3
Solid line
 72
    65
 73
     0
 40
0.0
  0
LTYPE
  2
DASHED
 70
    64
  3
__ __ __ __ __ __ __ __ __ __ __ __ __ __ __
 72
    65
 73
     2
 40
0.75
 49
0.5
 49
-0.25
  0
LTYPE
  2
HIDDEN
 70
    64
  3
_ _ _ _ _ _ _ _ _ _ _ _ _ _ _ _ _ _ _ _ _ _ _
 72
    65
 73
     2
 40
0.375
 49
0.25
 49
-0.125
  0
LTYPE
  2
DOT
 70
    64
  3
...............................................
 72
    65
 73
     2
 40
0.25
 49
0.0
 49
-0.25
  0
LTYPE
  2
DASHDOT
 70
    64
  3
__ . __ . __ . __ . __ . __ . __ . __ . __ . __
 72
    65
 73
     4
 40
1.0
 49
0.5
 49
-0.25
 49
0.0
 49
-0.25
  0
LTYPE
  2
DIVIDE
 70
    64
  3
__ . . __ . . __ . . __ . . __ . . __ . . __
 72
    65
 73
     6
 40
1.25
 49
0.5
 49
-0.25
 49
0.0
 49
-0.25
 49
0.0
 49
-0.25
  0
LTYPE
  2
CENTER
 70
    64
  3
____ _ ____ _ ____ _ ____ _ ____ _ ____ _ ____ 
 72
    65
 73
     4
 40
2.0
 49
1.25
 49
-0.25
 49
0.25
 49
-0.25
  0
LTYPE
  2
PHANTOM
 70
    64
  3
______  __  __  ______  __  __  ______  __  __ 
 72
    65
 73
     6
 40
2.5
 49
1.25
 49
-0.25
 49
0.25
 49
-0.25
 49
0.25
 49
-0.25
  0
LTYPE
  2
BORDER
 70
    64
  3
__ __ . __ __ . __ __ . __ __ . __ __ . __ __ .
 72
    65
 73
     6
 40
1.75
 49
0.5
 49
-0.25
 49
0.5
 49
-0.25
 49
0.0
 49
-0.25
  0
ENDTAB
  0
TABLE
  2
LAYER
 70
    16
  0
LAYER
  2
CSLAYER1
 70
    64
 62
     7
  6
CONTINUOUS
  0
LAYER
  2
CSLAYER2
 70
    64
 62
     7
  6
CONTINUOUS
  0
LAYER
  2
CSLAYER3
 70
    64
 62
     7
  6
CONTINUOUS
  0
LAYER
  2
CSLAYER4
 70
    64
 62
     7
  6
CONTINUOUS
  0
LAYER
  2
CSLAYER5
 70
    64
 62
     7
  6
CONTINUOUS
  0
LAYER
  2
CSLAYER6
 70
    64
 62
     7
  6
CONTINUOUS
  0
LAYER
  2
CSLAYER7
 70
    64
 62
     7
  6
CONTINUOUS
  0
LAYER
  2
CSLAYER8
 70
    64
 62
     7
  6
CONTINUOUS
  0
LAYER
  2
CSLAYER9
 70
    64
 62
     7
  6
CONTINUOUS
  0
LAYER
  2
CSLAYER10
 70
    64
 62
     7
  6
CONTINUOUS
  0
LAYER
  2
CSLAYER11
 70
    64
 62
     7
  6
CONTINUOUS
  0
LAYER
  2
CSLAYER12
 70
    64
 62
     7
  6
CONTINUOUS
  0
LAYER
  2
CSLAYER13
 70
    64
 62
     7
  6
CONTINUOUS
  0
LAYER
  2
CSLAYER14
 70
    64
 62
     7
  6
CONTINUOUS
  0
LAYER
  2
CSLAYER15
 70
    64
 62
     7
  6
CONTINUOUS
  0
LAYER
  2
CSLAYER16
 70
    64
 62
     7
  6
CONTINUOUS
  0
ENDTAB
  0
TABLE
  2
STYLE
 70
     1
  0
STYLE
  2
JX_FONT
 70
     0
 40
1.0
 41
1.0
 50
0.0
 71
     0
 42
1.0
  3
monotxt
  4
bigfont
  0
ENDTAB
  0
TABLE
  2
VIEW
 70
     0
  0
ENDTAB
  0
ENDSEC
  0
SECTION
  2
BLOCKS
  0
ENDSEC
  0
SECTION
  2
ENTITIES
  0
LINE
  8
CSLAYER1
  6
CENTER
 62
     3
 10
127.641794
 20
229.785384
 11
127.641794
 21
256.785384
  0
LINE
  8
CSLAYER1
  6
CENTER
 62
     3
 10
130.467555
 20
256.111145
 11
160.376278
 21
286.019868
  0
ARC
  8
CSLAYER1
  6
CENTER
 62
     3
 10
180.141794
 20
305.785384
 40
59.000000
 50
214.058356
 51
235.941644
  0
LINE
  8
CSLAYER1
  6
CENTER
 62
     3
 10
180.141794
 20
235.785384
 11
180.141794
 21
375.785384
  0
LINE
  8
CSLAYER1
  6
CENTER
 62
     3
 10
185.641794
 20
360.785384
 11
174.641794
 21
360.785384
  0
ARC
  8
CSLAYER1
  6
CENTER
 62
     3
 10
180.141794
 20
305.785384
 40
59.000000
 50
125.489327
 51
145.680787
  0
LINE
  8
CSLAYER1
  6
CENTER
 62
     3
 10
145.034310
 20
340.892867
 11
130.467555
 21
355.459622
  0
LINE
  8
CSLAYER1
  6
CENTER
 62
     3
 10
110.141794
 20
305.785384
 11
250.141794
 21
305.785384
  0
ARC
  8
CSLAYER1
  6
CENTER
 62
     3
 10
180.141794
 20
305.785384
 40
59.000000
 50
34.319213
 51
54.510673
  0
LINE
  8
CSLAYER1
  6
CENTER
 62
     3
 10
215.249277
 20
340.892867
 11
229.816032
 21
355.459622
  0
LINE
  8
CSLAYER1
  6
CENTER
 62
     3
 10
290.411193
 20
305.785384
 11
560.911193
 21
305.785384
  0
LINE
  8
CSLAYER1
  6
CENTER
 62
     3
 10
591.313354
 20
305.785384
 11
733.313354
 21
305.785384
  0
ARC
  8
CSLAYER1
  6
CENTER
 62
     3
 10
662.313354
 20
305.785384
 40
59.000000
 50
34.109393
 51
55.929246
  0
LINE
  8
CSLAYER1
  6
CENTER
 62
     3
 10
697.420838
 20
340.892867
 11
711.987593
 21
355.459622
  0
LINE
  8
CSLAYER1
  6
CENTER
 62
     3
 10
662.313354
 20
376.785384
 11
662.313354
 21
235.785384
  0
ARC
  8
CSLAYER1
  6
CENTER
 62
     3
 10
662.313354
 20
305.785384
 40
59.000000
 50
304.109393
 51
325.890607
  0
LINE
  8
CSLAYER1
  6
CENTER
 62
     3
 10
696.114709
 20
271.984029
 11
711.950599
 21
256.148139
  0
LINE
  8
CSLAYER1
  6
CENTER
 62
     3
 10
714.813354
 20
256.785384
 11
714.813354
 21
229.785384
  0
ARC
  8
CSLAYER1
  6
CENTER
 62
     3
 10
662.313354
 20
305.785384
 40
59.000000
 50
214.109393
 51
235.890607
  0
LINE
  8
CSLAYER1
  6
CENTER
 62
     3
 10
627.205870
 20
270.677900
 11
612.639115
 21
256.111145
  0
LINE
  8
CSLAYER1
  6
CENTER
 62
     3
 10
609.813354
 20
256.785384
 11
609.813354
 21
229.785384
  0
LINE
  8
CSLAYER1
  6
CENTER
 62
     3
 10
467.911193
 20
229.785384
 11
467.911193
 21
256.785384
  0
LINE
  8
CSLAYER1
  6
CENTER
 62
     3
 10
469.862617
 20
264.066084
 11
434.911193
 21
264.066084
  0
LINE
  8
CSLAYER1
  6
CENTER
 62
     3
 10
467.911193
 20
193.785384
 11
467.911193
 21
165.785384
  0
LINE
  8
CSLAYER1
  6
CENTER
 62
     3
 10
475.411193
 20
175.285384
 11
460.411193
 21
175.285384
  0
LINE
  8
CSLAYER1
  6
CENTER
 62
     3
 10
460.411193
 20
181.285384
 11
475.411193
 21
181.285384
  0
LINE
  8
CSLAYER1
  6
CENTER
 62
     3
 10
385.411193
 20
181.285384
 11
370.411193
 21
181.285384
  0
LINE
  8
CSLAYER1
  6
CENTER
 62
     3
 10
370.411193
 20
175.285384
 11
385.411193
 21
175.285384
  0
LINE
  8
CSLAYER1
  6
CENTER
 62
     3
 10
377.911193
 20
165.785384
 11
377.911193
 21
193.785384
  0
LINE
  8
CSLAYER1
  6
CENTER
 62
     3
 10
377.911193
 20
229.785384
 11
377.911193
 21
256.785384
  0
LINE
  8
CSLAYER1
  6
CENTER
 62
     3
 10
317.411193
 20
252.177407
 11
317.411193
 21
318.785387
  0
CIRCLE
  8
CSLAYER1
  6
CONTINUOUS
 62
     3
 10
317.411193
 20
305.785387
 40
5.500000
  0
ARC
  8
CSLAYER1
  6
CONTINUOUS
 62
     3
 10
365.778564
 20
322.285365
 40
1.000000
 50
180.000005
 51
270.000001
  0
LINE
  8
CSLAYER1
  6
CONTINUOUS
 62
     3
 10
365.778564
 20
321.285365
 11
401.778549
 21
321.285365
  0
ARC
  8
CSLAYER1
  6
CONTINUOUS
 62
     3
 10
401.778549
 20
322.285365
 40
1.000000
 50
270.000001
 51
359.942691
  0
LINE
  8
CSLAYER1
  6
CONTINUOUS
 62
     3
 10
402.778549
 20
322.285365
 11
402.778549
 21
336.785396
  0
LINE
  8
CSLAYER1
  6
CONTINUOUS
 62
     3
 10
364.778564
 20
336.785396
 11
364.778564
 21
322.285365
  0
LINE
  8
CSLAYER1
  6
CENTER
 62
     3
 10
377.911193
 20
407.785384
 11
377.911193
 21
435.785384
  0
LINE
  8
CSLAYER1
  6
CENTER
 62
     3
 10
385.411193
 20
426.285384
 11
370.411193
 21
426.285384
  0
LINE
  8
CSLAYER1
  6
CENTER
 62
     3
 10
370.411193
 20
420.285384
 11
385.411193
 21
420.285384
  0
LINE
  8
CSLAYER1
  6
CONTINUOUS
 62
     3
 10
401.778564
 20
451.285338
 11
365.778564
 21
451.285338
  0
ARC
  8
CSLAYER1
  6
CONTINUOUS
 62
     3
 10
365.778564
 20
452.285338
 40
1.000000
 50
180.000005
 51
270.000001
  0
LINE
  8
CSLAYER1
  6
CONTINUOUS
 62
     3
 10
364.778564
 20
452.285338
 11
364.778564
 21
499.285399
  0
ARC
  8
CSLAYER1
  6
CONTINUOUS
 62
     3
 10
365.778564
 20
499.285399
 40
1.000000
 50
90.000009
 51
180.000005
  0
LINE
  8
CSLAYER1
  6
CONTINUOUS
 62
     3
 10
365.778564
 20
500.285399
 11
401.778564
 21
500.285399
  0
ARC
  8
CSLAYER1
  6
CONTINUOUS
 62
     3
 10
401.778564
 20
499.285399
 40
1.000000
 50
0.057319
 51
90.000009
  0
LINE
  8
CSLAYER1
  6
CONTINUOUS
 62
     3
 10
402.778564
 20
499.285399
 11
402.778564
 21
452.285338
  0
ARC
  8
CSLAYER1
  6
CONTINUOUS
 62
     3
 10
401.778564
 20
452.285338
 40
1.000000
 50
270.000001
 51
359.942691
  0
LINE
  8
CSLAYER1
  6
CENTER
 62
     3
 10
377.911193
 20
515.785384
 11
377.911193
 21
543.785384
  0
LINE
  8
CSLAYER1
  6
CENTER
 62
     3
 10
385.411193
 20
531.285384
 11
370.411193
 21
531.285384
  0
LINE
  8
CSLAYER1
  6
CENTER
 62
     3
 10
370.411193
 20
525.285384
 11
385.411193
 21
525.285384
  0
LINE
  8
CSLAYER1
  6
CENTER
 62
     3
 10
291.411193
 20
475.785384
 11
560.911193
 21
475.785384
  0
LINE
  8
CSLAYER1
  6
CENTER
 62
     3
 10
469.862617
 20
517.504684
 11
434.911193
 21
517.504684
  0
LINE
  8
CSLAYER1
  6
CENTER
 62
     3
 10
460.411193
 20
531.285384
 11
475.411193
 21
531.285384
  0
LINE
  8
CSLAYER1
  6
CENTER
 62
     3
 10
467.911193
 20
521.807834
 11
467.911193
 21
543.785384
  0
LINE
  8
CSLAYER1
  6
CENTER
 62
     3
 10
469.862617
 20
434.066084
 11
434.911193
 21
434.066084
  0
LINE
  8
CSLAYER1
  6
CENTER
 62
     3
 10
460.411193
 20
420.285384
 11
475.411193
 21
420.285384
  0
LINE
  8
CSLAYER1
  6
CENTER
 62
     3
 10
467.911193
 20
429.762934
 11
467.911193
 21
407.785384
  0
LINE
  8
CSLAYER1
  6
CENTER
 62
     3
 10
469.862617
 20
347.504684
 11
434.911193
 21
347.504684
  0
LINE
  8
CSLAYER1
  6
CENTER
 62
     3
 10
612.639115
 20
355.459622
 11
627.205870
 21
340.892867
  0
ARC
  8
CSLAYER1
  6
CENTER
 62
     3
 10
662.313354
 20
305.785384
 40
59.000000
 50
124.109393
 51
145.890607
  0
LINE
  8
CSLAYER1
  6
CENTER
 62
     3
 10
232.641794
 20
256.785384
 11
232.641794
 21
229.785384
  0
LINE
  8
CSLAYER1
  6
CENTER
 62
     3
 10
229.816033
 20
256.111145
 11
199.907309
 21
286.019868
  0
ARC
  8
CSLAYER1
  6
CENTER
 62
     3
 10
180.141794
 20
305.785384
 40
59.000000
 50
304.058356
 51
325.941644
  0
LINE
  8
CSLAYER1
  6
CENTER
 62
     3
 10
291.411193
 20
125.785384
 11
560.911193
 21
125.785384
  0
LINE
  8
CSLAYER1
  6
CENTER
 62
     3
 10
475.411193
 20
76.285384
 11
460.411193
 21
76.285384
  0
LINE
  8
CSLAYER1
  6
CENTER
 62
     3
 10
460.411193
 20
70.285384
 11
475.411193
 21
70.285384
  0
LINE
  8
CSLAYER1
  6
CENTER
 62
     3
 10
467.911193
 20
57.785384
 11
467.911193
 21
85.785384
  0
LINE
  8
CSLAYER1
  6
CENTER
 62
     3
 10
385.411193
 20
76.285384
 11
370.411193
 21
76.285384
  0
LINE
  8
CSLAYER1
  6
CENTER
 62
     3
 10
370.411193
 20
70.285384
 11
385.411193
 21
70.285384
  0
LINE
  8
CSLAYER1
  6
CENTER
 62
     3
 10
377.911193
 20
57.785384
 11
377.911193
 21
85.785384
  0
LINE
  8
CSLAYER1
  6
CENTER
 62
     3
 10
317.411193
 20
114.785384
 11
317.411193
 21
136.785384
  0
TEXT
  8
CSLAYER1
 62
     3
 10
382.656525
 20
334.285400
 40
3.500000
 41
1.125000
  1
N P
 50
-90.000000
 51
10.000000
  7
JX_FONT
 72
     5
 11
382.656525
 21
323.785400
  0
TEXT
  8
CSLAYER1
 62
     3
 10
382.553833
 20
481.035400
 40
3.500000
 41
1.125000
  1
N P
 50
-89.999992
 51
10.000000
  7
JX_FONT
 72
     5
 11
382.553834
 21
470.535400
  0
LINE
  8
CSLAYER1
  6
CONTINUOUS
 62
     6
 10
115.141794
 20
235.785384
 11
150.141794
 21
235.785384
  0
LINE
  8
CSLAYER1
  6
CONTINUOUS
 62
     6
 10
150.141794
 20
235.785384
 11
150.141794
 21
248.785384
  0
ARC
  8
CSLAYER1
  6
CONTINUOUS
 62
     6
 10
148.141794
 20
248.785384
 40
2.000000
 50
0.000000
 51
90.000000
  0
LINE
  8
CSLAYER1
  6
CONTINUOUS
 62
     6
 10
152.141794
 20
240.785384
 11
208.141794
 21
240.785384
  0
ARC
  8
CSLAYER1
  6
CONTINUOUS
 62
     6
 10
208.141794
 20
238.785384
 40
2.000000
 50
0.000000
 51
90.000000
  0
LINE
  8
CSLAYER1
  6
CONTINUOUS
 62
     6
 10
210.141794
 20
235.785384
 11
245.141794
 21
235.785384
  0
LINE
  8
CSLAYER1
  6
CONTINUOUS
 62
     6
 10
245.141794
 20
235.785384
 11
245.141794
 21
305.785384
  0
ARC
  8
CSLAYER1
  6
CONTINUOUS
 62
     6
 10
180.141794
 20
305.785384
 40
65.000000
 50
0.000000
 51
180.000000
  0
LINE
  8
CSLAYER1
  6
CONTINUOUS
 62
     6
 10
115.141794
 20
305.785384
 11
115.141794
 21
235.785384
  0
LINE
  8
CSLAYER1
  6
DASHED
 62
     6
 10
120.141794
 20
235.785384
 11
120.141794
 21
250.785384
  0
LINE
  8
CSLAYER1
  6
CONTINUOUS
 62
     6
 10
117.141794
 20
250.785384
 11
243.141794
 21
250.785384
  0
ARC
  8
CSLAYER1
  6
CONTINUOUS
 62
     6
 10
243.141794
 20
248.785384
 40
2.000000
 50
0.000000
 51
90.000000
  0
LINE
  8
CSLAYER1
  6
DASHED
 62
     6
 10
240.141794
 20
250.785384
 11
240.141794
 21
235.785384
  0
LINE
  8
CSLAYER1
  6
DASHED
 62
     6
 10
225.141794
 20
235.785384
 11
225.141794
 21
250.785384
  0
ARC
  8
CSLAYER1
  6
CONTINUOUS
 62
     6
 10
234.141794
 20
253.785384
 40
3.000000
 50
270.000000
 51
360.000000
  0
LINE
  8
CSLAYER1
  6
CONTINUOUS
 62
     6
 10
237.141794
 20
253.785384
 11
237.141794
 21
305.785384
  0
CIRCLE
  8
CSLAYER1
  6
CONTINUOUS
 62
     6
 10
221.861094
 20
347.504684
 40
2.500000
  0
LINE
  8
CSLAYER1
  6
CONTINUOUS
 62
     6
 10
297.411193
 20
334.244266
 11
297.411193
 21
277.326509
  0
LINE
  8
CSLAYER1
  6
CONTINUOUS
 62
     6
 10
297.411193
 20
277.326509
 11
298.411041
 21
276.309056
  0
LINE
  8
CSLAYER1
  6
CONTINUOUS
 62
     6
 10
298.411041
 20
276.309056
 11
328.411193
 21
275.785394
  0
LINE
  8
CSLAYER1
  6
CONTINUOUS
 62
     6
 10
328.411193
 20
274.785396
 11
328.411193
 21
336.785396
  0
LINE
  8
CSLAYER1
  6
CONTINUOUS
 62
     6
 10
328.411193
 20
336.785396
 11
429.436506
 21
336.785396
  0
ARC
  8
CSLAYER1
  6
CONTINUOUS
 62
     6
 10
429.436506
 20
341.785396
 40
5.000000
 50
270.000000
 51
331.500000
  0
LINE
  8
CSLAYER1
  6
CONTINUOUS
 62
     6
 10
433.830591
 20
339.399602
 11
440.305279
 21
351.324493
  0
ARC
  8
CSLAYER1
  6
CONTINUOUS
 62
     6
 10
435.911193
 20
353.710286
 40
5.000000
 50
331.500000
 51
360.000000
  0
LINE
  8
CSLAYER1
  6
CONTINUOUS
 62
     6
 10
440.911193
 20
368.785384
 11
440.911193
 21
322.742739
  0
ARC
  8
CSLAYER1
  6
CONTINUOUS
 62
     6
 10
390.911193
 20
322.742739
 40
50.000000
 50
-39.907885
 51
0.000000
  0
LINE
  8
CSLAYER1
  6
CONTINUOUS
 62
     6
 10
429.265037
 20
290.664979
 11
396.810564
 21
251.860718
  0
ARC
  8
CSLAYER1
  6
CONTINUOUS
 62
     6
 10
394.509333
 20
253.785384
 40
3.000000
 50
270.000000
 51
320.092115
  0
LINE
  8
CSLAYER1
  6
CONTINUOUS
 62
     6
 10
394.509333
 20
250.785384
 11
359.911193
 21
250.785384
  0
ARC
  8
CSLAYER1
  6
CONTINUOUS
 62
     6
 10
359.911193
 20
248.785384
 40
2.000000
 50
90.000000
 51
180.000000
  0
LINE
  8
CSLAYER1
  6
CONTINUOUS
 62
     6
 10
357.911193
 20
248.785384
 11
357.911193
 21
235.785384
  0
LINE
  8
CSLAYER1
  6
CONTINUOUS
 62
     6
 10
357.911193
 20
235.785384
 11
487.911193
 21
235.785384
  0
LINE
  8
CSLAYER1
  6
CONTINUOUS
 62
     6
 10
487.911193
 20
235.785384
 11
487.911193
 21
248.785384
  0
ARC
  8
CSLAYER1
  6
CONTINUOUS
 62
     6
 10
485.911193
 20
248.785384
 40
2.000000
 50
0.000000
 51
90.000000
  0
LINE
  8
CSLAYER1
  6
CONTINUOUS
 62
     6
 10
485.911193
 20
250.785384
 11
453.911193
 21
250.785384
  0
ARC
  8
CSLAYER1
  6
CONTINUOUS
 62
     6
 10
453.911193
 20
255.785384
 40
5.000000
 50
180.000000
 51
270.000000
  0
LINE
  8
CSLAYER1
  6
CONTINUOUS
 62
     6
 10
448.911193
 20
255.785384
 11
448.911193
 21
298.368789
  0
LINE
  8
CSLAYER1
  6
CONTINUOUS
 62
     6
 10
425.411193
 20
336.785396
 11
425.411193
 21
286.057123
  0
LINE
  8
CSLAYER1
  6
CONTINUOUS
 62
     6
 10
448.911193
 20
258.785384
 11
457.911193
 21
250.785384
  0
LINE
  8
CSLAYER1
  6
CONTINUOUS
 62
     6
 10
458.911193
 20
250.785384
 11
458.911193
 21
370.785384
  0
LINE
  8
CSLAYER1
  6
CONTINUOUS
 62
     6
 10
458.911193
 20
370.785384
 11
442.911193
 21
370.785384
  0
ARC
  8
CSLAYER1
  6
CONTINUOUS
 62
     6
 10
442.911193
 20
368.785384
 40
2.000000
 50
90.000000
 51
180.000000
  0
LINE
  8
CSLAYER1
  6
CONTINUOUS
 62
     6
 10
450.911193
 20
370.785384
 11
450.911193
 21
257.007606
  0
ARC
  8
CSLAYER1
  6
CONTINUOUS
 62
     6
 10
459.092228
 20
258.997047
 40
0.181034
 50
180.000000
 51
270.000000
  0
LINE
  8
CSLAYER1
  6
CONTINUOUS
 62
     6
 10
459.092228
 20
258.815990
 11
460.178435
 21
258.815990
  0
ARC
  8
CSLAYER1
  6
CONTINUOUS
 62
     6
 10
460.178435
 20
258.997047
 40
0.181034
 50
270.000000
 51
360.000000
  0
LINE
  8
CSLAYER1
  6
CONTINUOUS
 62
     6
 10
460.359469
 20
258.997047
 11
460.359469
 21
269.134933
  0
ARC
  8
CSLAYER1
  6
CONTINUOUS
 62
     6
 10
460.178435
 20
269.134933
 40
0.181034
 50
0.000000
 51
90.000000
  0
LINE
  8
CSLAYER1
  6
CONTINUOUS
 62
     6
 10
460.178435
 20
269.315990
 11
459.092228
 21
269.315990
  0
ARC
  8
CSLAYER1
  6
CONTINUOUS
 62
     6
 10
459.092228
 20
269.134933
 40
0.181034
 50
90.000000
 51
179.942687
  0
ARC
  8
CSLAYER1
  6
CONTINUOUS
 62
     6
 10
460.736035
 20
268.763892
 40
0.373842
 50
85.000257
 51
179.942687
  0
LINE
  8
CSLAYER1
  6
CONTINUOUS
 62
     6
 10
460.768830
 20
269.133585
 11
461.954637
 21
269.031356
  0
ARC
  8
CSLAYER1
  6
CONTINUOUS
 62
     6
 10
461.790553
 20
267.182802
 40
1.869177
 50
16.257182
 51
84.999913
  0
ARC
  8
CSLAYER1
  6
CONTINUOUS
 62
     6
 10
450.945676
 20
264.065990
 40
13.164512
 50
-16.034605
 51
16.029030
  0
ARC
  8
CSLAYER1
  6
CONTINUOUS
 62
     6
 10
461.790553
 20
260.949178
 40
1.869177
 50
275.000127
 51
343.742801
  0
LINE
  8
CSLAYER1
  6
CONTINUOUS
 62
     6
 10
461.954637
 20
259.100624
 11
460.768830
 21
258.998394
  0
ARC
  8
CSLAYER1
  6
CONTINUOUS
 62
     6
 10
460.736035
 20
259.368088
 40
0.373842
 50
179.999982
 51
274.999708
  0
LINE
  8
CSLAYER1
  6
CONTINUOUS
 62
     6
 10
458.911193
 20
263.436126
 11
460.359469
 21
264.239665
  0
LINE
  8
CSLAYER1
  6
CONTINUOUS
 62
     6
 10
460.359469
 20
265.144838
 11
458.911193
 21
264.341298
  0
LINE
  8
CSLAYER1
  6
CONTINUOUS
 62
     6
 10
458.911193
 20
253.285384
 11
493.411193
 21
253.285384
  0
ARC
  8
CSLAYER1
  6
CONTINUOUS
 62
     6
 10
493.411193
 20
257.785384
 40
4.500000
 50
270.000000
 51
360.000000
  0
LINE
  8
CSLAYER1
  6
CONTINUOUS
 62
     6
 10
497.911193
 20
257.785384
 11
497.911193
 21
353.785384
  0
ARC
  8
CSLAYER1
  6
CONTINUOUS
 62
     6
 10
493.411193
 20
353.785384
 40
4.500000
 50
0.000000
 51
90.000000
  0
LINE
  8
CSLAYER1
  6
CONTINUOUS
 62
     6
 10
493.411193
 20
358.285384
 11
458.911193
 21
358.285384
  0
LINE
  8
CSLAYER1
  6
CONTINUOUS
 62
     6
 10
459.092228
 20
352.754590
 11
460.178435
 21
352.754590
  0
ARC
  8
CSLAYER1
  6
CONTINUOUS
 62
     6
 10
460.178435
 20
352.573534
 40
0.181034
 50
0.000000
 51
90.000000
  0
LINE
  8
CSLAYER1
  6
CONTINUOUS
 62
     6
 10
460.359469
 20
352.573534
 11
460.359469
 21
342.435647
  0
ARC
  8
CSLAYER1
  6
CONTINUOUS
 62
     6
 10
460.178435
 20
342.435647
 40
0.181034
 50
270.000000
 51
360.000000
  0
LINE
  8
CSLAYER1
  6
CONTINUOUS
 62
     6
 10
460.178435
 20
342.254590
 11
459.092228
 21
342.254590
  0
ARC
  8
CSLAYER1
  6
CONTINUOUS
 62
     6
 10
459.092228
 20
342.435647
 40
0.181034
 50
180.000000
 51
270.000000
  0
ARC
  8
CSLAYER1
  6
CONTINUOUS
 62
     6
 10
460.736035
 20
342.806688
 40
0.373842
 50
179.999982
 51
274.999708
  0
LINE
  8
CSLAYER1
  6
CONTINUOUS
 62
     6
 10
460.768830
 20
342.436994
 11
461.954637
 21
342.539225
  0
ARC
  8
CSLAYER1
  6
CONTINUOUS
 62
     6
 10
461.790553
 20
344.387779
 40
1.869177
 50
275.000127
 51
343.742801
  0
ARC
  8
CSLAYER1
  6
CONTINUOUS
 62
     6
 10
450.945676
 20
347.504590
 40
13.164512
 50
-16.034605
 51
16.029030
  0
ARC
  8
CSLAYER1
  6
CONTINUOUS
 62
     6
 10
461.790553
 20
350.621402
 40
1.869177
 50
16.257182
 51
84.999913
  0
LINE
  8
CSLAYER1
  6
CONTINUOUS
 62
     6
 10
461.954637
 20
352.469956
 11
460.768830
 21
352.572185
  0
ARC
  8
CSLAYER1
  6
CONTINUOUS
 62
     6
 10
460.736035
 20
352.202493
 40
0.373842
 50
85.000257
 51
179.942687
  0
ARC
  8
CSLAYER1
  6
CONTINUOUS
 62
     6
 10
459.092228
 20
352.573534
 40
0.181034
 50
90.000000
 51
179.942687
  0
LINE
  8
CSLAYER1
  6
CONTINUOUS
 62
     6
 10
460.359469
 20
348.583438
 11
458.911193
 21
347.779898
  0
LINE
  8
CSLAYER1
  6
CONTINUOUS
 62
     6
 10
458.911193
 20
346.874726
 11
460.359469
 21
347.678266
  0
ARC
  8
CSLAYER1
  6
CONTINUOUS
 62
     6
 10
501.911193
 20
338.785384
 40
4.000000
 50
180.000000
 51
270.000000
  0
LINE
  8
CSLAYER1
  6
CONTINUOUS
 62
     6
 10
501.911193
 20
334.785384
 11
520.911193
 21
334.785384
  0
ARC
  8
CSLAYER1
  6
CONTINUOUS
 62
     6
 10
520.911193
 20
330.785384
 40
4.000000
 50
0.000000
 51
90.000000
  0
LINE
  8
CSLAYER1
  6
CONTINUOUS
 62
     6
 10
524.911193
 20
330.785384
 11
524.911193
 21
280.785384
  0
ARC
  8
CSLAYER1
  6
CONTINUOUS
 62
     6
 10
520.911193
 20
280.785384
 40
4.000000
 50
270.000000
 51
360.000000
  0
LINE
  8
CSLAYER1
  6
CONTINUOUS
 62
     6
 10
520.911193
 20
276.785384
 11
501.911193
 21
276.785384
  0
ARC
  8
CSLAYER1
  6
CONTINUOUS
 62
     6
 10
501.911193
 20
272.785384
 40
4.000000
 50
90.000000
 51
180.000000
  0
ARC
  8
CSLAYER1
  6
CONTINUOUS
 62
     6
 10
524.911193
 20
288.785384
 40
1.000000
 50
270.000000
 51
360.000000
  0
LINE
  8
CSLAYER1
  6
CONTINUOUS
 62
     6
 10
525.911193
 20
288.785384
 11
525.911193
 21
322.785384
  0
ARC
  8
CSLAYER1
  6
CONTINUOUS
 62
     6
 10
524.911193
 20
322.785384
 40
1.000000
 50
0.000000
 51
90.000000
  0
LINE
  8
CSLAYER1
  6
CONTINUOUS
 62
     6
 10
525.911193
 20
315.785384
 11
526.911193
 21
315.785384
  0
LINE
  8
CSLAYER1
  6
CONTINUOUS
 62
     6
 10
526.911193
 20
315.785384
 11
526.911193
 21
295.785384
  0
LINE
  8
CSLAYER1
  6
CONTINUOUS
 62
     6
 10
526.911193
 20
295.785384
 11
525.911193
 21
295.785384
  0
LINE
  8
CSLAYER1
  6
CONTINUOUS
 62
     6
 10
526.911193
 20
296.785384
 11
554.911193
 21
296.785384
  0
LINE
  8
CSLAYER1
  6
CONTINUOUS
 62
     6
 10
554.911193
 20
296.785384
 11
554.911193
 21
314.785384
  0
LINE
  8
CSLAYER1
  6
CONTINUOUS
 62
     6
 10
554.911193
 20
314.785384
 11
526.911193
 21
314.785384
  0
ARC
  8
CSLAYER1
  6
CONTINUOUS
 62
     6
 10
532.411193
 20
305.785384
 40
2.500000
 50
90.000000
 51
270.000000
  0
LINE
  8
CSLAYER1
  6
CONTINUOUS
 62
     6
 10
532.411193
 20
303.285384
 11
554.911193
 21
303.285384
  0
LINE
  8
CSLAYER1
  6
CONTINUOUS
 62
     6
 10
554.911193
 20
308.285384
 11
532.411193
 21
308.285384
  0
LINE
  8
CSLAYER1
  6
CONTINUOUS
 62
     6
 10
597.313354
 20
305.785384
 11
597.313354
 21
235.785384
  0
LINE
  8
CSLAYER1
  6
CONTINUOUS
 62
     6
 10
597.313354
 20
235.785384
 11
632.313354
 21
235.785384
  0
LINE
  8
CSLAYER1
  6
CONTINUOUS
 62
     6
 10
632.313354
 20
235.785384
 11
632.313354
 21
241.287322
  0
ARC
  8
CSLAYER1
  6
CONTINUOUS
 62
     6
 10
630.313354
 20
241.287322
 40
2.000000
 50
0.000000
 51
63.612200
  0
ARC
  8
CSLAYER1
  6
CONTINUOUS
 62
     6
 10
662.313354
 20
305.785384
 40
70.000000
 50
231.786789
 51
243.612200
  0
LINE
  8
CSLAYER1
  6
CONTINUOUS
 62
     6
 10
619.012084
 20
250.785384
 11
599.313354
 21
250.785384
  0
ARC
  8
CSLAYER1
  6
CONTINUOUS
 62
     6
 10
599.313354
 20
248.785384
 40
2.000000
 50
90.000000
 51
180.000000
  0
LINE
  8
CSLAYER1
  6
DASHED
 62
     6
 10
602.313354
 20
250.785384
 11
602.313354
 21
235.785384
  0
LINE
  8
CSLAYER1
  6
DASHED
 62
     6
 10
617.313354
 20
235.785384
 11
617.313354
 21
250.785384
  0
ARC
  8
CSLAYER1
  6
CONTINUOUS
 62
     6
 10
615.313354
 20
252.785384
 40
2.000000
 50
180.000000
 51
270.000000
  0
LINE
  8
CSLAYER1
  6
CONTINUOUS
 62
     6
 10
613.313354
 20
252.785384
 11
613.313354
 21
258.785384
  0
ARC
  8
CSLAYER1
  6
CONTINUOUS
 62
     6
 10
620.594047
 20
264.066107
 40
2.916667
 50
163.398416
 51
196.601577
  0
LINE
  8
CSLAYER1
  6
CONTINUOUS
 62
     6
 10
617.798975
 20
264.899451
 11
618.927360
 21
264.899451
  0
ARC
  8
CSLAYER1
  6
CONTINUOUS
 62
     6
 10
618.927360
 20
265.732751
 40
0.833333
 50
-89.999984
 51
0.000005
  0
LINE
  8
CSLAYER1
  6
CONTINUOUS
 62
     6
 10
619.760704
 20
265.732751
 11
619.760704
 21
266.861223
  0
ARC
  8
CSLAYER1
  6
CONTINUOUS
 62
     6
 10
620.594047
 20
264.066107
 40
2.916667
 50
73.398406
 51
106.601595
  0
LINE
  8
CSLAYER1
  6
CONTINUOUS
 62
     6
 10
621.427391
 20
266.861223
 11
621.427391
 21
265.732751
  0
ARC
  8
CSLAYER1
  6
CONTINUOUS
 62
     6
 10
622.260734
 20
265.732751
 40
0.833333
 50
180.000010
 51
270.000016
  0
LINE
  8
CSLAYER1
  6
CONTINUOUS
 62
     6
 10
622.260734
 20
264.899451
 11
623.389119
 21
264.899451
  0
ARC
  8
CSLAYER1
  6
CONTINUOUS
 62
     6
 10
620.594047
 20
264.066107
 40
2.916667
 50
-16.601562
 51
16.601572
  0
LINE
  8
CSLAYER1
  6
CONTINUOUS
 62
     6
 10
623.389119
 20
263.232764
 11
622.260734
 21
263.232764
  0
ARC
  8
CSLAYER1
  6
CONTINUOUS
 62
     6
 10
622.260734
 20
262.399464
 40
0.833333
 50
90.000001
 51
179.942691
  0
LINE
  8
CSLAYER1
  6
CONTINUOUS
 62
     6
 10
621.427391
 20
262.399464
 11
621.427391
 21
261.270992
  0
ARC
  8
CSLAYER1
  6
CONTINUOUS
 62
     6
 10
620.594047
 20
264.066107
 40
2.916667
 50
253.398422
 51
286.601583
  0
LINE
  8
CSLAYER1
  6
CONTINUOUS
 62
     6
 10
619.760704
 20
261.270992
 11
619.760704
 21
262.399464
  0
ARC
  8
CSLAYER1
  6
CONTINUOUS
 62
     6
 10
618.927360
 20
262.399464
 40
0.833333
 50
0.000005
 51
89.942654
  0
LINE
  8
CSLAYER1
  6
CONTINUOUS
 62
     6
 10
618.927360
 20
263.232764
 11
617.798975
 21
263.232764
  0
CIRCLE
  8
CSLAYER1
  6
CONTINUOUS
 62
     6
 10
620.594066
 20
264.066106
 40
5.250000
  0
LINE
  8
CSLAYER1
  6
CONTINUOUS
 62
     6
 10
605.313354
 20
258.785384
 11
605.313354
 21
252.785384
  0
ARC
  8
CSLAYER1
  6
CONTINUOUS
 62
     6
 10
603.313354
 20
252.785384
 40
2.000000
 50
270.000000
 51
360.000000
  0
LINE
  8
CSLAYER1
  6
CONTINUOUS
 62
     6
 10
520.911193
 20
154.785384
 11
501.911193
 21
154.785384
  0
ARC
  8
CSLAYER1
  6
CONTINUOUS
 62
     6
 10
501.911193
 20
158.785384
 40
4.000000
 50
208.875574
 51
270.000000
  0
LINE
  8
CSLAYER1
  6
CONTINUOUS
 62
     6
 10
487.911193
 20
165.785384
 11
487.911193
 21
180.785384
  0
ARC
  8
CSLAYER1
  6
CONTINUOUS
 62
     6
 10
477.911193
 20
180.785384
 40
10.000000
 50
-0.000000
 51
90.000000
  0
LINE
  8
CSLAYER1
  6
CONTINUOUS
 62
     6
 10
477.911193
 20
190.785384
 11
367.911193
 21
190.785384
  0
ARC
  8
CSLAYER1
  6
CONTINUOUS
 62
     6
 10
367.911193
 20
180.785384
 40
10.000000
 50
90.000000
 51
180.000000
  0
LINE
  8
CSLAYER1
  6
CONTINUOUS
 62
     6
 10
357.911193
 20
180.785384
 11
357.911193
 21
165.785384
  0
ARC
  8
CSLAYER1
  6
CONTINUOUS
 62
     6
 10
367.911193
 20
165.785384
 40
10.000000
 50
180.000000
 51
270.000000
  0
LINE
  8
CSLAYER1
  6
CONTINUOUS
 62
     6
 10
367.911193
 20
155.785384
 11
477.911193
 21
155.785384
  0
ARC
  8
CSLAYER1
  6
CONTINUOUS
 62
     6
 10
477.911193
 20
165.785384
 40
10.000000
 50
270.000000
 51
360.000000
  0
LINE
  8
CSLAYER1
  6
CONTINUOUS
 62
     6
 10
487.911193
 20
178.285384
 11
493.411193
 21
178.285384
  0
ARC
  8
CSLAYER1
  6
CONTINUOUS
 62
     6
 10
493.411193
 20
173.785384
 40
4.500000
 50
0.000000
 51
90.000000
  0
LINE
  8
CSLAYER1
  6
CONTINUOUS
 62
     6
 10
497.911193
 20
173.785384
 11
497.911193
 21
77.785384
  0
ARC
  8
CSLAYER1
  6
CONTINUOUS
 62
     6
 10
493.411193
 20
77.785384
 40
4.500000
 50
270.000000
 51
360.000000
  0
LINE
  8
CSLAYER1
  6
CONTINUOUS
 62
     6
 10
493.411193
 20
73.285384
 11
487.911193
 21
73.285384
  0
LINE
  8
CSLAYER1
  6
CONTINUOUS
 62
     6
 10
487.911193
 20
70.785384
 11
487.911193
 21
85.785384
  0
ARC
  8
CSLAYER1
  6
CONTINUOUS
 62
     6
 10
477.911193
 20
85.785384
 40
10.000000
 50
0.000000
 51
90.000000
  0
LINE
  8
CSLAYER1
  6
CONTINUOUS
 62
     6
 10
477.911193
 20
95.785384
 11
367.911193
 21
95.785384
  0
ARC
  8
CSLAYER1
  6
CONTINUOUS
 62
     6
 10
367.911193
 20
85.785384
 40
10.000000
 50
90.000000
 51
180.000000
  0
LINE
  8
CSLAYER1
  6
CONTINUOUS
 62
     6
 10
357.911193
 20
85.785384
 11
357.911193
 21
70.785384
  0
ARC
  8
CSLAYER1
  6
CONTINUOUS
 62
     6
 10
367.911193
 20
70.785384
 40
10.000000
 50
180.000000
 51
270.000000
  0
LINE
  8
CSLAYER1
  6
CONTINUOUS
 62
     6
 10
367.911193
 20
60.785384
 11
477.911193
 21
60.785384
  0
ARC
  8
CSLAYER1
  6
CONTINUOUS
 62
     6
 10
477.911193
 20
70.785384
 40
10.000000
 50
-90.000000
 51
0.000000
  0
ARC
  8
CSLAYER1
  6
CONTINUOUS
 62
     6
 10
467.911193
 20
70.285384
 40
4.500000
 50
-180.000000
 51
0.000000
  0
LINE
  8
CSLAYER1
  6
CONTINUOUS
 62
     6
 10
463.411193
 20
70.285384
 11
463.411193
 21
76.285384
  0
ARC
  8
CSLAYER1
  6
CONTINUOUS
 62
     6
 10
467.911193
 20
76.285384
 40
4.500000
 50
0.000000
 51
180.000000
  0
LINE
  8
CSLAYER1
  6
CONTINUOUS
 62
     6
 10
472.411193
 20
76.285384
 11
472.411193
 21
70.285384
  0
LINE
  8
CSLAYER1
  6
CONTINUOUS
 62
     6
 10
472.411193
 20
73.285384
 11
463.411193
 21
73.285384
  0
LINE
  8
CSLAYER1
  6
CONTINUOUS
 62
     6
 10
455.911193
 20
71.285384
 11
455.911193
 21
85.285384
  0
ARC
  8
CSLAYER1
  6
CONTINUOUS
 62
     6
 10
450.911193
 20
85.285384
 40
5.000000
 50
0.000000
 51
90.000000
  0
LINE
  8
CSLAYER1
  6
CONTINUOUS
 62
     6
 10
450.911193
 20
90.285384
 11
394.911193
 21
90.285384
  0
ARC
  8
CSLAYER1
  6
CONTINUOUS
 62
     6
 10
394.911193
 20
85.285384
 40
5.000000
 50
90.000000
 51
180.000000
  0
LINE
  8
CSLAYER1
  6
CONTINUOUS
 62
     6
 10
389.911193
 20
85.285384
 11
389.911193
 21
71.285384
  0
ARC
  8
CSLAYER1
  6
CONTINUOUS
 62
     6
 10
394.911193
 20
71.285384
 40
5.000000
 50
180.000000
 51
270.000000
  0
LINE
  8
CSLAYER1
  6
CONTINUOUS
 62
     6
 10
394.911193
 20
66.285384
 11
450.911193
 21
66.285384
  0
ARC
  8
CSLAYER1
  6
CONTINUOUS
 62
     6
 10
450.911193
 20
71.285384
 40
5.000000
 50
-90.000000
 51
0.000000
  0
LINE
  8
CSLAYER1
  6
CONTINUOUS
 62
     6
 10
458.911193
 20
95.785384
 11
458.911193
 21
155.785384
  0
LINE
  8
CSLAYER1
  6
CONTINUOUS
 62
     6
 10
450.911193
 20
155.785384
 11
450.911193
 21
95.785384
  0
LINE
  8
CSLAYER1
  6
CONTINUOUS
 62
     6
 10
448.911193
 20
95.785384
 11
448.911193
 21
155.785384
  0
LINE
  8
CSLAYER1
  6
CONTINUOUS
 62
     6
 10
450.911193
 20
161.285384
 11
394.911193
 21
161.285384
  0
ARC
  8
CSLAYER1
  6
CONTINUOUS
 62
     6
 10
394.911193
 20
166.285384
 40
5.000000
 50
180.000000
 51
270.000000
  0
LINE
  8
CSLAYER1
  6
CONTINUOUS
 62
     6
 10
389.911193
 20
166.285384
 11
389.911193
 21
180.285384
  0
ARC
  8
CSLAYER1
  6
CONTINUOUS
 62
     6
 10
394.911193
 20
180.285384
 40
5.000000
 50
90.000000
 51
180.000000
  0
LINE
  8
CSLAYER1
  6
CONTINUOUS
 62
     6
 10
394.911193
 20
185.285384
 11
450.911193
 21
185.285384
  0
ARC
  8
CSLAYER1
  6
CONTINUOUS
 62
     6
 10
450.911193
 20
180.285384
 40
5.000000
 50
-0.000000
 51
90.000000
  0
LINE
  8
CSLAYER1
  6
CONTINUOUS
 62
     6
 10
455.911193
 20
180.285384
 11
455.911193
 21
166.285384
  0
ARC
  8
CSLAYER1
  6
CONTINUOUS
 62
     6
 10
450.911193
 20
166.285384
 40
5.000000
 50
270.000000
 51
360.000000
  0
ARC
  8
CSLAYER1
  6
CONTINUOUS
 62
     6
 10
467.911193
 20
175.285384
 40
4.500000
 50
180.000000
 51
360.000000
  0
LINE
  8
CSLAYER1
  6
CONTINUOUS
 62
     6
 10
472.411193
 20
175.285384
 11
472.411193
 21
181.285384
  0
ARC
  8
CSLAYER1
  6
CONTINUOUS
 62
     6
 10
467.911193
 20
181.285384
 40
4.500000
 50
-0.000000
 51
180.000000
  0
LINE
  8
CSLAYER1
  6
CONTINUOUS
 62
     6
 10
463.411193
 20
181.285384
 11
463.411193
 21
175.285384
  0
LINE
  8
CSLAYER1
  6
CONTINUOUS
 62
     6
 10
463.411193
 20
178.285384
 11
472.411193
 21
178.285384
  0
ARC
  8
CSLAYER1
  6
CONTINUOUS
 62
     6
 10
520.911193
 20
150.785384
 40
4.000000
 50
0.000000
 51
90.000000
  0
LINE
  8
CSLAYER1
  6
CONTINUOUS
 62
     6
 10
524.911193
 20
150.785384
 11
524.911193
 21
100.785384
  0
ARC
  8
CSLAYER1
  6
CONTINUOUS
 62
     6
 10
520.911193
 20
100.785384
 40
4.000000
 50
270.000000
 51
360.000000
  0
LINE
  8
CSLAYER1
  6
CONTINUOUS
 62
     6
 10
520.911193
 20
96.785384
 11
501.911193
 21
96.785384
  0
ARC
  8
CSLAYER1
  6
CONTINUOUS
 62
     6
 10
501.911193
 20
92.785384
 40
4.000000
 50
90.000000
 51
151.124426
  0
ARC
  8
CSLAYER1
  6
CONTINUOUS
 62
     6
 10
524.911193
 20
108.785384
 40
1.000000
 50
270.000000
 51
360.000000
  0
LINE
  8
CSLAYER1
  6
CONTINUOUS
 62
     6
 10
525.911193
 20
108.785384
 11
525.911193
 21
142.785384
  0
ARC
  8
CSLAYER1
  6
CONTINUOUS
 62
     6
 10
524.911193
 20
142.785384
 40
1.000000
 50
0.000000
 51
90.000000
  0
LINE
  8
CSLAYER1
  6
CONTINUOUS
 62
     6
 10
525.911193
 20
135.785384
 11
526.911193
 21
135.785384
  0
LINE
  8
CSLAYER1
  6
CONTINUOUS
 62
     6
 10
526.911193
 20
135.785384
 11
526.911193
 21
115.785384
  0
LINE
  8
CSLAYER1
  6
CONTINUOUS
 62
     6
 10
526.911193
 20
115.785384
 11
525.911193
 21
115.785384
  0
LINE
  8
CSLAYER1
  6
CONTINUOUS
 62
     6
 10
526.911193
 20
116.785384
 11
554.911193
 21
116.785384
  0
LINE
  8
CSLAYER1
  6
CONTINUOUS
 62
     6
 10
554.911193
 20
116.785384
 11
554.911193
 21
134.785384
  0
LINE
  8
CSLAYER1
  6
CONTINUOUS
 62
     6
 10
554.911193
 20
134.785384
 11
526.911193
 21
134.785384
  0
LINE
  8
CSLAYER1
  6
DASHED
 62
     6
 10
472.411193
 20
235.785384
 11
472.411193
 21
250.785384
  0
LINE
  8
CSLAYER1
  6
DASHED
 62
     6
 10
463.411193
 20
250.785384
 11
463.411193
 21
235.785384
  0
LINE
  8
CSLAYER1
  6
DASHED
 62
     6
 10
455.911193
 20
235.785384
 11
455.911193
 21
240.785384
  0
LINE
  8
CSLAYER1
  6
DASHED
 62
     6
 10
455.911193
 20
240.785384
 11
389.911193
 21
240.785384
  0
LINE
  8
CSLAYER1
  6
DASHED
 62
     6
 10
389.911193
 20
240.785384
 11
389.911193
 21
235.785384
  0
LINE
  8
CSLAYER1
  6
DASHED
 62
     6
 10
382.411193
 20
235.785384
 11
382.411193
 21
250.785384
  0
LINE
  8
CSLAYER1
  6
DASHED
 62
     6
 10
373.411193
 20
250.785384
 11
373.411193
 21
235.785384
  0
LINE
  8
CSLAYER1
  6
CONTINUOUS
 62
     6
 10
373.411193
 20
181.285384
 11
373.411193
 21
175.285384
  0
ARC
  8
CSLAYER1
  6
CONTINUOUS
 62
     6
 10
377.911193
 20
175.285384
 40
4.500000
 50
180.000000
 51
360.000000
  0
LINE
  8
CSLAYER1
  6
CONTINUOUS
 62
     6
 10
382.411193
 20
175.285384
 11
382.411193
 21
181.285384
  0
ARC
  8
CSLAYER1
  6
CONTINUOUS
 62
     6
 10
377.911193
 20
181.285384
 40
4.500000
 50
-0.000000
 51
180.000000
  0
ARC
  8
CSLAYER1
  6
CONTINUOUS
 62
     6
 10
372.911193
 20
130.785384
 40
25.000000
 50
0.000000
 51
90.000000
  0
LINE
  8
CSLAYER1
  6
CONTINUOUS
 62
     6
 10
397.911193
 20
130.785384
 11
397.911193
 21
120.785384
  0
ARC
  8
CSLAYER1
  6
CONTINUOUS
 62
     6
 10
372.911193
 20
120.785384
 40
25.000000
 50
270.000000
 51
360.000000
  0
LINE
  8
CSLAYER1
  6
CONTINUOUS
 62
     6
 10
363.552319
 20
94.785396
 11
328.411193
 21
94.785396
  0
LINE
  8
CSLAYER1
  6
CONTINUOUS
 62
     6
 10
328.411193
 20
94.785396
 11
328.411193
 21
156.785396
  0
LINE
  8
CSLAYER1
  6
CONTINUOUS
 62
     6
 10
328.411193
 20
156.785396
 11
363.552270
 21
156.785396
  0
LINE
  8
CSLAYER1
  6
CONTINUOUS
 62
     6
 10
328.411209
 20
155.785379
 11
298.411041
 21
155.261725
  0
LINE
  8
CSLAYER1
  6
CONTINUOUS
 62
     6
 10
298.411041
 20
155.261725
 11
297.411193
 21
154.244273
  0
LINE
  8
CSLAYER1
  6
CONTINUOUS
 62
     6
 10
297.411193
 20
154.244273
 11
297.411193
 21
97.326516
  0
LINE
  8
CSLAYER1
  6
CONTINUOUS
 62
     6
 10
297.411193
 20
97.326516
 11
298.411041
 21
96.309064
  0
LINE
  8
CSLAYER1
  6
CONTINUOUS
 62
     6
 10
298.411041
 20
96.309064
 11
328.411193
 21
95.785402
  0
ARC
  8
CSLAYER1
  6
CONTINUOUS
 62
     6
 10
317.411193
 20
124.685378
 40
1.100006
 50
-90.000027
 51
89.999992
  0
ARC
  8
CSLAYER1
  6
CONTINUOUS
 62
     6
 10
317.411193
 20
126.885390
 40
1.100006
 50
-89.999999
 51
90.000019
  0
LINE
  8
CSLAYER1
  6
CONTINUOUS
 62
     6
 10
317.411193
 20
127.985381
 11
311.977722
 21
127.985381
  0
ARC
  8
CSLAYER1
  6
CONTINUOUS
 62
     6
 10
312.930358
 20
127.435378
 40
1.100006
 50
149.999997
 51
209.999999
  0
ARC
  8
CSLAYER1
  6
CONTINUOUS
 62
     6
 10
312.930358
 20
126.335372
 40
1.100006
 50
149.999997
 51
209.999999
  0
ARC
  8
CSLAYER1
  6
CONTINUOUS
 62
     6
 10
312.930358
 20
125.235366
 40
1.100006
 50
149.999997
 51
209.999999
  0
ARC
  8
CSLAYER1
  6
CONTINUOUS
 62
     6
 10
312.930358
 20
124.135359
 40
1.100006
 50
149.999997
 51
209.999999
  0
ARC
  8
CSLAYER1
  6
CONTINUOUS
 62
     6
 10
311.025085
 20
124.135359
 40
1.100006
 50
-30.000011
 51
29.999977
  0
LINE
  8
CSLAYER1
  6
CONTINUOUS
 62
     6
 10
311.977722
 20
123.585387
 11
317.411193
 21
123.585387
  0
LINE
  8
CSLAYER1
  6
CONTINUOUS
 62
     6
 10
318.511230
 20
124.685378
 11
318.511230
 21
126.885390
  0
LINE
  8
CSLAYER1
  6
CONTINUOUS
 62
     6
 10
317.411193
 20
125.785384
 11
311.977722
 21
125.785384
  0
ARC
  8
CSLAYER1
  6
CONTINUOUS
 62
     6
 10
311.025085
 20
126.335372
 40
1.100006
 50
-30.000011
 51
29.999977
  0
ARC
  8
CSLAYER1
  6
CONTINUOUS
 62
     6
 10
309.386123
 20
126.335417
 40
1.099999
 50
-29.999656
 51
30.000332
  0
ARC
  8
CSLAYER1
  6
CONTINUOUS
 62
     6
 10
311.291366
 20
125.235411
 40
1.099999
 50
150.000353
 51
210.000354
  0
ARC
  8
CSLAYER1
  6
CONTINUOUS
 62
     6
 10
309.386116
 20
125.235396
 40
1.099999
 50
-29.999656
 51
30.000332
  0
LINE
  8
CSLAYER1
  6
CONTINUOUS
 62
     6
 10
310.338745
 20
125.785369
 11
309.065521
 21
125.785369
  0
ARC
  8
CSLAYER1
  6
CONTINUOUS
 62
     6
 10
309.065521
 20
110.026549
 40
15.758816
 50
90.000003
 51
117.463872
  0
LINE
  8
CSLAYER1
  6
CONTINUOUS
 62
     6
 10
301.797729
 20
124.009368
 11
302.812316
 21
122.057311
  0
ARC
  8
CSLAYER1
  6
CONTINUOUS
 62
     6
 10
309.065490
 20
110.026534
 40
13.558834
 50
89.999975
 51
117.463872
  0
LINE
  8
CSLAYER1
  6
CONTINUOUS
 62
     6
 10
309.065551
 20
123.585402
 11
310.338745
 21
123.585402
  0
ARC
  8
CSLAYER1
  6
CONTINUOUS
 62
     6
 10
309.386123
 20
124.135405
 40
1.099999
 50
-29.999656
 51
30.000332
  0
ARC
  8
CSLAYER1
  6
CONTINUOUS
 62
     6
 10
317.411193
 20
125.785384
 40
8.000000
 50
-164.038116
 51
164.037904
  0
ARC
  8
CSLAYER1
  6
CONTINUOUS
 62
     6
 10
311.291366
 20
127.435424
 40
1.099999
 50
150.000353
 51
210.000354
  0
ARC
  8
CSLAYER1
  6
CONTINUOUS
 62
     6
 10
309.386116
 20
127.435408
 40
1.099999
 50
-29.999656
 51
30.000332
  0
LINE
  8
CSLAYER1
  6
CONTINUOUS
 62
     6
 10
310.338745
 20
127.985396
 11
309.065551
 21
127.985396
  0
ARC
  8
CSLAYER1
  6
CONTINUOUS
 62
     6
 10
309.065490
 20
141.544234
 40
13.558834
 50
242.536193
 51
269.942682
  0
LINE
  8
CSLAYER1
  6
CONTINUOUS
 62
     6
 10
302.812377
 20
129.513457
 11
301.797729
 21
127.561400
  0
ARC
  8
CSLAYER1
  6
CONTINUOUS
 62
     6
 10
309.065490
 20
141.544234
 40
15.758816
 50
242.536193
 51
269.942682
  0
LINE
  8
CSLAYER1
  6
CONTINUOUS
 62
     6
 10
302.470581
 20
128.855834
 11
299.532470
 21
130.472991
  0
LINE
  8
CSLAYER1
  6
CONTINUOUS
 62
     6
 10
300.208984
 20
129.943694
 11
302.216430
 21
128.366912
  0
LINE
  8
CSLAYER1
  6
CONTINUOUS
 62
     6
 10
302.009460
 20
127.968779
 11
299.929687
 21
129.370269
  0
LINE
  8
CSLAYER1
  6
CONTINUOUS
 62
     6
 10
302.009460
 20
123.601989
 11
299.929626
 21
122.200484
  0
LINE
  8
CSLAYER1
  6
CONTINUOUS
 62
     6
 10
300.208984
 20
121.627074
 11
302.216430
 21
123.203856
  0
LINE
  8
CSLAYER1
  6
CONTINUOUS
 62
     6
 10
302.470520
 20
122.714934
 11
299.532470
 21
121.097762
  0
LINE
  8
CSLAYER1
  6
CONTINUOUS
 62
     6
 10
298.411193
 20
96.309061
 11
298.411193
 21
155.261728
  0
LINE
  8
CSLAYER1
  6
CONTINUOUS
 62
     6
 10
314.926302
 20
252.177423
 11
316.327791
 21
255.257226
  0
LINE
  8
CSLAYER1
  6
CONTINUOUS
 62
     6
 10
315.929659
 20
255.464181
 11
314.352876
 21
252.456765
  0
LINE
  8
CSLAYER1
  6
CONTINUOUS
 62
     6
 10
313.823580
 20
252.780244
 11
315.440737
 21
255.718316
  0
ARC
  8
CSLAYER1
  6
CONTINUOUS
 62
     6
 10
302.752336
 20
262.313272
 40
13.558834
 50
332.536202
 51
359.942691
  0
ARC
  8
CSLAYER1
  6
CONTINUOUS
 62
     6
 10
316.861170
 20
261.360665
 40
1.099999
 50
60.000350
 51
120.000345
  0
ARC
  8
CSLAYER1
  6
CONTINUOUS
 62
     6
 10
316.861162
 20
263.265924
 40
1.099999
 50
240.000362
 51
300.000350
  0
ARC
  8
CSLAYER1
  6
CONTINUOUS
 62
     6
 10
317.961168
 20
261.360681
 40
1.099999
 50
60.000350
 51
120.000345
  0
ARC
  8
CSLAYER1
  6
CONTINUOUS
 62
     6
 10
332.070024
 20
262.313272
 40
13.558834
 50
179.999978
 51
207.463868
  0
LINE
  8
CSLAYER1
  6
CONTINUOUS
 62
     6
 10
320.039247
 20
256.060098
 11
318.087190
 21
255.045480
  0
ARC
  8
CSLAYER1
  6
CONTINUOUS
 62
     6
 10
332.070024
 20
262.313272
 40
15.758816
 50
202.422068
 51
207.463868
  0
LINE
  8
CSLAYER1
  6
CONTINUOUS
 62
     6
 10
318.494570
 20
255.257226
 11
319.896074
 21
252.177407
  0
LINE
  8
CSLAYER1
  6
CONTINUOUS
 62
     6
 10
320.469484
 20
252.456765
 11
318.892702
 21
255.464166
  0
LINE
  8
CSLAYER1
  6
CONTINUOUS
 62
     6
 10
319.381624
 20
255.718286
 11
320.998796
 21
252.780229
  0
ARC
  8
CSLAYER1
  6
CONTINUOUS
 62
     6
 10
302.752336
 20
262.313272
 40
15.758816
 50
332.536202
 51
359.942691
  0
ARC
  8
CSLAYER1
  6
CONTINUOUS
 62
     6
 10
317.961199
 20
264.272866
 40
1.100006
 50
60.000002
 51
120.000003
  0
ARC
  8
CSLAYER1
  6
CONTINUOUS
 62
     6
 10
317.961199
 20
266.178140
 40
1.100006
 50
240.000007
 51
299.999995
  0
LINE
  8
CSLAYER1
  6
CONTINUOUS
 62
     6
 10
318.511186
 20
265.225503
 11
318.511199
 21
275.958193
  0
LINE
  8
CSLAYER1
  6
CONTINUOUS
 62
     6
 10
316.311202
 20
275.996599
 11
316.311189
 21
265.225503
  0
ARC
  8
CSLAYER1
  6
CONTINUOUS
 62
     6
 10
316.861193
 20
266.178140
 40
1.100006
 50
240.000007
 51
299.999995
  0
LINE
  8
CSLAYER1
  6
CONTINUOUS
 62
     6
 10
314.783113
 20
256.060113
 11
316.735170
 21
255.045495
  0
LINE
  8
CSLAYER1
  6
CONTINUOUS
 62
     6
 10
328.411193
 20
274.785396
 11
414.983930
 21
274.785396
  0
LINE
  8
CSLAYER1
  6
CONTINUOUS
 62
     6
 10
298.411193
 20
276.309053
 11
298.411193
 21
335.261721
  0
LINE
  8
CSLAYER1
  6
CONTINUOUS
 62
     6
 10
298.411048
 20
335.261717
 11
297.411200
 21
334.244264
  0
LINE
  8
CSLAYER1
  6
CONTINUOUS
 62
     6
 10
298.411041
 20
335.261718
 11
328.411209
 21
335.785372
  0
LINE
  8
CSLAYER1
  6
CONTINUOUS
 62
     6
 10
320.161193
 20
306.585390
 11
314.661193
 21
306.585390
  0
LINE
  8
CSLAYER1
  6
CONTINUOUS
 62
     6
 10
314.661193
 20
306.585390
 11
314.661193
 21
304.985384
  0
LINE
  8
CSLAYER1
  6
CONTINUOUS
 62
     6
 10
314.661193
 20
304.985384
 11
320.161193
 21
304.985384
  0
LINE
  8
CSLAYER1
  6
CONTINUOUS
 62
     6
 10
320.161193
 20
304.985384
 11
320.161193
 21
306.585390
  0
CIRCLE
  8
CSLAYER1
  6
CONTINUOUS
 62
     6
 10
317.411193
 20
305.785387
 40
8.000000
  0
CIRCLE
  8
CSLAYER1
  6
CONTINUOUS
 62
     6
 10
317.411193
 20
305.785387
 40
6.000000
  0
LINE
  8
CSLAYER1
  6
CONTINUOUS
 62
     6
 10
367.911193
 20
410.785384
 11
477.911193
 21
410.785384
  0
ARC
  8
CSLAYER1
  6
CONTINUOUS
 62
     6
 10
477.911193
 20
420.785384
 40
10.000000
 50
-90.000000
 51
0.000000
  0
LINE
  8
CSLAYER1
  6
CONTINUOUS
 62
     6
 10
487.911193
 20
420.785384
 11
487.911193
 21
423.285384
  0
ARC
  8
CSLAYER1
  6
CONTINUOUS
 62
     6
 10
493.411193
 20
427.785384
 40
4.500000
 50
270.000000
 51
360.000000
  0
LINE
  8
CSLAYER1
  6
CONTINUOUS
 62
     6
 10
497.911193
 20
427.785384
 11
497.911193
 21
523.785384
  0
ARC
  8
CSLAYER1
  6
CONTINUOUS
 62
     6
 10
493.411193
 20
523.785384
 40
4.500000
 50
0.000000
 51
90.000000
  0
LINE
  8
CSLAYER1
  6
CONTINUOUS
 62
     6
 10
493.411193
 20
528.285384
 11
458.911193
 21
528.285384
  0
LINE
  8
CSLAYER1
  6
CONTINUOUS
 62
     6
 10
463.411193
 20
528.285384
 11
463.411193
 21
531.285384
  0
ARC
  8
CSLAYER1
  6
CONTINUOUS
 62
     6
 10
467.911193
 20
531.285384
 40
4.500000
 50
-0.000000
 51
180.000000
  0
LINE
  8
CSLAYER1
  6
CONTINUOUS
 62
     6
 10
472.411193
 20
531.285384
 11
472.411193
 21
528.285384
  0
ARC
  8
CSLAYER1
  6
CONTINUOUS
 62
     6
 10
450.945676
 20
517.504590
 40
13.164512
 50
-16.034605
 51
16.029030
  0
ARC
  8
CSLAYER1
  6
CONTINUOUS
 62
     6
 10
461.790553
 20
514.387779
 40
1.869177
 50
275.000127
 51
343.742801
  0
LINE
  8
CSLAYER1
  6
CONTINUOUS
 62
     6
 10
461.954637
 20
512.539225
 11
460.768830
 21
512.436994
  0
ARC
  8
CSLAYER1
  6
CONTINUOUS
 62
     6
 10
460.736035
 20
512.806688
 40
0.373842
 50
179.999982
 51
274.999708
  0
LINE
  8
CSLAYER1
  6
CONTINUOUS
 62
     6
 10
460.359469
 20
512.435647
 11
460.359469
 21
522.573534
  0
ARC
  8
CSLAYER1
  6
CONTINUOUS
 62
     6
 10
460.178435
 20
522.573534
 40
0.181034
 50
0.000000
 51
90.000000
  0
LINE
  8
CSLAYER1
  6
CONTINUOUS
 62
     6
 10
460.178435
 20
522.754590
 11
459.092228
 21
522.754590
  0
ARC
  8
CSLAYER1
  6
CONTINUOUS
 62
     6
 10
459.092228
 20
522.573534
 40
0.181034
 50
90.000000
 51
179.942687
  0
ARC
  8
CSLAYER1
  6
CONTINUOUS
 62
     6
 10
460.736035
 20
522.202493
 40
0.373842
 50
85.000257
 51
179.942687
  0
LINE
  8
CSLAYER1
  6
CONTINUOUS
 62
     6
 10
460.768830
 20
522.572185
 11
461.954637
 21
522.469956
  0
ARC
  8
CSLAYER1
  6
CONTINUOUS
 62
     6
 10
461.790553
 20
520.621402
 40
1.869177
 50
16.257182
 51
84.999913
  0
LINE
  8
CSLAYER1
  6
CONTINUOUS
 62
     6
 10
460.359469
 20
518.583438
 11
458.911193
 21
517.779898
  0
LINE
  8
CSLAYER1
  6
CONTINUOUS
 62
     6
 10
458.911193
 20
516.874726
 11
460.359469
 21
517.678266
  0
ARC
  8
CSLAYER1
  6
CONTINUOUS
 62
     6
 10
460.178435
 20
512.435647
 40
0.181034
 50
270.000000
 51
360.000000
  0
LINE
  8
CSLAYER1
  6
CONTINUOUS
 62
     6
 10
460.178435
 20
512.254590
 11
459.092228
 21
512.254590
  0
ARC
  8
CSLAYER1
  6
CONTINUOUS
 62
     6
 10
459.092228
 20
512.435647
 40
0.181034
 50
180.000000
 51
270.000000
  0
LINE
  8
CSLAYER1
  6
CONTINUOUS
 62
     6
 10
440.911193
 20
522.440448
 11
433.688652
 21
509.138181
  0
ARC
  8
CSLAYER1
  6
CONTINUOUS
 62
     6
 10
429.733975
 20
511.285396
 40
4.500000
 50
270.000000
 51
331.500000
  0
LINE
  8
CSLAYER1
  6
CONTINUOUS
 62
     6
 10
429.733975
 20
506.785396
 11
328.411193
 21
506.785396
  0
LINE
  8
CSLAYER1
  6
CONTINUOUS
 62
     6
 10
328.411193
 20
506.785372
 11
328.411193
 21
444.785372
  0
LINE
  8
CSLAYER1
  6
CONTINUOUS
 62
     6
 10
328.411193
 20
444.785372
 11
429.733975
 21
444.785372
  0
ARC
  8
CSLAYER1
  6
CONTINUOUS
 62
     6
 10
429.733975
 20
440.285372
 40
4.500000
 50
28.500000
 51
90.000000
  0
LINE
  8
CSLAYER1
  6
CONTINUOUS
 62
     6
 10
433.688652
 20
442.432587
 11
440.911193
 21
429.130320
  0
LINE
  8
CSLAYER1
  6
CONTINUOUS
 62
     6
 10
440.911193
 20
418.785384
 11
395.911193
 21
418.785384
  0
LINE
  8
CSLAYER1
  6
CONTINUOUS
 62
     6
 10
382.411193
 20
420.285384
 11
382.411193
 21
426.285384
  0
ARC
  8
CSLAYER1
  6
CONTINUOUS
 62
     6
 10
377.911193
 20
426.285384
 40
4.500000
 50
0.000000
 51
180.000000
  0
LINE
  8
CSLAYER1
  6
CONTINUOUS
 62
     6
 10
373.411193
 20
426.285384
 11
373.411193
 21
420.285384
  0
ARC
  8
CSLAYER1
  6
CONTINUOUS
 62
     6
 10
377.911193
 20
420.285384
 40
4.500000
 50
-180.000000
 51
0.000000
  0
ARC
  8
CSLAYER1
  6
CONTINUOUS
 62
     6
 10
367.911193
 20
420.785384
 40
10.000000
 50
180.000000
 51
270.000000
  0
LINE
  8
CSLAYER1
  6
CONTINUOUS
 62
     6
 10
357.911193
 20
420.785384
 11
357.911193
 21
435.785384
  0
ARC
  8
CSLAYER1
  6
CONTINUOUS
 62
     6
 10
367.911193
 20
435.785384
 40
10.000000
 50
115.842087
 51
180.000000
  0
LINE
  8
CSLAYER1
  6
CONTINUOUS
 62
     6
 10
328.411209
 20
445.785387
 11
298.411193
 21
446.309039
  0
LINE
  8
CSLAYER1
  6
CONTINUOUS
 62
     6
 10
298.411193
 20
446.309039
 11
297.411193
 21
447.309039
  0
LINE
  8
CSLAYER1
  6
CONTINUOUS
 62
     6
 10
297.411193
 20
447.309039
 11
297.411193
 21
504.261706
  0
LINE
  8
CSLAYER1
  6
CONTINUOUS
 62
     6
 10
297.411193
 20
504.261706
 11
298.411193
 21
505.261706
  0
LINE
  8
CSLAYER1
  6
CONTINUOUS
 62
     6
 10
298.411193
 20
505.261706
 11
328.411209
 21
505.785357
  0
LINE
  8
CSLAYER1
  6
CONTINUOUS
 62
     6
 10
328.911193
 20
506.785372
 11
424.411193
 21
506.785372
  0
LINE
  8
CSLAYER1
  6
CONTINUOUS
 62
     6
 10
425.411193
 20
506.785372
 11
425.411193
 21
444.785372
  0
ARC
  8
CSLAYER1
  6
CONTINUOUS
 62
     6
 10
459.092228
 20
439.134933
 40
0.181034
 50
90.000000
 51
179.942687
  0
LINE
  8
CSLAYER1
  6
CONTINUOUS
 62
     6
 10
459.092228
 20
439.315990
 11
460.178435
 21
439.315990
  0
ARC
  8
CSLAYER1
  6
CONTINUOUS
 62
     6
 10
460.178435
 20
439.134933
 40
0.181034
 50
0.000000
 51
90.000000
  0
LINE
  8
CSLAYER1
  6
CONTINUOUS
 62
     6
 10
460.359469
 20
439.134933
 11
460.359469
 21
428.997047
  0
ARC
  8
CSLAYER1
  6
CONTINUOUS
 62
     6
 10
460.178435
 20
428.997047
 40
0.181034
 50
270.000000
 51
360.000000
  0
LINE
  8
CSLAYER1
  6
CONTINUOUS
 62
     6
 10
460.178435
 20
428.815990
 11
459.092228
 21
428.815990
  0
ARC
  8
CSLAYER1
  6
CONTINUOUS
 62
     6
 10
459.092228
 20
428.997047
 40
0.181034
 50
180.000000
 51
270.000000
  0
ARC
  8
CSLAYER1
  6
CONTINUOUS
 62
     6
 10
460.736035
 20
429.368088
 40
0.373842
 50
179.999982
 51
274.999708
  0
LINE
  8
CSLAYER1
  6
CONTINUOUS
 62
     6
 10
460.768830
 20
428.998394
 11
461.954637
 21
429.100624
  0
ARC
  8
CSLAYER1
  6
CONTINUOUS
 62
     6
 10
461.790553
 20
430.949178
 40
1.869177
 50
275.000127
 51
343.742801
  0
ARC
  8
CSLAYER1
  6
CONTINUOUS
 62
     6
 10
450.945676
 20
434.065990
 40
13.164512
 50
-16.034605
 51
16.029030
  0
ARC
  8
CSLAYER1
  6
CONTINUOUS
 62
     6
 10
461.790553
 20
437.182802
 40
1.869177
 50
16.257182
 51
84.999913
  0
LINE
  8
CSLAYER1
  6
CONTINUOUS
 62
     6
 10
461.954637
 20
439.031356
 11
460.768830
 21
439.133585
  0
ARC
  8
CSLAYER1
  6
CONTINUOUS
 62
     6
 10
460.736035
 20
438.763892
 40
0.373842
 50
85.000257
 51
179.942687
  0
LINE
  8
CSLAYER1
  6
CONTINUOUS
 62
     6
 10
460.359469
 20
435.144838
 11
458.911193
 21
434.341298
  0
LINE
  8
CSLAYER1
  6
CONTINUOUS
 62
     6
 10
458.911193
 20
433.436126
 11
460.359469
 21
434.239665
  0
LINE
  8
CSLAYER1
  6
CONTINUOUS
 62
     6
 10
458.911193
 20
423.285384
 11
493.411193
 21
423.285384
  0
ARC
  8
CSLAYER1
  6
CONTINUOUS
 62
     6
 10
501.911193
 20
442.785384
 40
4.000000
 50
90.000000
 51
180.000000
  0
LINE
  8
CSLAYER1
  6
CONTINUOUS
 62
     6
 10
501.911193
 20
446.785384
 11
520.911193
 21
446.785384
  0
ARC
  8
CSLAYER1
  6
CONTINUOUS
 62
     6
 10
520.911193
 20
450.785384
 40
4.000000
 50
270.000000
 51
360.000000
  0
LINE
  8
CSLAYER1
  6
CONTINUOUS
 62
     6
 10
524.911193
 20
450.785384
 11
524.911193
 21
500.785384
  0
ARC
  8
CSLAYER1
  6
CONTINUOUS
 62
     6
 10
520.911193
 20
500.785384
 40
4.000000
 50
0.000000
 51
90.000000
  0
LINE
  8
CSLAYER1
  6
CONTINUOUS
 62
     6
 10
520.911193
 20
504.785384
 11
501.911193
 21
504.785384
  0
ARC
  8
CSLAYER1
  6
CONTINUOUS
 62
     6
 10
501.911193
 20
508.785384
 40
4.000000
 50
180.000000
 51
270.000000
  0
LINE
  8
CSLAYER1
  6
CONTINUOUS
 62
     6
 10
487.911193
 20
528.285384
 11
487.911193
 21
530.785384
  0
ARC
  8
CSLAYER1
  6
CONTINUOUS
 62
     6
 10
477.911193
 20
530.785384
 40
10.000000
 50
0.000000
 51
90.000000
  0
LINE
  8
CSLAYER1
  6
CONTINUOUS
 62
     6
 10
477.911193
 20
540.785384
 11
367.911193
 21
540.785384
  0
ARC
  8
CSLAYER1
  6
CONTINUOUS
 62
     6
 10
367.911193
 20
530.785384
 40
10.000000
 50
90.000000
 51
180.000000
  0
LINE
  8
CSLAYER1
  6
CONTINUOUS
 62
     6
 10
357.911193
 20
530.785384
 11
357.911193
 21
515.785384
  0
ARC
  8
CSLAYER1
  6
CONTINUOUS
 62
     6
 10
367.911193
 20
515.785384
 40
10.000000
 50
180.000000
 51
244.158221
  0
ARC
  8
CSLAYER1
  6
CONTINUOUS
 62
     6
 10
377.911193
 20
525.285384
 40
4.500000
 50
180.000000
 51
360.000000
  0
LINE
  8
CSLAYER1
  6
CONTINUOUS
 62
     6
 10
382.411193
 20
525.285384
 11
382.411193
 21
531.285384
  0
ARC
  8
CSLAYER1
  6
CONTINUOUS
 62
     6
 10
377.911193
 20
531.285384
 40
4.500000
 50
-0.000000
 51
180.000000
  0
LINE
  8
CSLAYER1
  6
CONTINUOUS
 62
     6
 10
373.411193
 20
531.285384
 11
373.411193
 21
525.285384
  0
LINE
  8
CSLAYER1
  6
CONTINUOUS
 62
     6
 10
395.911193
 20
532.785384
 11
440.911193
 21
532.785384
  0
LINE
  8
CSLAYER1
  6
CONTINUOUS
 62
     6
 10
440.911193
 20
538.785384
 11
440.911193
 21
412.785384
  0
ARC
  8
CSLAYER1
  6
CONTINUOUS
 62
     6
 10
442.911193
 20
412.785384
 40
2.000000
 50
180.000000
 51
270.000000
  0
LINE
  8
CSLAYER1
  6
CONTINUOUS
 62
     6
 10
450.911193
 20
410.785384
 11
450.911193
 21
540.785384
  0
LINE
  8
CSLAYER1
  6
CONTINUOUS
 62
     6
 10
458.411193
 20
540.785384
 11
458.911193
 21
540.285384
  0
LINE
  8
CSLAYER1
  6
CONTINUOUS
 62
     6
 10
458.911193
 20
540.285384
 11
458.911193
 21
411.285384
  0
LINE
  8
CSLAYER1
  6
CONTINUOUS
 62
     6
 10
458.911193
 20
411.285384
 11
458.411193
 21
410.785384
  0
ARC
  8
CSLAYER1
  6
CONTINUOUS
 62
     6
 10
467.911193
 20
420.285384
 40
4.500000
 50
-180.000000
 51
0.000000
  0
LINE
  8
CSLAYER1
  6
CONTINUOUS
 62
     6
 10
472.411193
 20
420.285384
 11
472.411193
 21
423.285384
  0
LINE
  8
CSLAYER1
  6
CONTINUOUS
 62
     6
 10
463.411193
 20
423.285384
 11
463.411193
 21
420.285384
  0
ARC
  8
CSLAYER1
  6
CONTINUOUS
 62
     6
 10
620.594047
 20
347.504708
 40
2.916667
 50
163.398416
 51
196.601577
  0
LINE
  8
CSLAYER1
  6
CONTINUOUS
 62
     6
 10
617.798975
 20
346.671364
 11
618.927360
 21
346.671364
  0
ARC
  8
CSLAYER1
  6
CONTINUOUS
 62
     6
 10
618.927360
 20
345.838064
 40
0.833333
 50
0.000005
 51
89.942654
  0
LINE
  8
CSLAYER1
  6
CONTINUOUS
 62
     6
 10
619.760704
 20
345.838064
 11
619.760704
 21
344.709592
  0
ARC
  8
CSLAYER1
  6
CONTINUOUS
 62
     6
 10
620.594047
 20
347.504708
 40
2.916667
 50
253.398422
 51
286.601583
  0
LINE
  8
CSLAYER1
  6
CONTINUOUS
 62
     6
 10
621.427391
 20
344.709592
 11
621.427391
 21
345.838064
  0
ARC
  8
CSLAYER1
  6
CONTINUOUS
 62
     6
 10
622.260734
 20
345.838064
 40
0.833333
 50
90.000001
 51
179.942691
  0
LINE
  8
CSLAYER1
  6
CONTINUOUS
 62
     6
 10
622.260734
 20
346.671364
 11
623.389119
 21
346.671364
  0
ARC
  8
CSLAYER1
  6
CONTINUOUS
 62
     6
 10
620.594047
 20
347.504708
 40
2.916667
 50
-16.601562
 51
16.601572
  0
LINE
  8
CSLAYER1
  6
CONTINUOUS
 62
     6
 10
623.389119
 20
348.338051
 11
622.260734
 21
348.338051
  0
ARC
  8
CSLAYER1
  6
CONTINUOUS
 62
     6
 10
622.260734
 20
349.171351
 40
0.833333
 50
180.000010
 51
270.000016
  0
LINE
  8
CSLAYER1
  6
CONTINUOUS
 62
     6
 10
621.427391
 20
349.171351
 11
621.427391
 21
350.299823
  0
ARC
  8
CSLAYER1
  6
CONTINUOUS
 62
     6
 10
620.594047
 20
347.504708
 40
2.916667
 50
73.398406
 51
106.601595
  0
LINE
  8
CSLAYER1
  6
CONTINUOUS
 62
     6
 10
619.760704
 20
350.299823
 11
619.760704
 21
349.171351
  0
ARC
  8
CSLAYER1
  6
CONTINUOUS
 62
     6
 10
618.927360
 20
349.171351
 40
0.833333
 50
-89.999984
 51
0.000005
  0
LINE
  8
CSLAYER1
  6
CONTINUOUS
 62
     6
 10
618.927360
 20
348.338051
 11
617.798975
 21
348.338051
  0
CIRCLE
  8
CSLAYER1
  6
CONTINUOUS
 62
     6
 10
620.594066
 20
347.504707
 40
5.250000
  0
LINE
  8
CSLAYER1
  6
CONTINUOUS
 62
     6
 10
653.637944
 20
308.285384
 11
656.313354
 21
308.285384
  0
LINE
  8
CSLAYER1
  6
CONTINUOUS
 62
     6
 10
656.313354
 20
308.285384
 11
656.313354
 21
303.285384
  0
LINE
  8
CSLAYER1
  6
CONTINUOUS
 62
     6
 10
656.313354
 20
303.285384
 11
653.637944
 21
303.285384
  0
CIRCLE
  8
CSLAYER1
  6
CONTINUOUS
 62
     6
 10
662.313354
 20
305.785384
 40
9.000000
  0
CIRCLE
  8
CSLAYER1
  6
CONTINUOUS
 62
     6
 10
662.313354
 20
305.785384
 40
10.000000
  0
CIRCLE
  8
CSLAYER1
  6
CONTINUOUS
 62
     6
 10
662.313354
 20
305.785384
 40
65.000000
  0
CIRCLE
  8
CSLAYER1
  6
CONTINUOUS
 62
     6
 10
662.313354
 20
305.785384
 40
29.000000
  0
CIRCLE
  8
CSLAYER1
  6
CONTINUOUS
 62
     6
 10
662.313354
 20
305.785384
 40
18.000000
  0
CIRCLE
  8
CSLAYER1
  6
CONTINUOUS
 62
     6
 10
662.313354
 20
305.785384
 40
52.500000
  0
LINE
  8
CSLAYER1
  6
CONTINUOUS
 62
     6
 10
703.199304
 20
344.709592
 11
703.199304
 21
345.838064
  0
ARC
  8
CSLAYER1
  6
CONTINUOUS
 62
     6
 10
702.365960
 20
345.838064
 40
0.833333
 50
0.000005
 51
89.942654
  0
LINE
  8
CSLAYER1
  6
CONTINUOUS
 62
     6
 10
702.365960
 20
346.671364
 11
701.237575
 21
346.671364
  0
ARC
  8
CSLAYER1
  6
CONTINUOUS
 62
     6
 10
704.032647
 20
347.504708
 40
2.916667
 50
163.398416
 51
196.601577
  0
LINE
  8
CSLAYER1
  6
CONTINUOUS
 62
     6
 10
701.237575
 20
348.338051
 11
702.365960
 21
348.338051
  0
ARC
  8
CSLAYER1
  6
CONTINUOUS
 62
     6
 10
702.365960
 20
349.171351
 40
0.833333
 50
-89.999984
 51
0.000005
  0
LINE
  8
CSLAYER1
  6
CONTINUOUS
 62
     6
 10
703.199304
 20
349.171351
 11
703.199304
 21
350.299823
  0
ARC
  8
CSLAYER1
  6
CONTINUOUS
 62
     6
 10
704.032647
 20
347.504708
 40
2.916667
 50
73.398406
 51
106.601595
  0
LINE
  8
CSLAYER1
  6
CONTINUOUS
 62
     6
 10
704.865991
 20
350.299823
 11
704.865991
 21
349.171351
  0
ARC
  8
CSLAYER1
  6
CONTINUOUS
 62
     6
 10
705.699335
 20
349.171351
 40
0.833333
 50
180.000010
 51
270.000016
  0
LINE
  8
CSLAYER1
  6
CONTINUOUS
 62
     6
 10
705.699335
 20
348.338051
 11
706.827719
 21
348.338051
  0
ARC
  8
CSLAYER1
  6
CONTINUOUS
 62
     6
 10
704.032647
 20
347.504708
 40
2.916667
 50
-16.601562
 51
16.601572
  0
LINE
  8
CSLAYER1
  6
CONTINUOUS
 62
     6
 10
706.827719
 20
346.671364
 11
705.699335
 21
346.671364
  0
ARC
  8
CSLAYER1
  6
CONTINUOUS
 62
     6
 10
705.699335
 20
345.838064
 40
0.833333
 50
90.000001
 51
179.942691
  0
LINE
  8
CSLAYER1
  6
CONTINUOUS
 62
     6
 10
704.865991
 20
345.838064
 11
704.865991
 21
344.709592
  0
ARC
  8
CSLAYER1
  6
CONTINUOUS
 62
     6
 10
704.032647
 20
347.504708
 40
2.916667
 50
253.398422
 51
286.601583
  0
CIRCLE
  8
CSLAYER1
  6
CONTINUOUS
 62
     6
 10
704.032667
 20
347.504707
 40
5.250000
  0
LINE
  8
CSLAYER1
  6
CONTINUOUS
 62
     6
 10
727.313354
 20
305.785384
 11
727.313354
 21
235.785384
  0
LINE
  8
CSLAYER1
  6
CONTINUOUS
 62
     6
 10
727.313354
 20
235.785384
 11
692.313354
 21
235.785384
  0
LINE
  8
CSLAYER1
  6
CONTINUOUS
 62
     6
 10
692.313354
 20
235.785384
 11
692.313354
 21
241.287322
  0
ARC
  8
CSLAYER1
  6
CONTINUOUS
 62
     6
 10
694.313354
 20
241.287322
 40
2.000000
 50
116.387800
 51
180.000000
  0
ARC
  8
CSLAYER1
  6
CONTINUOUS
 62
     6
 10
662.313354
 20
305.785384
 40
70.000000
 50
296.387800
 51
308.213211
  0
LINE
  8
CSLAYER1
  6
CONTINUOUS
 62
     6
 10
705.614624
 20
250.785384
 11
725.313354
 21
250.785384
  0
ARC
  8
CSLAYER1
  6
CONTINUOUS
 62
     6
 10
725.313354
 20
248.785384
 40
2.000000
 50
0.000000
 51
90.000000
  0
LINE
  8
CSLAYER1
  6
DASHED
 62
     6
 10
722.313354
 20
250.785384
 11
722.313354
 21
235.785384
  0
LINE
  8
CSLAYER1
  6
DASHED
 62
     6
 10
707.313354
 20
235.785384
 11
707.313354
 21
250.785384
  0
ARC
  8
CSLAYER1
  6
CONTINUOUS
 62
     6
 10
709.313354
 20
252.785384
 40
2.000000
 50
270.000000
 51
360.000000
  0
LINE
  8
CSLAYER1
  6
CONTINUOUS
 62
     6
 10
711.313354
 20
252.785384
 11
711.313354
 21
258.785384
  0
ARC
  8
CSLAYER1
  6
CONTINUOUS
 62
     6
 10
704.032647
 20
264.066107
 40
2.916667
 50
-16.601562
 51
16.601572
  0
LINE
  8
CSLAYER1
  6
CONTINUOUS
 62
     6
 10
706.827719
 20
264.899451
 11
705.699335
 21
264.899451
  0
ARC
  8
CSLAYER1
  6
CONTINUOUS
 62
     6
 10
705.699335
 20
265.732751
 40
0.833333
 50
180.000010
 51
270.000016
  0
LINE
  8
CSLAYER1
  6
CONTINUOUS
 62
     6
 10
704.865991
 20
265.732751
 11
704.865991
 21
266.861223
  0
ARC
  8
CSLAYER1
  6
CONTINUOUS
 62
     6
 10
704.032647
 20
264.066107
 40
2.916667
 50
73.398406
 51
106.601595
  0
LINE
  8
CSLAYER1
  6
CONTINUOUS
 62
     6
 10
703.199304
 20
266.861223
 11
703.199304
 21
265.732751
  0
ARC
  8
CSLAYER1
  6
CONTINUOUS
 62
     6
 10
702.365960
 20
265.732751
 40
0.833333
 50
-89.999984
 51
0.000005
  0
LINE
  8
CSLAYER1
  6
CONTINUOUS
 62
     6
 10
702.365960
 20
264.899451
 11
701.237575
 21
264.899451
  0
ARC
  8
CSLAYER1
  6
CONTINUOUS
 62
     6
 10
704.032647
 20
264.066107
 40
2.916667
 50
163.398416
 51
196.601577
  0
LINE
  8
CSLAYER1
  6
CONTINUOUS
 62
     6
 10
701.237575
 20
263.232764
 11
702.365960
 21
263.232764
  0
ARC
  8
CSLAYER1
  6
CONTINUOUS
 62
     6
 10
702.365960
 20
262.399464
 40
0.833333
 50
0.000005
 51
89.942654
  0
LINE
  8
CSLAYER1
  6
CONTINUOUS
 62
     6
 10
703.199304
 20
262.399464
 11
703.199304
 21
261.270992
  0
ARC
  8
CSLAYER1
  6
CONTINUOUS
 62
     6
 10
704.032647
 20
264.066107
 40
2.916667
 50
253.398422
 51
286.601583
  0
LINE
  8
CSLAYER1
  6
CONTINUOUS
 62
     6
 10
704.865991
 20
261.270992
 11
704.865991
 21
262.399464
  0
ARC
  8
CSLAYER1
  6
CONTINUOUS
 62
     6
 10
705.699335
 20
262.399464
 40
0.833333
 50
90.000001
 51
179.942691
  0
LINE
  8
CSLAYER1
  6
CONTINUOUS
 62
     6
 10
705.699335
 20
263.232764
 11
706.827719
 21
263.232764
  0
CIRCLE
  8
CSLAYER1
  6
CONTINUOUS
 62
     6
 10
704.032667
 20
264.066106
 40
5.250000
  0
LINE
  8
CSLAYER1
  6
CONTINUOUS
 62
     6
 10
719.313354
 20
258.785384
 11
719.313354
 21
252.785384
  0
ARC
  8
CSLAYER1
  6
CONTINUOUS
 62
     6
 10
721.313354
 20
252.785384
 40
2.000000
 50
180.000000
 51
270.000000
  0
ARC
  8
CSLAYER1
  6
CONTINUOUS
 62
     6
 10
690.313354
 20
238.785384
 40
2.000000
 50
0.000000
 51
90.000000
  0
LINE
  8
CSLAYER1
  6
CONTINUOUS
 62
     6
 10
690.313354
 20
240.785384
 11
634.313354
 21
240.785384
  0
ARC
  8
CSLAYER1
  6
CONTINUOUS
 62
     6
 10
634.313354
 20
238.785384
 40
2.000000
 50
90.000000
 51
180.000000
  0
LINE
  8
CSLAYER1
  6
CONTINUOUS
 62
     6
 10
554.911193
 20
466.785384
 11
554.911193
 21
484.785384
  0
LINE
  8
CSLAYER1
  6
CONTINUOUS
 62
     6
 10
554.911193
 20
484.785384
 11
526.911193
 21
484.785384
  0
LINE
  8
CSLAYER1
  6
CONTINUOUS
 62
     6
 10
526.911193
 20
485.785384
 11
526.911193
 21
465.785384
  0
LINE
  8
CSLAYER1
  6
CONTINUOUS
 62
     6
 10
526.911193
 20
465.785384
 11
525.911193
 21
465.785384
  0
LINE
  8
CSLAYER1
  6
CONTINUOUS
 62
     6
 10
526.911193
 20
466.785384
 11
554.911193
 21
466.785384
  0
LINE
  8
CSLAYER1
  6
DASHED
 62
     6
 10
554.911193
 20
469.785384
 11
529.911193
 21
469.785384
  0
LINE
  8
CSLAYER1
  6
DASHED
 62
     6
 10
529.911193
 20
469.785384
 11
529.911193
 21
466.785384
  0
LINE
  8
CSLAYER1
  6
CONTINUOUS
 62
     6
 10
525.911193
 20
458.785384
 11
525.911193
 21
492.785384
  0
ARC
  8
CSLAYER1
  6
CONTINUOUS
 62
     6
 10
524.911193
 20
492.785384
 40
1.000000
 50
0.000000
 51
90.000000
  0
LINE
  8
CSLAYER1
  6
CONTINUOUS
 62
     6
 10
525.911193
 20
485.785384
 11
526.911193
 21
485.785384
  0
ARC
  8
CSLAYER1
  6
CONTINUOUS
 62
     6
 10
524.911193
 20
458.785384
 40
1.000000
 50
270.000000
 51
360.000000
  0
ARC
  8
CSLAYER1
  6
CONTINUOUS
 62
     6
 10
442.911193
 20
538.785384
 40
2.000000
 50
90.000000
 51
180.000000
  0
LINE
  8
CSLAYER1
  6
CONTINUOUS
 62
     6
 10
298.411193
 20
505.261706
 11
298.411193
 21
446.309039
  0
LINE
  8
CSLAYER1
  6
CONTINUOUS
 62
     6
 10
182.641794
 20
360.785384
 11
177.641794
 21
360.785384
  0
LINE
  8
CSLAYER1
  6
CONTINUOUS
 62
     6
 10
177.641794
 20
360.785384
 11
181.391794
 21
359.535384
  0
LINE
  8
CSLAYER1
  6
CONTINUOUS
 62
     6
 10
181.391794
 20
359.535384
 11
181.391794
 21
360.785384
  0
LINE
  8
CSLAYER1
  6
CONTINUOUS
 62
     6
 10
181.391794
 20
360.585384
 11
178.241794
 21
360.585384
  0
LINE
  8
CSLAYER1
  6
CONTINUOUS
 62
     6
 10
178.841794
 20
360.385384
 11
181.391794
 21
360.385384
  0
LINE
  8
CSLAYER1
  6
CONTINUOUS
 62
     6
 10
181.391794
 20
360.185384
 11
179.441794
 21
360.185384
  0
LINE
  8
CSLAYER1
  6
CONTINUOUS
 62
     6
 10
180.041794
 20
359.985384
 11
181.391794
 21
359.985384
  0
LINE
  8
CSLAYER1
  6
CONTINUOUS
 62
     6
 10
181.391794
 20
359.785384
 11
180.641794
 21
359.785384
  0
LINE
  8
CSLAYER1
  6
CONTINUOUS
 62
     6
 10
181.241794
 20
359.585384
 11
181.391794
 21
359.585384
  0
LINE
  8
CSLAYER1
  6
CONTINUOUS
 62
     6
 10
182.041794
 20
360.985384
 11
178.891794
 21
360.985384
  0
LINE
  8
CSLAYER1
  6
CONTINUOUS
 62
     6
 10
178.891794
 20
360.785384
 11
178.891794
 21
362.035384
  0
LINE
  8
CSLAYER1
  6
CONTINUOUS
 62
     6
 10
178.891794
 20
362.035384
 11
182.641794
 21
360.785384
  0
LINE
  8
CSLAYER1
  6
CONTINUOUS
 62
     6
 10
181.441794
 20
361.185384
 11
178.891794
 21
361.185384
  0
LINE
  8
CSLAYER1
  6
CONTINUOUS
 62
     6
 10
178.891794
 20
361.385384
 11
180.841794
 21
361.385384
  0
LINE
  8
CSLAYER1
  6
CONTINUOUS
 62
     6
 10
180.241794
 20
361.585384
 11
178.891794
 21
361.585384
  0
LINE
  8
CSLAYER1
  6
CONTINUOUS
 62
     6
 10
178.891794
 20
361.785384
 11
179.641794
 21
361.785384
  0
LINE
  8
CSLAYER1
  6
CONTINUOUS
 62
     6
 10
179.041794
 20
361.985384
 11
178.891794
 21
361.985384
  0
CIRCLE
  8
CSLAYER1
  6
CONTINUOUS
 62
     6
 10
180.141794
 20
360.785384
 40
2.600000
  0
CIRCLE
  8
CSLAYER1
  6
CONTINUOUS
 62
     6
 10
180.141794
 20
360.785384
 40
2.700000
  0
CIRCLE
  8
CSLAYER1
  6
CONTINUOUS
 62
     6
 10
180.141794
 20
360.785384
 40
2.800000
  0
CIRCLE
  8
CSLAYER1
  6
CONTINUOUS
 62
     6
 10
180.141794
 20
360.785384
 40
2.500000
  0
CIRCLE
  8
CSLAYER1
  6
CONTINUOUS
 62
     6
 10
180.141794
 20
360.785384
 40
2.900000
  0
CIRCLE
  8
CSLAYER1
  6
CONTINUOUS
 62
     6
 10
138.422494
 20
347.504684
 40
2.500000
  0
LINE
  8
CSLAYER1
  6
CONTINUOUS
 62
     6
 10
123.141794
 20
305.785384
 11
123.141794
 21
253.785384
  0
ARC
  8
CSLAYER1
  6
CONTINUOUS
 62
     6
 10
126.141794
 20
253.785384
 40
3.000000
 50
180.000000
 51
270.000000
  0
ARC
  8
CSLAYER1
  6
CONTINUOUS
 62
     6
 10
117.141794
 20
248.785384
 40
2.000000
 50
90.000000
 51
180.000000
  0
LINE
  8
CSLAYER1
  6
DASHED
 62
     6
 10
135.141794
 20
250.785384
 11
135.141794
 21
235.785384
  0
ARC
  8
CSLAYER1
  6
CONTINUOUS
 62
     6
 10
152.141794
 20
238.785384
 40
2.000000
 50
90.000000
 51
180.000000
  0
ARC
  8
CSLAYER1
  6
CONTINUOUS
 62
     6
 10
173.141794
 20
253.785384
 40
3.000000
 50
270.000000
 51
360.000000
  0
LINE
  8
CSLAYER1
  6
CONTINUOUS
 62
     6
 10
176.141794
 20
253.785384
 11
176.141794
 21
272.513759
  0
ARC
  8
CSLAYER1
  6
CONTINUOUS
 62
     6
 10
173.141794
 20
272.513759
 40
3.000000
 50
0.000000
 51
78.118844
  0
LINE
  8
CSLAYER1
  6
CONTINUOUS
 62
     6
 10
177.941793
 20
275.866149
 11
177.941785
 21
265.225503
  0
ARC
  8
CSLAYER1
  6
CONTINUOUS
 62
     6
 10
178.491761
 20
266.178125
 40
1.099999
 50
240.000198
 51
300.000186
  0
ARC
  8
CSLAYER1
  6
CONTINUOUS
 62
     6
 10
179.591760
 20
266.178125
 40
1.099999
 50
240.000198
 51
300.000186
  0
ARC
  8
CSLAYER1
  6
CONTINUOUS
 62
     6
 10
179.591768
 20
264.272882
 40
1.099999
 50
60.000186
 51
120.000181
  0
LINE
  8
CSLAYER1
  6
CONTINUOUS
 62
     6
 10
180.141778
 20
265.225503
 11
180.141794
 21
275.866149
  0
LINE
  8
CSLAYER1
  6
CONTINUOUS
 62
     6
 10
182.341791
 20
275.866149
 11
182.341783
 21
265.225503
  0
ARC
  8
CSLAYER1
  6
CONTINUOUS
 62
     6
 10
181.791795
 20
264.272882
 40
1.099999
 50
59.999858
 51
119.999853
  0
ARC
  8
CSLAYER1
  6
CONTINUOUS
 62
     6
 10
181.791803
 20
266.178125
 40
1.099999
 50
239.999870
 51
299.999858
  0
ARC
  8
CSLAYER1
  6
CONTINUOUS
 62
     6
 10
180.691804
 20
266.178125
 40
1.099999
 50
239.999870
 51
299.999858
  0
ARC
  8
CSLAYER1
  6
CONTINUOUS
 62
     6
 10
179.591781
 20
261.360672
 40
1.099999
 50
60.000350
 51
120.000345
  0
ARC
  8
CSLAYER1
  6
CONTINUOUS
 62
     6
 10
178.491771
 20
263.265914
 40
1.099999
 50
240.000362
 51
300.000350
  0
ARC
  8
CSLAYER1
  6
CONTINUOUS
 62
     6
 10
164.382824
 20
262.313183
 40
13.558951
 50
-27.463363
 51
0.000417
  0
LINE
  8
CSLAYER1
  6
CONTINUOUS
 62
     6
 10
176.413762
 20
256.060048
 11
178.365806
 21
255.045434
  0
ARC
  8
CSLAYER1
  6
CONTINUOUS
 62
     6
 10
164.382824
 20
262.313183
 40
15.758933
 50
-27.463461
 51
0.000397
  0
ARC
  8
CSLAYER1
  6
CONTINUOUS
 62
     6
 10
180.691795
 20
263.265914
 40
1.099999
 50
239.999733
 51
299.999721
  0
ARC
  8
CSLAYER1
  6
CONTINUOUS
 62
     6
 10
180.691787
 20
261.360656
 40
1.099999
 50
59.999715
 51
119.999716
  0
ARC
  8
CSLAYER1
  6
CONTINUOUS
 62
     6
 10
195.900808
 20
262.313356
 40
15.759004
 50
180.000235
 51
207.463987
  0
LINE
  8
CSLAYER1
  6
CONTINUOUS
 62
     6
 10
181.917829
 20
255.045448
 11
183.869878
 21
256.060066
  0
ARC
  8
CSLAYER1
  6
CONTINUOUS
 62
     6
 10
195.900808
 20
262.313356
 40
13.559023
 50
180.000308
 51
207.464006
  0
ARC
  8
CSLAYER1
  6
CONTINUOUS
 62
     6
 10
181.791786
 20
261.360641
 40
1.099999
 50
59.999715
 51
119.999716
  0
ARC
  8
CSLAYER1
  6
CONTINUOUS
 62
     6
 10
178.491782
 20
261.360656
 40
1.099999
 50
60.000350
 51
120.000345
  0
LINE
  8
CSLAYER1
  6
CONTINUOUS
 62
     6
 10
176.901743
 20
255.806410
 11
175.124900
 21
252.785411
  0
LINE
  8
CSLAYER1
  6
CONTINUOUS
 62
     6
 10
175.775583
 20
252.447205
 11
177.389759
 21
255.552763
  0
LINE
  8
CSLAYER1
  6
CONTINUOUS
 62
     6
 10
177.877772
 20
255.299110
 11
176.426266
 21
252.108999
  0
LINE
  8
CSLAYER1
  6
CONTINUOUS
 62
     6
 10
182.405837
 20
255.299111
 11
183.857344
 21
252.109001
  0
LINE
  8
CSLAYER1
  6
CONTINUOUS
 62
     6
 10
184.508027
 20
252.447207
 11
182.893850
 21
255.552764
  0
LINE
  8
CSLAYER1
  6
CONTINUOUS
 62
     6
 10
183.381866
 20
255.806412
 11
185.158711
 21
252.785413
  0
LINE
  8
CSLAYER1
  6
CONTINUOUS
 62
     6
 10
184.141794
 20
253.785384
 11
184.141794
 21
272.513759
  0
ARC
  8
CSLAYER1
  6
CONTINUOUS
 62
     6
 10
187.141794
 20
272.513759
 40
3.000000
 50
101.881156
 51
180.000000
  0
ARC
  8
CSLAYER1
  6
CONTINUOUS
 62
     6
 10
180.141794
 20
305.785369
 40
31.000000
 50
-85.930446
 51
265.930412
  0
ARC
  8
CSLAYER1
  6
CONTINUOUS
 62
     6
 10
161.564951
 20
277.309046
 40
3.000000
 50
56.881137
 51
135.000000
  0
LINE
  8
CSLAYER1
  6
CONTINUOUS
 62
     6
 10
159.443631
 20
279.430367
 11
147.250921
 21
267.237657
  0
ARC
  8
CSLAYER1
  6
CONTINUOUS
 62
     6
 10
149.372241
 20
265.116336
 40
3.000000
 50
135.000000
 51
185.478804
  0
ARC
  8
CSLAYER1
  6
CONTINUOUS
 62
     6
 10
138.422494
 20
264.066084
 40
8.000000
 50
-275.478804
 51
5.478804
  0
ARC
  8
CSLAYER1
  6
CONTINUOUS
 62
     6
 10
139.472746
 20
275.015831
 40
3.000000
 50
264.521196
 51
315.000000
  0
LINE
  8
CSLAYER1
  6
CONTINUOUS
 62
     6
 10
141.594066
 20
272.894511
 11
153.786780
 21
285.087224
  0
ARC
  8
CSLAYER1
  6
CONTINUOUS
 62
     6
 10
151.665459
 20
287.208545
 40
3.000000
 50
-45.000000
 51
33.118825
  0
CIRCLE
  8
CSLAYER1
  6
CONTINUOUS
 62
     6
 10
138.422494
 20
264.066084
 40
2.500000
  0
CIRCLE
  8
CSLAYER1
  6
CONTINUOUS
 62
     6
 10
138.422493
 20
264.066084
 40
4.000000
  0
ARC
  8
CSLAYER1
  6
CONTINUOUS
 62
     6
 10
187.141794
 20
253.785384
 40
3.000000
 50
180.000000
 51
270.000000
  0
LINE
  8
CSLAYER1
  6
CONTINUOUS
 62
     6
 10
210.141794
 20
248.785384
 11
210.141794
 21
235.785384
  0
ARC
  8
CSLAYER1
  6
CONTINUOUS
 62
     6
 10
212.141794
 20
248.785384
 40
2.000000
 50
90.000000
 51
180.000000
  0
ARC
  8
CSLAYER1
  6
CONTINUOUS
 62
     6
 10
221.861094
 20
264.066084
 40
8.000000
 50
-185.478804
 51
95.478804
  0
ARC
  8
CSLAYER1
  6
CONTINUOUS
 62
     6
 10
220.810841
 20
275.015831
 40
3.000000
 50
225.000000
 51
275.478804
  0
LINE
  8
CSLAYER1
  6
CONTINUOUS
 62
     6
 10
218.689521
 20
272.894511
 11
206.496807
 21
285.087224
  0
ARC
  8
CSLAYER1
  6
CONTINUOUS
 62
     6
 10
208.618128
 20
287.208545
 40
3.000000
 50
146.881175
 51
225.000000
  0
LINE
  8
CSLAYER1
  6
CONTINUOUS
 62
     6
 10
200.839956
 20
279.430367
 11
213.032666
 21
267.237657
  0
ARC
  8
CSLAYER1
  6
CONTINUOUS
 62
     6
 10
210.911346
 20
265.116336
 40
3.000000
 50
-5.478804
 51
45.000000
  0
CIRCLE
  8
CSLAYER1
  6
CONTINUOUS
 62
     6
 10
221.861094
 20
264.066084
 40
2.500000
  0
CIRCLE
  8
CSLAYER1
  6
CONTINUOUS
 62
     6
 10
221.861094
 20
264.066084
 40
4.000000
  0
ARC
  8
CSLAYER1
  6
CONTINUOUS
 62
     6
 10
198.718636
 20
277.309046
 40
3.000000
 50
45.000000
 51
123.118863
  0
LINE
  8
CSLAYER1
  6
CONTINUOUS
 62
     6
 10
183.550874
 20
302.376281
 11
183.592569
 21
305.785369
  0
LINE
  8
CSLAYER1
  6
CONTINUOUS
 62
     6
 10
183.592569
 20
305.785369
 11
186.959970
 21
305.785369
  0
LINE
  8
CSLAYER1
  6
CONTINUOUS
 62
     6
 10
186.959962
 20
305.785371
 11
176.732698
 21
309.194457
  0
LINE
  8
CSLAYER1
  6
CONTINUOUS
 62
     6
 10
176.732698
 20
309.194457
 11
176.755834
 21
305.785369
  0
LINE
  8
CSLAYER1
  6
CONTINUOUS
 62
     6
 10
176.755834
 20
305.785369
 11
173.323606
 21
305.785369
  0
LINE
  8
CSLAYER1
  6
CONTINUOUS
 62
     6
 10
173.323606
 20
305.785369
 11
183.550874
 21
302.376281
  0
CIRCLE
  8
CSLAYER1
  6
CONTINUOUS
 62
     6
 10
180.141794
 20
305.785369
 40
30.000000
  0
CIRCLE
  8
CSLAYER1
  6
CONTINUOUS
 62
     6
 10
180.141786
 20
305.785369
 40
6.818180
  0
CIRCLE
  8
CSLAYER1
  6
CONTINUOUS
 62
     6
 10
180.141786
 20
305.785369
 40
7.909089
  0
CIRCLE
  8
CSLAYER1
  6
CONTINUOUS
 62
     6
 10
180.141786
 20
305.785369
 40
16.000000
  0
CIRCLE
  8
CSLAYER1
  6
CONTINUOUS
 62
     6
 10
180.141786
 20
305.785369
 40
17.000000
  0
LINE
  8
CSLAYER1
  6
CONTINUOUS
 62
     6
 10
176.755834
 20
305.785369
 11
176.755834
 21
305.785384
  0
ARC
  8
CSLAYER1
  6
CONTINUOUS
 62
     6
 10
377.911193
 20
76.285384
 40
4.500000
 50
0.000000
 51
180.000000
  0
LINE
  8
CSLAYER1
  6
CONTINUOUS
 62
     6
 10
382.411193
 20
76.285384
 11
382.411193
 21
70.285384
  0
ARC
  8
CSLAYER1
  6
CONTINUOUS
 62
     6
 10
377.911193
 20
70.285384
 40
4.500000
 50
-180.000000
 51
0.000000
  0
LINE
  8
CSLAYER1
  6
CONTINUOUS
 62
     6
 10
373.411193
 20
70.285384
 11
373.411193
 21
76.285384
  0
TEXT
  8
CSLAYER1
 62
     6
 10
165.308975
 20
303.817261
 40
3.409090
 41
1.200000
  1
S
 50
282.000000
 51
3.000000
  7
JX_FONT
 72
     5
 11
165.876007
 21
301.149586
  0
TEXT
  8
CSLAYER1
 62
     6
 10
166.042297
 20
300.776367
 40
3.409090
 41
1.200000
  1
A
 50
294.000031
 51
3.000000
  7
JX_FONT
 72
     5
 11
167.151580
 21
298.284881
  0
TEXT
  8
CSLAYER1
 62
     6
 10
167.391846
 20
297.954407
 40
3.409090
 41
1.596000
  1
W
 50
306.000031
 51
3.000000
  7
JX_FONT
 72
     5
 11
169.523904
 21
295.019883
  0
TEXT
  8
CSLAYER1
 62
     6
 10
169.298599
 20
295.474670
 40
3.409090
 41
1.200000
  1
A
 50
318.000000
 51
3.000000
  7
JX_FONT
 72
     5
 11
171.325357
 21
293.649769
  0
TEXT
  8
CSLAYER1
 62
     6
 10
171.679260
 20
293.445557
 40
3.409090
 41
1.200000
  1
M
 50
330.000000
 51
3.000000
  7
JX_FONT
 72
     5
 11
174.041147
 21
292.081921
  0
TEXT
  8
CSLAYER1
 62
     6
 10
174.429764
 20
291.955750
 40
3.409090
 41
1.200000
  1
U
 50
342.000000
 51
3.000000
  7
JX_FONT
 72
     5
 11
177.023554
 21
291.112976
  0
TEXT
  8
CSLAYER1
 62
     6
 10
177.429916
 20
291.070374
 40
3.409090
 41
1.200000
  1
R
 50
353.999969
 51
3.000000
  7
JX_FONT
 72
     5
 11
180.142248
 21
290.785295
  0
TEXT
  8
CSLAYER1
 62
     6
 10
180.548615
 20
290.828125
 40
3.409090
 41
1.200000
  1
A
 50
6.000000
 51
3.000000
  7
JX_FONT
 72
     5
 11
183.260946
 21
291.113203
  0
TEXT
  8
CSLAYER1
 62
     6
 10
193.298523
 20
298.659119
 40
3.409090
 41
1.200000
  1
K
 50
66.000046
 51
3.000000
  7
JX_FONT
 72
     5
 11
194.407802
 21
301.150607
  0
TEXT
  8
CSLAYER1
 62
     6
 10
194.492645
 20
301.550232
 40
3.409090
 41
0.792000
  1
I
 50
78.000000
 51
3.000000
  7
JX_FONT
 72
     5
 11
194.866886
 21
303.310897
  0
TEXT
  8
CSLAYER1
 62
     6
 10
186.597107
 20
292.286743
 40
3.409090
 41
1.200000
  1
D
 50
30.000032
 51
3.000000
  7
JX_FONT
 72
     5
 11
188.958993
 21
293.650381
  0
TEXT
  8
CSLAYER1
 62
     6
 10
189.262558
 20
293.923828
 40
3.409090
 41
1.200000
  1
E
 50
41.999962
 51
3.000000
  7
JX_FONT
 72
     5
 11
191.289317
 21
295.748728
  0
TEXT
  8
CSLAYER1
 62
     6
 10
191.529388
 20
296.079407
 40
3.409090
 41
1.200000
  1
N
 50
54.000061
 51
3.000000
  7
JX_FONT
 72
     5
 11
193.132436
 21
298.285818
  0
TEXT
  8
CSLAYER1
 62
     6
 10
165.223923
 20
306.944092
 40
3.410000
 41
1.200000
  1
*
 50
-90.000000
 51
3.000000
  7
JX_FONT
 72
     5
 11
165.223923
 21
304.216092
  0
TEXT
  8
CSLAYER1
 62
     6
 10
185.853821
 20
319.614929
 40
3.409090
 41
1.200000
  1
U
 50
162.000000
 51
3.000000
  7
JX_FONT
 72
     5
 11
183.260031
 21
320.457703
  0
TEXT
  8
CSLAYER1
 62
     6
 10
182.853668
 20
320.500305
 40
3.409090
 41
1.200000
  1
R
 50
173.999985
 51
3.000000
  7
JX_FONT
 72
     5
 11
180.141337
 21
320.785383
  0
TEXT
  8
CSLAYER1
 62
     6
 10
179.734985
 20
320.742615
 40
3.409090
 41
1.200000
  1
A
 50
186.000015
 51
3.000000
  7
JX_FONT
 72
     5
 11
177.022654
 21
320.457536
  0
TEXT
  8
CSLAYER1
 62
     6
 10
166.985062
 20
312.911621
 40
3.409090
 41
1.200000
  1
K
 50
246.000061
 51
3.000000
  7
JX_FONT
 72
     5
 11
165.875783
 21
310.420133
  0
TEXT
  8
CSLAYER1
 62
     6
 10
165.790939
 20
310.020508
 40
3.409090
 41
0.792000
  1
I
 50
258.000000
 51
3.000000
  7
JX_FONT
 72
     5
 11
165.416698
 21
308.259843
  0
TEXT
  8
CSLAYER1
 62
     6
 10
173.686478
 20
319.283997
 40
3.409090
 41
1.200000
  1
D
 50
210.000046
 51
3.000000
  7
JX_FONT
 72
     5
 11
171.324592
 21
317.920359
  0
TEXT
  8
CSLAYER1
 62
     6
 10
171.021042
 20
317.646912
 40
3.409090
 41
1.200000
  1
E
 50
221.999969
 51
3.000000
  7
JX_FONT
 72
     5
 11
168.994283
 21
315.822012
  0
TEXT
  8
CSLAYER1
 62
     6
 10
168.754211
 20
315.491333
 40
3.409090
 41
1.200000
  1
N
 50
234.000061
 51
3.000000
  7
JX_FONT
 72
     5
 11
167.151163
 21
313.284922
  0
TEXT
  8
CSLAYER1
 62
     6
 10
194.974609
 20
307.753418
 40
3.409090
 41
1.200000
  1
S
 50
102.000000
 51
3.000000
  7
JX_FONT
 72
     5
 11
194.407578
 21
310.421093
  0
TEXT
  8
CSLAYER1
 62
     6
 10
194.241302
 20
310.794312
 40
3.409090
 41
1.200000
  1
A
 50
114.000046
 51
3.000000
  7
JX_FONT
 72
     5
 11
193.132019
 21
313.285798
  0
TEXT
  8
CSLAYER1
 62
     6
 10
192.891754
 20
313.616333
 40
3.409090
 41
1.596000
  1
W
 50
126.000038
 51
3.000000
  7
JX_FONT
 72
     5
 11
190.759695
 21
316.550856
  0
TEXT
  8
CSLAYER1
 62
     6
 10
190.984985
 20
316.096069
 40
3.409090
 41
1.200000
  1
A
 50
138.000031
 51
3.000000
  7
JX_FONT
 72
     5
 11
188.958226
 21
317.920969
  0
TEXT
  8
CSLAYER1
 62
     6
 10
188.604324
 20
318.125183
 40
3.409090
 41
1.200000
  1
M
 50
150.000015
 51
3.000000
  7
JX_FONT
 72
     5
 11
186.242437
 21
319.488818
  0
TEXT
  8
CSLAYER1
 62
     6
 10
195.059662
 20
304.626648
 40
3.410000
 41
1.200000
  1
*
 50
90.000000
 51
3.000000
  7
JX_FONT
 72
     5
 11
195.059662
 21
307.354648
  0
ENDSEC
  0
EOF
