  0
SECTION
  2
HEADER
  9
$ACADVER
  1
AC1006
  9
$INSBASE
 10
0.000000
 20
0.000000
 30
0.0
  9
$EXTMIN
 10
0.000000
 20
0.000000
  9
$EXTMAX
 10
841.000000
 20
594.000000
  9
$LIMMIN
 10
0.000000
 20
0.000000
  9
$LIMMAX
 10
841.000000
 20
594.000000
  9
$VIEWCTR
 10
420.500000
 20
297.000000
  9
$VIEWSIZE
 40
594.000000
  9
$SNAPMODE
 70
     0
  9
$SNAPUNIT
 10
1.0
 20
1.0
  9
$SNAPBASE
 10
0.0
 20
0.0
  9
$SNAPANG
 50
0.0
  9
$SNAPSTYLE
 70
     0
  9
$SNAPISOPAIR
 70
     0
  9
$GRIDMODE
 70
     0
  9
$GRIDUNIT
 10
0.0
 20
0.0
  9
$ORTHOMODE
 70
     0
  9
$REGENMODE
 70
     1
  9
$FILLMODE
 70
     1
  9
$QTEXTMODE
 70
     0
  9
$DRAGMODE
 70
     2
  9
$LTSCALE
 40
15.000000
  9
$OSMODE
 70
     0
  9
$ATTMODE
 70
     1
  9
$TEXTSIZE
 40
0.2
  9
$TRACEWID
 40
0.05
  9
$TEXTSTYLE
  7
STANDARD
  9
$CLAYER
  8
CSLAYER1
  9
$CELTYPE
  6
BYLAYER
  9
$CECOLOR
 62
   256
  9
$DIMSCALE
 40
1.0
  9
$DIMASZ
 40
0.18
  9
$DIMEXO
 40
0.0625
  9
$DIMDLI
 40
0.38
  9
$DIMRND
 40
0.0
  9
$DIMDLE
 40
0.0
  9
$DIMEXE
 40
0.18
  9
$DIMTP
 40
0.0
  9
$DIMTM
 40
0.0
  9
$DIMTXT
 40
0.18
  9
$DIMCEN
 40
0.09
  9
$DIMTSZ
 40
0.0
  9
$DIMTOL
 70
     0
  9
$DIMLIM
 70
     0
  9
$DIMTIH
 70
     1
  9
$DIMTOH
 70
     1
  9
$DIMSE1
 70
     0
  9
$DIMSE2
 70
     0
  9
$DIMTAD
 70
     0
  9
$DIMZIN
 70
     0
  9
$DIMBLK
  1

  9
$LUNITS
 70
     2
  9
$LUPREC
 70
     4
  9
$AXISMODE
 70
     0
  9
$AXISUNIT
 10
0.0
 20
0.0
  9
$SKETCHINC
 40
0.1
  9
$FILLETRAD
 40
0.0
  9
$AUNITS
 70
     0
  9
$AUPREC
 70
     0
  9
$MENU
  1
ACAD
  9
$ELEVATION
 40
0.0
  9
$THICKNESS
 40
0.0
  9
$VIEWDIR
 10
0.0
 20
0.0
 30
1.0
  9
$LIMCHECK
 70
     0
  9
$BLIPMODE
 70
     1
  9
$CHAMFERA
 40
0.0
  9
$CHAMFERB
 40
0.0
  9
$FASTZOOM
 70
     1
  9
$SKPOLY
 70
     0
  9
$TDCREATE
 40
0.000000
  9
$TDUPDATE
 40
0.000000
  9
$TDINDWG
 40
0.0
  9
$TDUSRTIMER
 40
0.0
  9
$USRTIMER
 70
     1
  9
$ANGBASE
 50
0.0
  9
$ANGDIR
 70
     0
  9
$PDMODE
 70
     0
  9
$PDSIZE
 40
0.0
  9
$PLINEWID
 40
0.0
  9
$COORDS
 70
     0
  9
$USERI1
 70
     0
  9
$USERI2
 70
     0
  9
$USERI3
 70
     0
  9
$USERI4
 70
     0
  9
$USERI5
 70
     0
  9
$USERR1
 40
0.0
  9
$USERR2
 40
0.0
  9
$USERR3
 40
0.0
  9
$USERR4
 40
0.0
  9
$USERR5
 40
0.0
  0
ENDSEC
  0
SECTION
  2
TABLES
  0
TABLE
  2
LTYPE
 70
     9
  0
LTYPE
  2
CONTINUOUS
 70
    64
  3
Solid line
 72
    65
 73
     0
 40
0.0
  0
LTYPE
  2
DASHED
 70
    64
  3
__ __ __ __ __ __ __ __ __ __ __ __ __ __ __
 72
    65
 73
     2
 40
0.75
 49
0.5
 49
-0.25
  0
LTYPE
  2
HIDDEN
 70
    64
  3
_ _ _ _ _ _ _ _ _ _ _ _ _ _ _ _ _ _ _ _ _ _ _
 72
    65
 73
     2
 40
0.375
 49
0.25
 49
-0.125
  0
LTYPE
  2
DOT
 70
    64
  3
...............................................
 72
    65
 73
     2
 40
0.25
 49
0.0
 49
-0.25
  0
LTYPE
  2
DASHDOT
 70
    64
  3
__ . __ . __ . __ . __ . __ . __ . __ . __ . __
 72
    65
 73
     4
 40
1.0
 49
0.5
 49
-0.25
 49
0.0
 49
-0.25
  0
LTYPE
  2
DIVIDE
 70
    64
  3
__ . . __ . . __ . . __ . . __ . . __ . . __
 72
    65
 73
     6
 40
1.25
 49
0.5
 49
-0.25
 49
0.0
 49
-0.25
 49
0.0
 49
-0.25
  0
LTYPE
  2
CENTER
 70
    64
  3
____ _ ____ _ ____ _ ____ _ ____ _ ____ _ ____ 
 72
    65
 73
     4
 40
2.0
 49
1.25
 49
-0.25
 49
0.25
 49
-0.25
  0
LTYPE
  2
PHANTOM
 70
    64
  3
______  __  __  ______  __  __  ______  __  __ 
 72
    65
 73
     6
 40
2.5
 49
1.25
 49
-0.25
 49
0.25
 49
-0.25
 49
0.25
 49
-0.25
  0
LTYPE
  2
BORDER
 70
    64
  3
__ __ . __ __ . __ __ . __ __ . __ __ . __ __ .
 72
    65
 73
     6
 40
1.75
 49
0.5
 49
-0.25
 49
0.5
 49
-0.25
 49
0.0
 49
-0.25
  0
ENDTAB
  0
TABLE
  2
LAYER
 70
    16
  0
LAYER
  2
CSLAYER1
 70
    64
 62
     7
  6
CONTINUOUS
  0
LAYER
  2
CSLAYER2
 70
    64
 62
     7
  6
CONTINUOUS
  0
LAYER
  2
CSLAYER3
 70
    64
 62
     7
  6
CONTINUOUS
  0
LAYER
  2
CSLAYER4
 70
    64
 62
     7
  6
CONTINUOUS
  0
LAYER
  2
CSLAYER5
 70
    64
 62
     7
  6
CONTINUOUS
  0
LAYER
  2
CSLAYER6
 70
    64
 62
     7
  6
CONTINUOUS
  0
LAYER
  2
CSLAYER7
 70
    64
 62
     7
  6
CONTINUOUS
  0
LAYER
  2
CSLAYER8
 70
    64
 62
     7
  6
CONTINUOUS
  0
LAYER
  2
CSLAYER9
 70
    64
 62
     7
  6
CONTINUOUS
  0
LAYER
  2
CSLAYER10
 70
    64
 62
     7
  6
CONTINUOUS
  0
LAYER
  2
CSLAYER11
 70
    64
 62
     7
  6
CONTINUOUS
  0
LAYER
  2
CSLAYER12
 70
    64
 62
     7
  6
CONTINUOUS
  0
LAYER
  2
CSLAYER13
 70
    64
 62
     7
  6
CONTINUOUS
  0
LAYER
  2
CSLAYER14
 70
    64
 62
     7
  6
CONTINUOUS
  0
LAYER
  2
CSLAYER15
 70
    64
 62
     7
  6
CONTINUOUS
  0
LAYER
  2
CSLAYER16
 70
    64
 62
     7
  6
CONTINUOUS
  0
ENDTAB
  0
TABLE
  2
STYLE
 70
     1
  0
STYLE
  2
JX_FONT
 70
     0
 40
1.0
 41
1.0
 50
0.0
 71
     0
 42
1.0
  3
monotxt
  4
bigfont
  0
ENDTAB
  0
TABLE
  2
VIEW
 70
     0
  0
ENDTAB
  0
ENDSEC
  0
SECTION
  2
BLOCKS
  0
ENDSEC
  0
SECTION
  2
ENTITIES
  0
LINE
  8
CSLAYER1
  6
CENTER
 62
     3
 10
80.167705
 20
128.556154
 11
80.167705
 21
150.496154
  0
ARC
  8
CSLAYER1
  6
CONTINUOUS
 62
     3
 10
79.207705
 20
161.716154
 40
4.000000
 50
112.620000
 51
337.666317
  0
LINE
  8
CSLAYER1
  6
CENTER
 62
     3
 10
38.967705
 20
207.696154
 11
211.787705
 21
207.696154
  0
LINE
  8
CSLAYER1
  6
CENTER
 62
     3
 10
220.115705
 20
238.196154
 11
66.423475
 21
238.196154
  0
ARC
  8
CSLAYER1
  6
CONTINUOUS
 62
     3
 10
79.207705
 20
253.656154
 40
4.000000
 50
120.640000
 51
239.336170
  0
LINE
  8
CSLAYER1
  6
CENTER
 62
     3
 10
125.167705
 20
295.096154
 11
125.167705
 21
127.496154
  0
LINE
  8
CSLAYER1
  6
CENTER
 62
     3
 10
170.167705
 20
129.076154
 11
170.167705
 21
149.476154
  0
ARC
  8
CSLAYER1
  6
CONTINUOUS
 62
     3
 10
171.127705
 20
161.716154
 40
4.000000
 50
-157.380000
 51
67.356260
  0
ARC
  8
CSLAYER1
  6
CONTINUOUS
 62
     3
 10
171.127705
 20
253.656154
 40
4.000000
 50
-47.770000
 51
59.336170
  0
LINE
  8
CSLAYER1
  6
CENTER
 62
     3
 10
269.179583
 20
238.196154
 11
345.241557
 21
238.196154
  0
LINE
  8
CSLAYER1
  6
CENTER
 62
     3
 10
357.951538
 20
207.696154
 11
583.699538
 21
207.696154
  0
LINE
  8
CSLAYER1
  6
CENTER
 62
     3
 10
615.091538
 20
207.696154
 11
787.911538
 21
207.696154
  0
ARC
  8
CSLAYER1
  6
CENTER
 62
     3
 10
701.711538
 20
207.696154
 40
65.000000
 50
302.917958
 51
327.082042
  0
LINE
  8
CSLAYER1
  6
CENTER
 62
     3
 10
746.711538
 20
150.496154
 11
746.711538
 21
128.556154
  0
LINE
  8
CSLAYER1
  6
CENTER
 62
     3
 10
701.711538
 20
127.496154
 11
701.711538
 21
293.696154
  0
ARC
  8
CSLAYER1
  6
CENTER
 62
     3
 10
701.711538
 20
207.696154
 40
65.000000
 50
32.917958
 51
57.082042
  0
LINE
  8
CSLAYER1
  6
CENTER
 62
     3
 10
737.999367
 20
243.983983
 11
757.347591
 21
263.332207
  0
ARC
  8
CSLAYER1
  6
CENTER
 62
     3
 10
701.711538
 20
207.696154
 40
65.000000
 50
122.917958
 51
147.082042
  0
LINE
  8
CSLAYER1
  6
CENTER
 62
     3
 10
638.461401
 20
238.196154
 11
606.763538
 21
238.196154
  0
LINE
  8
CSLAYER1
  6
CENTER
 62
     3
 10
545.711538
 20
239.696154
 11
545.711538
 21
175.696154
  0
LINE
  8
CSLAYER1
  6
CENTER
 62
     3
 10
550.711538
 20
170.696154
 11
550.711538
 21
159.996142
  0
LINE
  8
CSLAYER1
  6
CENTER
 62
     3
 10
453.011538
 20
161.724214
 11
409.711538
 21
161.724214
  0
LINE
  8
CSLAYER1
  6
CENTER
 62
     3
 10
342.211538
 20
148.936154
 11
342.211538
 21
128.936154
  0
LINE
  8
CSLAYER1
  6
CENTER
 62
     3
 10
307.211538
 20
126.936154
 11
307.211538
 21
289.196154
  0
LINE
  8
CSLAYER1
  6
CENTER
 62
     3
 10
409.711538
 20
253.658095
 11
453.011538
 21
253.658095
  0
LINE
  8
CSLAYER1
  6
CONTINUOUS
 62
     3
 10
460.711569
 20
252.696154
 11
460.711569
 21
246.101888
  0
ARC
  8
CSLAYER1
  6
CONTINUOUS
 62
     3
 10
462.711569
 20
246.101888
 40
2.000000
 50
180.057309
 51
269.999999
  0
LINE
  8
CSLAYER1
  6
CONTINUOUS
 62
     3
 10
462.711569
 20
244.101888
 11
490.711569
 21
244.101919
  0
ARC
  8
CSLAYER1
  6
CONTINUOUS
 62
     3
 10
490.711569
 20
246.101919
 40
2.000000
 50
269.999999
 51
359.999995
  0
LINE
  8
CSLAYER1
  6
CONTINUOUS
 62
     3
 10
492.711569
 20
246.101919
 11
492.711569
 21
252.696154
  0
LINE
  8
CSLAYER1
  6
CENTER
 62
     3
 10
545.711538
 20
377.749969
 11
545.711538
 21
400.356781
  0
LINE
  8
CSLAYER1
  6
CENTER
 62
     3
 10
583.699538
 20
431.750000
 11
248.780146
 21
431.750000
  0
LINE
  8
CSLAYER1
  6
CENTER
 62
     3
 10
272.211538
 20
395.976578
 11
272.211538
 21
376.124522
  0
LINE
  8
CSLAYER1
  6
CENTER
 62
     3
 10
264.531895
 20
386.750000
 11
280.132390
 21
386.750000
  0
LINE
  8
CSLAYER1
  6
CENTER
 62
     3
 10
334.290687
 20
386.750000
 11
349.891182
 21
386.750000
  0
LINE
  8
CSLAYER1
  6
CENTER
 62
     3
 10
342.211538
 20
395.976578
 11
342.211538
 21
376.124522
  0
LINE
  8
CSLAYER1
  6
CENTER
 62
     3
 10
307.211538
 20
336.802000
 11
307.211538
 21
494.360905
  0
LINE
  8
CSLAYER1
  6
CENTER
 62
     3
 10
280.132390
 20
476.750000
 11
264.531895
 21
476.750000
  0
LINE
  8
CSLAYER1
  6
CENTER
 62
     3
 10
272.211538
 20
467.523422
 11
272.211538
 21
487.375478
  0
LINE
  8
CSLAYER1
  6
CENTER
 62
     3
 10
334.290687
 20
476.750000
 11
349.891182
 21
476.750000
  0
LINE
  8
CSLAYER1
  6
CENTER
 62
     3
 10
342.211538
 20
467.523422
 11
342.211538
 21
487.375478
  0
LINE
  8
CSLAYER1
  6
CENTER
 62
     3
 10
409.711538
 20
477.711941
 11
453.011538
 21
477.711941
  0
ARC
  8
CSLAYER1
  6
CONTINUOUS
 62
     3
 10
462.711538
 20
455.250000
 40
2.000000
 50
90.000000
 51
180.000000
  0
LINE
  8
CSLAYER1
  6
CONTINUOUS
 62
     3
 10
460.711538
 20
455.250000
 11
460.711538
 21
408.250000
  0
ARC
  8
CSLAYER1
  6
CONTINUOUS
 62
     3
 10
462.711538
 20
408.250000
 40
2.000000
 50
180.000000
 51
270.000000
  0
LINE
  8
CSLAYER1
  6
CONTINUOUS
 62
     3
 10
462.711538
 20
406.250000
 11
490.711538
 21
406.250000
  0
ARC
  8
CSLAYER1
  6
CONTINUOUS
 62
     3
 10
490.711538
 20
408.250000
 40
2.000000
 50
270.000000
 51
360.000000
  0
LINE
  8
CSLAYER1
  6
CONTINUOUS
 62
     3
 10
492.711538
 20
408.250000
 11
492.711538
 21
455.250000
  0
ARC
  8
CSLAYER1
  6
CONTINUOUS
 62
     3
 10
490.711538
 20
455.250000
 40
2.000000
 50
0.000000
 51
90.000000
  0
LINE
  8
CSLAYER1
  6
CONTINUOUS
 62
     3
 10
490.711538
 20
457.250000
 11
462.711538
 21
457.250000
  0
LINE
  8
CSLAYER1
  6
CENTER
 62
     3
 10
545.711538
 20
463.143158
 11
545.711538
 21
485.749969
  0
LINE
  8
CSLAYER1
  6
CENTER
 62
     3
 10
453.011538
 20
385.788059
 11
409.711538
 21
385.788059
  0
LINE
  8
CSLAYER1
  6
CENTER
 62
     3
 10
272.211538
 20
149.936154
 11
272.211538
 21
129.436154
  0
LINE
  8
CSLAYER1
  6
CENTER
 62
     3
 10
646.075486
 20
152.060101
 11
665.423710
 21
171.408325
  0
ARC
  8
CSLAYER1
  6
CENTER
 62
     3
 10
701.711538
 20
207.696154
 40
65.000000
 50
212.917958
 51
237.082042
  0
LINE
  8
CSLAYER1
  6
CENTER
 62
     3
 10
656.711538
 20
149.476154
 11
656.711538
 21
129.076154
  0
LINE
  8
CSLAYER1
  6
CENTER
 62
     3
 10
737.999367
 20
171.408325
 11
757.347591
 21
152.060101
  0
LINE
  8
CSLAYER1
  6
CENTER
 62
     3
 10
665.423710
 20
243.983983
 11
646.075486
 21
263.332207
  0
TEXT
  8
CSLAYER1
 62
     3
 10
478.654785
 20
426.500031
 40
3.500000
 41
1.125000
  1
N P
 50
90.000000
 51
10.000000
  7
JX_FONT
 72
     5
 11
478.654785
 21
437.000031
  0
LINE
  8
CSLAYER1
  6
CONTINUOUS
 62
     6
 10
67.167705
 20
133.196154
 11
100.167705
 21
133.196154
  0
LINE
  8
CSLAYER1
  6
CONTINUOUS
 62
     6
 10
100.167705
 20
133.196154
 11
101.167705
 21
134.196154
  0
LINE
  8
CSLAYER1
  6
CONTINUOUS
 62
     6
 10
101.167705
 20
134.196154
 11
149.167705
 21
134.196154
  0
LINE
  8
CSLAYER1
  6
CONTINUOUS
 62
     6
 10
149.167705
 20
134.196154
 11
150.167705
 21
133.196154
  0
LINE
  8
CSLAYER1
  6
CONTINUOUS
 62
     6
 10
150.167705
 20
133.196154
 11
183.167705
 21
133.196154
  0
LINE
  8
CSLAYER1
  6
CONTINUOUS
 62
     6
 10
183.167705
 20
133.196154
 11
183.167705
 21
143.816154
  0
ARC
  8
CSLAYER1
  6
CONTINUOUS
 62
     6
 10
181.167705
 20
143.816154
 40
2.000000
 50
0.000000
 51
68.970000
  0
LINE
  8
CSLAYER1
  6
CONTINUOUS
 62
     6
 10
181.887705
 20
145.676154
 11
158.447705
 21
154.696154
  0
ARC
  8
CSLAYER1
  6
CONTINUOUS
 62
     6
 10
159.167705
 20
156.556154
 40
2.000000
 50
180.000000
 51
248.970000
  0
ARC
  8
CSLAYER1
  6
CONTINUOUS
 62
     6
 10
156.607705
 20
147.956154
 40
10.000000
 50
43.490000
 51
86.860000
  0
ARC
  8
CSLAYER1
  6
CONTINUOUS
 62
     6
 10
171.127705
 20
161.716154
 40
10.000000
 50
-136.510000
 51
18.880000
  0
ARC
  8
CSLAYER1
  6
CONTINUOUS
 62
     6
 10
190.047705
 20
168.196154
 40
10.000000
 50
145.970000
 51
198.880000
  0
ARC
  8
CSLAYER1
  6
CONTINUOUS
 62
     6
 10
125.167705
 20
207.696154
 40
57.500000
 50
-32.859880
 51
19.830000
  0
LINE
  8
CSLAYER1
  6
CONTINUOUS
 62
     6
 10
175.167705
 20
227.196154
 11
215.167705
 21
227.196154
  0
LINE
  8
CSLAYER1
  6
CONTINUOUS
 62
     6
 10
215.167705
 20
227.196154
 11
215.167705
 21
249.196154
  0
LINE
  8
CSLAYER1
  6
CONTINUOUS
 62
     6
 10
215.167705
 20
249.196154
 11
175.167705
 21
249.196154
  0
LINE
  8
CSLAYER1
  6
CONTINUOUS
 62
     6
 10
175.167705
 20
250.696154
 11
173.167705
 21
250.696154
  0
ARC
  8
CSLAYER1
  6
CONTINUOUS
 62
     6
 10
171.127705
 20
253.656154
 40
3.500000
 50
-54.380000
 51
54.348249
  0
LINE
  8
CSLAYER1
  6
CONTINUOUS
 62
     6
 10
175.167705
 20
250.696154
 11
175.167705
 21
225.696154
  0
LINE
  8
CSLAYER1
  6
CONTINUOUS
 62
     6
 10
175.167705
 20
225.696154
 11
173.167705
 21
225.696154
  0
LINE
  8
CSLAYER1
  6
CONTINUOUS
 62
     6
 10
173.167705
 20
212.996154
 11
173.167705
 21
263.376154
  0
ARC
  8
CSLAYER1
  6
CONTINUOUS
 62
     6
 10
170.167705
 20
263.376154
 40
3.000000
 50
0.000000
 51
75.130000
  0
LINE
  8
CSLAYER1
  6
CONTINUOUS
 62
     6
 10
170.927705
 20
266.276154
 11
159.387705
 21
269.336154
  0
ARC
  8
CSLAYER1
  6
CONTINUOUS
 62
     6
 10
160.167705
 20
272.236154
 40
3.000000
 50
180.000000
 51
255.130000
  0
ARC
  8
CSLAYER1
  6
CONTINUOUS
 62
     6
 10
155.167705
 20
280.656154
 40
2.000000
 50
0.000000
 51
89.000000
  0
LINE
  8
CSLAYER1
  6
CONTINUOUS
 62
     6
 10
155.207705
 20
282.656154
 11
125.167705
 21
283.196154
  0
LINE
  8
CSLAYER1
  6
CONTINUOUS
 62
     6
 10
125.167705
 20
283.196154
 11
95.127705
 21
282.656154
  0
ARC
  8
CSLAYER1
  6
CONTINUOUS
 62
     6
 10
95.167705
 20
280.656154
 40
2.000000
 50
91.000000
 51
180.000000
  0
LINE
  8
CSLAYER1
  6
CONTINUOUS
 62
     6
 10
93.167705
 20
280.656154
 11
93.167705
 21
133.196154
  0
LINE
  8
CSLAYER1
  6
DASHED
 62
     6
 10
85.667705
 20
133.196154
 11
85.667705
 21
145.196154
  0
ARC
  8
CSLAYER1
  6
CONTINUOUS
 62
     6
 10
90.167705
 20
148.196154
 40
3.000000
 50
270.000000
 51
360.000000
  0
LINE
  8
CSLAYER1
  6
CONTINUOUS
 62
     6
 10
90.167705
 20
145.196154
 11
69.167705
 21
145.196154
  0
ARC
  8
CSLAYER1
  6
CONTINUOUS
 62
     6
 10
69.167705
 20
143.196154
 40
2.000000
 50
90.000000
 51
180.000000
  0
LINE
  8
CSLAYER1
  6
CONTINUOUS
 62
     6
 10
67.167705
 20
143.816154
 11
67.167705
 21
133.196154
  0
LINE
  8
CSLAYER1
  6
DASHED
 62
     6
 10
74.667705
 20
133.196154
 11
74.667705
 21
145.196154
  0
ARC
  8
CSLAYER1
  6
CONTINUOUS
 62
     6
 10
125.167705
 20
207.696154
 40
80.000000
 50
113.550189
 51
229.010000
  0
ARC
  8
CSLAYER1
  6
CONTINUOUS
 62
     6
 10
125.167705
 20
207.696154
 40
80.000000
 50
69.634932
 51
110.365068
  0
ARC
  8
CSLAYER1
  6
CONTINUOUS
 62
     6
 10
125.167705
 20
207.696154
 40
80.000000
 50
31.250000
 51
66.450000
  0
ARC
  8
CSLAYER1
  6
CONTINUOUS
 62
     6
 10
183.167705
 20
238.196154
 40
3.000000
 50
90.000000
 51
270.000000
  0
LINE
  8
CSLAYER1
  6
CONTINUOUS
 62
     6
 10
183.167705
 20
235.196154
 11
215.167705
 21
235.196154
  0
LINE
  8
CSLAYER1
  6
CONTINUOUS
 62
     6
 10
215.167705
 20
241.196154
 11
183.167705
 21
241.196154
  0
ARC
  8
CSLAYER1
  6
CONTINUOUS
 62
     6
 10
171.127705
 20
253.656154
 40
10.000000
 50
-26.500000
 51
78.250000
  0
LINE
  8
CSLAYER1
  6
CONTINUOUS
 62
     6
 10
154.927705
 20
260.196154
 11
95.267705
 21
260.196154
  0
ARC
  8
CSLAYER1
  6
CONTINUOUS
 62
     6
 10
90.167705
 20
272.236154
 40
3.000000
 50
284.880000
 51
360.000000
  0
LINE
  8
CSLAYER1
  6
CONTINUOUS
 62
     6
 10
90.927705
 20
269.336154
 11
79.387705
 21
266.276154
  0
ARC
  8
CSLAYER1
  6
CONTINUOUS
 62
     6
 10
80.167705
 20
263.376154
 40
3.000000
 50
104.880000
 51
180.000000
  0
LINE
  8
CSLAYER1
  6
CONTINUOUS
 62
     6
 10
77.167705
 20
263.376154
 11
77.167705
 21
212.996154
  0
ARC
  8
CSLAYER1
  6
CONTINUOUS
 62
     6
 10
80.167705
 20
212.996154
 40
3.000000
 50
180.000000
 51
255.130000
  0
LINE
  8
CSLAYER1
  6
CONTINUOUS
 62
     6
 10
79.387705
 20
210.096154
 11
84.927705
 21
208.616154
  0
ARC
  8
CSLAYER1
  6
CONTINUOUS
 62
     6
 10
84.167705
 20
205.716154
 40
3.000000
 50
0.000000
 51
75.130000
  0
ARC
  8
CSLAYER1
  6
CONTINUOUS
 62
     6
 10
66.507705
 20
192.876154
 40
3.000000
 50
-36.390000
 51
14.180000
  0
ARC
  8
CSLAYER1
  6
CONTINUOUS
 62
     6
 10
80.987705
 20
182.196154
 40
15.000000
 50
143.610000
 51
257.170000
  0
LINE
  8
CSLAYER1
  6
CONTINUOUS
 62
     6
 10
77.667705
 20
165.196154
 11
77.667705
 21
173.784504
  0
ARC
  8
CSLAYER1
  6
CONTINUOUS
 62
     6
 10
72.667705
 20
173.784504
 40
5.000000
 50
0.000000
 51
32.859880
  0
ARC
  8
CSLAYER1
  6
CONTINUOUS
 62
     6
 10
125.167705
 20
207.696154
 40
57.500000
 50
147.965164
 51
212.859880
  0
ARC
  8
CSLAYER1
  6
CONTINUOUS
 62
     6
 10
79.207705
 20
253.656154
 40
10.000000
 50
101.760000
 51
258.229034
  0
ARC
  8
CSLAYER1
  6
CONTINUOUS
 62
     6
 10
79.207705
 20
253.656154
 40
3.500000
 50
125.620000
 51
234.390000
  0
LINE
  8
CSLAYER1
  6
CONTINUOUS
 62
     6
 10
87.167705
 20
240.256154
 11
87.167705
 21
179.996154
  0
ARC
  8
CSLAYER1
  6
CONTINUOUS
 62
     6
 10
90.167705
 20
179.996154
 40
3.000000
 50
180.000000
 51
255.070000
  0
LINE
  8
CSLAYER1
  6
CONTINUOUS
 62
     6
 10
89.387705
 20
177.096154
 11
90.927705
 21
176.676154
  0
ARC
  8
CSLAYER1
  6
CONTINUOUS
 62
     6
 10
90.167705
 20
173.776154
 40
3.000000
 50
0.000000
 51
75.070000
  0
LINE
  8
CSLAYER1
  6
CONTINUOUS
 62
     6
 10
91.707705
 20
160.196154
 11
82.667705
 21
160.196154
  0
ARC
  8
CSLAYER1
  6
CONTINUOUS
 62
     6
 10
82.667705
 20
165.196154
 40
5.000000
 50
180.000000
 51
270.000000
  0
ARC
  8
CSLAYER1
  6
CONTINUOUS
 62
     6
 10
79.207705
 20
161.716154
 40
3.500000
 50
115.890000
 51
225.000000
  0
ARC
  8
CSLAYER1
  6
CONTINUOUS
 62
     6
 10
79.207705
 20
161.716154
 40
3.500000
 50
225.010000
 51
334.110000
  0
ARC
  8
CSLAYER1
  6
CONTINUOUS
 62
     6
 10
93.707705
 20
147.956154
 40
10.000000
 50
93.150000
 51
136.520000
  0
ARC
  8
CSLAYER1
  6
CONTINUOUS
 62
     6
 10
91.167705
 20
156.556154
 40
2.000000
 50
291.040000
 51
360.000000
  0
LINE
  8
CSLAYER1
  6
CONTINUOUS
 62
     6
 10
91.887705
 20
154.696154
 11
68.447705
 21
145.676154
  0
ARC
  8
CSLAYER1
  6
CONTINUOUS
 62
     6
 10
69.167705
 20
143.816154
 40
2.000000
 50
111.040000
 51
180.000000
  0
ARC
  8
CSLAYER1
  6
CONTINUOUS
 62
     6
 10
160.167705
 20
148.176154
 40
3.000000
 50
180.000000
 51
270.000000
  0
LINE
  8
CSLAYER1
  6
CONTINUOUS
 62
     6
 10
160.167705
 20
145.196154
 11
181.167705
 21
145.196154
  0
ARC
  8
CSLAYER1
  6
CONTINUOUS
 62
     6
 10
181.167705
 20
143.196154
 40
2.000000
 50
0.000000
 51
90.000000
  0
ARC
  8
CSLAYER1
  6
CONTINUOUS
 62
     6
 10
125.167705
 20
207.696154
 40
80.000000
 50
-49.000000
 51
14.107975
  0
ARC
  8
CSLAYER1
  6
CONTINUOUS
 62
     6
 10
170.167705
 20
212.996154
 40
3.000000
 50
284.880000
 51
360.000000
  0
LINE
  8
CSLAYER1
  6
CONTINUOUS
 62
     6
 10
170.927705
 20
210.096154
 11
165.387705
 21
208.616154
  0
ARC
  8
CSLAYER1
  6
CONTINUOUS
 62
     6
 10
166.167705
 20
205.716154
 40
3.000000
 50
104.880000
 51
180.000000
  0
ARC
  8
CSLAYER1
  6
CONTINUOUS
 62
     6
 10
183.827705
 20
192.876154
 40
3.000000
 50
165.830000
 51
216.400000
  0
ARC
  8
CSLAYER1
  6
CONTINUOUS
 62
     6
 10
169.327705
 20
182.196154
 40
15.000000
 50
-77.160000
 51
36.400000
  0
LINE
  8
CSLAYER1
  6
CONTINUOUS
 62
     6
 10
172.667705
 20
165.196154
 11
172.667705
 21
173.784504
  0
ARC
  8
CSLAYER1
  6
CONTINUOUS
 62
     6
 10
177.667705
 20
173.784504
 40
5.000000
 50
147.140120
 51
180.000000
  0
ARC
  8
CSLAYER1
  6
CONTINUOUS
 62
     6
 10
169.327705
 20
182.196154
 40
11.500000
 50
-73.150000
 51
22.140000
  0
ARC
  8
CSLAYER1
  6
CONTINUOUS
 62
     6
 10
184.607705
 20
188.396154
 40
5.000000
 50
162.040000
 51
202.140000
  0
ARC
  8
CSLAYER1
  6
CONTINUOUS
 62
     6
 10
160.167705
 20
179.996154
 40
3.000000
 50
284.940000
 51
360.000000
  0
LINE
  8
CSLAYER1
  6
CONTINUOUS
 62
     6
 10
160.927705
 20
177.096154
 11
159.387705
 21
176.676154
  0
ARC
  8
CSLAYER1
  6
CONTINUOUS
 62
     6
 10
160.167705
 20
173.776154
 40
3.000000
 50
104.940000
 51
180.000000
  0
LINE
  8
CSLAYER1
  6
CONTINUOUS
 62
     6
 10
163.167705
 20
179.996154
 11
163.167705
 21
240.256154
  0
LINE
  8
CSLAYER1
  6
CONTINUOUS
 62
     6
 10
157.167705
 20
280.656154
 11
157.167705
 21
133.196154
  0
LINE
  8
CSLAYER1
  6
DASHED
 62
     6
 10
164.667705
 20
133.196154
 11
164.667705
 21
145.196154
  0
LINE
  8
CSLAYER1
  6
DASHED
 62
     6
 10
175.667705
 20
145.196154
 11
175.667705
 21
133.196154
  0
ARC
  8
CSLAYER1
  6
CONTINUOUS
 62
     6
 10
171.127705
 20
161.716154
 40
3.500000
 50
205.900000
 51
315.000000
  0
ARC
  8
CSLAYER1
  6
CONTINUOUS
 62
     6
 10
167.667705
 20
165.196154
 40
5.000000
 50
270.000000
 51
360.000000
  0
ARC
  8
CSLAYER1
  6
CONTINUOUS
 62
     6
 10
171.127705
 20
161.716154
 40
3.500000
 50
-44.990000
 51
64.120000
  0
LINE
  8
CSLAYER1
  6
CONTINUOUS
 62
     6
 10
167.667705
 20
160.196154
 11
158.627705
 21
160.196154
  0
ARC
  8
CSLAYER1
  6
CONTINUOUS
 62
     6
 10
158.607705
 20
155.196154
 40
5.000000
 50
89.770000
 51
106.850000
  0
ARC
  8
CSLAYER1
  6
CONTINUOUS
 62
     6
 10
125.167705
 20
207.696154
 40
57.500000
 50
303.820000
 51
304.000000
  0
ARC
  8
CSLAYER1
  6
CONTINUOUS
 62
     6
 10
91.707705
 20
155.196154
 40
5.000000
 50
73.160000
 51
90.000000
  0
ARC
  8
CSLAYER1
  6
CONTINUOUS
 62
     6
 10
79.207705
 20
161.716154
 40
10.000000
 50
161.130000
 51
316.520000
  0
ARC
  8
CSLAYER1
  6
CONTINUOUS
 62
     6
 10
60.267705
 20
168.196154
 40
10.000000
 50
-18.870000
 51
34.040000
  0
ARC
  8
CSLAYER1
  6
CONTINUOUS
 62
     6
 10
80.987705
 20
182.196154
 40
11.500000
 50
157.870000
 51
253.160000
  0
ARC
  8
CSLAYER1
  6
CONTINUOUS
 62
     6
 10
65.707705
 20
188.396154
 40
5.000000
 50
-22.130000
 51
17.970000
  0
LINE
  8
CSLAYER1
  6
CONTINUOUS
 62
     6
 10
254.211538
 20
145.196154
 11
360.211538
 21
145.196154
  0
ARC
  8
CSLAYER1
  6
CONTINUOUS
 62
     6
 10
365.211538
 20
145.436154
 40
5.000000
 50
90.000000
 51
180.000000
  0
LINE
  8
CSLAYER1
  6
CONTINUOUS
 62
     6
 10
365.211538
 20
150.436154
 11
372.211538
 21
150.436154
  0
LINE
  8
CSLAYER1
  6
CONTINUOUS
 62
     6
 10
372.211538
 20
150.196154
 11
413.831538
 21
149.096154
  0
ARC
  8
CSLAYER1
  6
CONTINUOUS
 62
     6
 10
413.711538
 20
144.096154
 40
5.000000
 50
0.000000
 51
88.500000
  0
LINE
  8
CSLAYER1
  6
CONTINUOUS
 62
     6
 10
418.711538
 20
139.696154
 11
418.711538
 21
284.556154
  0
ARC
  8
CSLAYER1
  6
CONTINUOUS
 62
     6
 10
421.711538
 20
284.556154
 40
3.000000
 50
91.500000
 51
180.000000
  0
LINE
  8
CSLAYER1
  6
CONTINUOUS
 62
     6
 10
421.631538
 20
287.556154
 11
426.711538
 21
287.696154
  0
LINE
  8
CSLAYER1
  6
CONTINUOUS
 62
     6
 10
426.711538
 20
287.696154
 11
439.711538
 21
287.696154
  0
LINE
  8
CSLAYER1
  6
CONTINUOUS
 62
     6
 10
439.711538
 20
287.696154
 11
439.711538
 21
139.696154
  0
LINE
  8
CSLAYER1
  6
CONTINUOUS
 62
     6
 10
439.711538
 20
139.696154
 11
418.711538
 21
139.696154
  0
LINE
  8
CSLAYER1
  6
CONTINUOUS
 62
     6
 10
360.211538
 20
133.196154
 11
254.211538
 21
133.196154
  0
LINE
  8
CSLAYER1
  6
CONTINUOUS
 62
     6
 10
254.211538
 20
133.196154
 11
254.211538
 21
257.576154
  0
ARC
  8
CSLAYER1
  6
CONTINUOUS
 62
     6
 10
259.211538
 20
257.576154
 40
5.000000
 50
124.880000
 51
180.000000
  0
LINE
  8
CSLAYER1
  6
CONTINUOUS
 62
     6
 10
256.351538
 20
261.676154
 11
285.911538
 21
282.296154
  0
ARC
  8
CSLAYER1
  6
CONTINUOUS
 62
     6
 10
288.771538
 20
278.196154
 40
5.000000
 50
90.000000
 51
124.880000
  0
LINE
  8
CSLAYER1
  6
CONTINUOUS
 62
     6
 10
288.771538
 20
283.196154
 11
325.631538
 21
283.196154
  0
ARC
  8
CSLAYER1
  6
CONTINUOUS
 62
     6
 10
325.631538
 20
278.196154
 40
5.000000
 50
55.130000
 51
90.000000
  0
LINE
  8
CSLAYER1
  6
CONTINUOUS
 62
     6
 10
328.491538
 20
282.296154
 11
358.071538
 21
261.676154
  0
ARC
  8
CSLAYER1
  6
CONTINUOUS
 62
     6
 10
355.211538
 20
257.576154
 40
5.000000
 50
0.000000
 51
55.130000
  0
LINE
  8
CSLAYER1
  6
CONTINUOUS
 62
     6
 10
360.211538
 20
257.576154
 11
360.211538
 21
257.196154
  0
ARC
  8
CSLAYER1
  6
CONTINUOUS
 62
     6
 10
362.211538
 20
257.196154
 40
2.000000
 50
180.000000
 51
270.000000
  0
LINE
  8
CSLAYER1
  6
CONTINUOUS
 62
     6
 10
362.211538
 20
255.196154
 11
372.211538
 21
255.196154
  0
ARC
  8
CSLAYER1
  6
CONTINUOUS
 62
     6
 10
365.951538
 20
253.196154
 40
2.000000
 50
90.000000
 51
180.000000
  0
LINE
  8
CSLAYER1
  6
CONTINUOUS
 62
     6
 10
363.951538
 20
253.196154
 11
363.951538
 21
162.196154
  0
ARC
  8
CSLAYER1
  6
CONTINUOUS
 62
     6
 10
365.951538
 20
162.196154
 40
2.000000
 50
180.000000
 51
270.000000
  0
LINE
  8
CSLAYER1
  6
CONTINUOUS
 62
     6
 10
362.211538
 20
160.196154
 11
372.211538
 21
160.196154
  0
LINE
  8
CSLAYER1
  6
CONTINUOUS
 62
     6
 10
372.211538
 20
150.196154
 11
372.211538
 21
265.196154
  0
LINE
  8
CSLAYER1
  6
CONTINUOUS
 62
     6
 10
372.211538
 20
265.196154
 11
377.151538
 21
265.316154
  0
ARC
  8
CSLAYER1
  6
CONTINUOUS
 62
     6
 10
376.271538
 20
268.196154
 40
3.000000
 50
286.910000
 51
351.160000
  0
ARC
  8
CSLAYER1
  6
CONTINUOUS
 62
     6
 10
382.211538
 20
267.256154
 40
3.000000
 50
91.500000
 51
171.160000
  0
LINE
  8
CSLAYER1
  6
CONTINUOUS
 62
     6
 10
382.131538
 20
270.256154
 11
406.171538
 21
270.896154
  0
ARC
  8
CSLAYER1
  6
CONTINUOUS
 62
     6
 10
406.091538
 20
273.896154
 40
3.000000
 50
271.500000
 51
328.590000
  0
ARC
  8
CSLAYER1
  6
CONTINUOUS
 62
     6
 10
411.211538
 20
270.756154
 40
3.000000
 50
91.500000
 51
148.600000
  0
LINE
  8
CSLAYER1
  6
CONTINUOUS
 62
     6
 10
411.131538
 20
273.756154
 11
413.831538
 21
273.836154
  0
ARC
  8
CSLAYER1
  6
CONTINUOUS
 62
     6
 10
413.711538
 20
278.836154
 40
5.000000
 50
271.500000
 51
360.000000
  0
LINE
  8
CSLAYER1
  6
CONTINUOUS
 62
     6
 10
408.611538
 20
270.936154
 11
408.611538
 21
264.596154
  0
ARC
  8
CSLAYER1
  6
CONTINUOUS
 62
     6
 10
406.571538
 20
257.876154
 40
6.000000
 50
67.670000
 51
90.000000
  0
LINE
  8
CSLAYER1
  6
CONTINUOUS
 62
     6
 10
406.571538
 20
263.876154
 11
381.711538
 21
263.876154
  0
ARC
  8
CSLAYER1
  6
CONTINUOUS
 62
     6
 10
381.631538
 20
271.896154
 40
8.000000
 50
235.280000
 51
270.500000
  0
LINE
  8
CSLAYER1
  6
CONTINUOUS
 62
     6
 10
372.211538
 20
264.936154
 11
354.331538
 21
264.936154
  0
ARC
  8
CSLAYER1
  6
CONTINUOUS
 62
     6
 10
354.331538
 20
267.936154
 40
3.000000
 50
235.130000
 51
270.000000
  0
ARC
  8
CSLAYER1
  6
CONTINUOUS
 62
     6
 10
307.211538
 20
238.196154
 40
31.740000
 50
7.560000
 51
172.450000
  0
LINE
  8
CSLAYER1
  6
CONTINUOUS
 62
     6
 10
275.731538
 20
242.356154
 11
270.031538
 21
199.396154
  0
ARC
  8
CSLAYER1
  6
CONTINUOUS
 62
     6
 10
290.451538
 20
196.696154
 40
20.600000
 50
172.450000
 51
270.000000
  0
LINE
  8
CSLAYER1
  6
CONTINUOUS
 62
     6
 10
290.451538
 20
176.096154
 11
323.951538
 21
176.096154
  0
ARC
  8
CSLAYER1
  6
CONTINUOUS
 62
     6
 10
323.951538
 20
196.696154
 40
20.600000
 50
-90.000000
 51
7.560000
  0
LINE
  8
CSLAYER1
  6
CONTINUOUS
 62
     6
 10
344.371538
 20
199.396154
 11
338.691538
 21
242.356154
  0
LINE
  8
CSLAYER1
  6
CONTINUOUS
 62
     6
 10
337.091538
 20
242.156154
 11
342.791538
 21
199.176154
  0
ARC
  8
CSLAYER1
  6
CONTINUOUS
 62
     6
 10
323.951538
 20
196.696154
 40
19.000000
 50
-90.000000
 51
7.560000
  0
LINE
  8
CSLAYER1
  6
CONTINUOUS
 62
     6
 10
323.951538
 20
177.696154
 11
290.451538
 21
177.696154
  0
ARC
  8
CSLAYER1
  6
CONTINUOUS
 62
     6
 10
290.451538
 20
196.696154
 40
19.000000
 50
172.450000
 51
270.000000
  0
LINE
  8
CSLAYER1
  6
CONTINUOUS
 62
     6
 10
271.631538
 20
199.176154
 11
277.311538
 21
242.156154
  0
ARC
  8
CSLAYER1
  6
CONTINUOUS
 62
     6
 10
307.211538
 20
238.196154
 40
30.140000
 50
-187.550000
 51
7.560000
  0
LINE
  8
CSLAYER1
  6
CONTINUOUS
 62
     6
 10
365.091538
 20
239.636154
 11
372.211538
 21
239.636154
  0
ARC
  8
CSLAYER1
  6
CONTINUOUS
 62
     6
 10
411.131538
 20
268.976154
 40
6.000000
 50
247.670000
 51
270.000000
  0
LINE
  8
CSLAYER1
  6
CONTINUOUS
 62
     6
 10
411.131538
 20
262.976154
 11
418.711538
 21
262.976154
  0
ARC
  8
CSLAYER1
  6
CONTINUOUS
 62
     6
 10
416.711538
 20
263.136154
 40
2.000000
 50
284.480000
 51
360.000000
  0
ARC
  8
CSLAYER1
  6
CONTINUOUS
 62
     6
 10
417.711538
 20
259.276154
 40
2.000000
 50
104.480000
 51
180.000000
  0
LINE
  8
CSLAYER1
  6
CONTINUOUS
 62
     6
 10
415.711538
 20
259.276154
 11
415.711538
 21
248.016154
  0
ARC
  8
CSLAYER1
  6
CONTINUOUS
 62
     6
 10
417.711538
 20
248.016154
 40
2.000000
 50
180.000000
 51
255.530000
  0
ARC
  8
CSLAYER1
  6
CONTINUOUS
 62
     6
 10
416.711538
 20
244.136154
 40
2.000000
 50
0.000000
 51
75.530000
  0
ARC
  8
CSLAYER1
  6
CONTINUOUS
 62
     6
 10
413.711538
 20
202.176154
 40
5.000000
 50
270.000000
 51
360.000000
  0
LINE
  8
CSLAYER1
  6
CONTINUOUS
 62
     6
 10
413.711538
 20
197.196154
 11
411.611538
 21
197.196154
  0
ARC
  8
CSLAYER1
  6
CONTINUOUS
 62
     6
 10
411.611538
 20
194.176154
 40
3.000000
 50
90.000000
 51
180.000000
  0
LINE
  8
CSLAYER1
  6
CONTINUOUS
 62
     6
 10
408.611538
 20
194.176154
 11
408.611538
 21
170.196154
  0
ARC
  8
CSLAYER1
  6
CONTINUOUS
 62
     6
 10
411.611538
 20
170.196154
 40
3.000000
 50
180.000000
 51
270.000000
  0
LINE
  8
CSLAYER1
  6
CONTINUOUS
 62
     6
 10
411.611538
 20
167.196154
 11
412.711538
 21
167.196154
  0
ARC
  8
CSLAYER1
  6
CONTINUOUS
 62
     6
 10
412.711538
 20
164.196154
 40
3.000000
 50
0.000000
 51
90.000000
  0
LINE
  8
CSLAYER1
  6
CONTINUOUS
 62
     6
 10
415.711538
 20
167.356154
 11
415.711538
 21
156.096154
  0
ARC
  8
CSLAYER1
  6
CONTINUOUS
 62
     6
 10
417.711538
 20
156.096154
 40
2.000000
 50
180.000000
 51
255.530000
  0
ARC
  8
CSLAYER1
  6
CONTINUOUS
 62
     6
 10
416.711538
 20
152.236154
 40
2.000000
 50
0.000000
 51
75.530000
  0
ARC
  8
CSLAYER1
  6
CONTINUOUS
 62
     6
 10
417.711538
 20
167.356154
 40
2.000000
 50
104.480000
 51
180.000000
  0
ARC
  8
CSLAYER1
  6
CONTINUOUS
 62
     6
 10
416.711538
 20
171.236154
 40
2.000000
 50
284.480000
 51
360.000000
  0
ARC
  8
CSLAYER1
  6
CONTINUOUS
 62
     6
 10
405.851538
 20
168.496154
 40
3.000000
 50
16.440000
 51
88.500000
  0
LINE
  8
CSLAYER1
  6
CONTINUOUS
 62
     6
 10
405.931538
 20
171.496154
 11
382.131538
 21
172.116154
  0
ARC
  8
CSLAYER1
  6
CONTINUOUS
 62
     6
 10
382.211538
 20
175.116154
 40
3.000000
 50
180.000000
 51
268.500000
  0
LINE
  8
CSLAYER1
  6
CONTINUOUS
 62
     6
 10
379.211538
 20
175.116154
 11
379.211538
 21
189.256154
  0
ARC
  8
CSLAYER1
  6
CONTINUOUS
 62
     6
 10
382.211538
 20
189.256154
 40
3.000000
 50
91.500000
 51
180.000000
  0
LINE
  8
CSLAYER1
  6
CONTINUOUS
 62
     6
 10
382.131538
 20
192.256154
 11
405.931538
 21
192.876154
  0
ARC
  8
CSLAYER1
  6
CONTINUOUS
 62
     6
 10
405.851538
 20
195.876154
 40
3.000000
 50
271.500000
 51
343.570000
  0
LINE
  8
CSLAYER1
  6
CONTINUOUS
 62
     6
 10
372.211538
 20
175.736154
 11
364.951538
 21
175.736154
  0
ARC
  8
CSLAYER1
  6
CONTINUOUS
 62
     6
 10
362.211538
 20
158.196154
 40
2.000000
 50
90.000000
 51
180.000000
  0
LINE
  8
CSLAYER1
  6
CONTINUOUS
 62
     6
 10
360.211538
 20
158.196154
 11
360.211538
 21
133.196154
  0
LINE
  8
CSLAYER1
  6
CONTINUOUS
 62
     6
 10
354.211538
 20
133.196154
 11
354.211538
 21
144.116154
  0
LINE
  8
CSLAYER1
  6
DASHED
 62
     6
 10
347.711538
 20
145.196154
 11
347.711538
 21
133.196154
  0
LINE
  8
CSLAYER1
  6
DASHED
 62
     6
 10
336.711538
 20
133.196154
 11
336.711538
 21
145.196154
  0
ARC
  8
CSLAYER1
  6
CONTINUOUS
 62
     6
 10
326.271538
 20
147.196154
 40
2.000000
 50
194.040000
 51
270.000000
  0
LINE
  8
CSLAYER1
  6
CONTINUOUS
 62
     6
 10
324.331538
 20
146.696154
 11
322.591538
 21
153.676154
  0
ARC
  8
CSLAYER1
  6
CONTINUOUS
 62
     6
 10
320.651538
 20
153.196154
 40
2.000000
 50
14.040000
 51
90.000000
  0
LINE
  8
CSLAYER1
  6
CONTINUOUS
 62
     6
 10
320.651538
 20
155.196154
 11
293.771538
 21
155.196154
  0
ARC
  8
CSLAYER1
  6
CONTINUOUS
 62
     6
 10
293.771538
 20
153.196154
 40
2.000000
 50
90.000000
 51
165.970000
  0
LINE
  8
CSLAYER1
  6
CONTINUOUS
 62
     6
 10
291.831538
 20
153.676154
 11
290.091538
 21
146.696154
  0
ARC
  8
CSLAYER1
  6
CONTINUOUS
 62
     6
 10
288.151538
 20
147.196154
 40
2.000000
 50
270.000000
 51
345.970000
  0
ARC
  8
CSLAYER1
  6
CONTINUOUS
 62
     6
 10
291.211538
 20
146.196154
 40
1.000000
 50
270.000000
 51
360.000000
  0
LINE
  8
CSLAYER1
  6
CONTINUOUS
 62
     6
 10
292.211538
 20
146.196154
 11
292.211538
 21
153.756154
  0
LINE
  8
CSLAYER1
  6
CONTINUOUS
 62
     6
 10
322.211538
 20
153.556154
 11
322.211538
 21
146.196154
  0
ARC
  8
CSLAYER1
  6
CONTINUOUS
 62
     6
 10
323.211538
 20
146.196154
 40
1.000000
 50
180.000000
 51
270.000000
  0
LINE
  8
CSLAYER1
  6
DASHED
 62
     6
 10
277.711538
 20
145.196154
 11
277.711538
 21
133.196154
  0
LINE
  8
CSLAYER1
  6
DASHED
 62
     6
 10
266.711538
 20
133.196154
 11
266.711538
 21
145.196154
  0
LINE
  8
CSLAYER1
  6
CONTINUOUS
 62
     6
 10
260.211538
 20
144.116154
 11
260.211538
 21
133.196154
  0
LINE
  8
CSLAYER1
  6
CONTINUOUS
 62
     6
 10
293.711538
 20
235.196154
 11
299.711538
 21
235.196154
  0
LINE
  8
CSLAYER1
  6
CONTINUOUS
 62
     6
 10
299.711538
 20
235.196154
 11
299.711538
 21
241.196154
  0
LINE
  8
CSLAYER1
  6
CONTINUOUS
 62
     6
 10
299.711538
 20
241.196154
 11
293.711538
 21
241.196154
  0
LINE
  8
CSLAYER1
  6
CONTINUOUS
 62
     6
 10
293.711538
 20
241.196154
 11
293.711538
 21
235.196154
  0
ARC
  8
CSLAYER1
  6
CONTINUOUS
 62
     6
 10
307.211538
 20
238.196154
 40
11.000000
 50
-164.170000
 51
164.180000
  0
CIRCLE
  8
CSLAYER1
  6
CONTINUOUS
 62
     6
 10
307.211538
 20
238.196154
 40
27.500000
  0
LINE
  8
CSLAYER1
  6
DOT
 62
     6
 10
299.711538
 20
341.750000
 11
299.711538
 21
376.750000
  0
LINE
  8
CSLAYER1
  6
DOT
 62
     6
 10
299.711538
 20
376.750000
 11
296.211538
 21
376.750000
  0
LINE
  8
CSLAYER1
  6
CONTINUOUS
 62
     6
 10
296.211538
 20
376.750000
 11
293.711538
 21
376.750000
  0
LINE
  8
CSLAYER1
  6
CONTINUOUS
 62
     6
 10
293.711538
 20
376.750000
 11
293.711538
 21
341.750000
  0
LINE
  8
CSLAYER1
  6
CONTINUOUS
 62
     6
 10
293.711538
 20
341.750000
 11
318.211538
 21
341.750000
  0
LINE
  8
CSLAYER1
  6
CONTINUOUS
 62
     6
 10
318.211538
 20
341.750000
 11
318.211538
 21
381.750000
  0
LINE
  8
CSLAYER1
  6
CONTINUOUS
 62
     6
 10
319.711538
 20
381.750000
 11
294.711538
 21
381.750000
  0
LINE
  8
CSLAYER1
  6
CONTINUOUS
 62
     6
 10
294.711538
 20
381.750000
 11
294.711538
 21
383.750000
  0
LINE
  8
CSLAYER1
  6
CONTINUOUS
 62
     6
 10
296.211538
 20
381.750000
 11
296.211538
 21
341.750000
  0
LINE
  8
CSLAYER1
  6
CONTINUOUS
 62
     6
 10
293.711538
 20
373.750000
 11
261.802564
 21
373.750000
  0
ARC
  8
CSLAYER1
  6
CONTINUOUS
 62
     6
 10
261.802564
 20
375.750000
 40
2.000000
 50
192.994617
 51
270.000000
  0
LINE
  8
CSLAYER1
  6
CONTINUOUS
 62
     6
 10
259.853781
 20
375.300281
 11
254.262756
 21
399.528057
  0
ARC
  8
CSLAYER1
  6
CONTINUOUS
 62
     6
 10
256.211538
 20
399.977776
 40
2.000000
 50
180.000000
 51
192.994617
  0
LINE
  8
CSLAYER1
  6
CONTINUOUS
 62
     6
 10
254.211538
 20
399.977776
 11
254.211538
 21
463.522224
  0
ARC
  8
CSLAYER1
  6
CONTINUOUS
 62
     6
 10
256.211538
 20
463.522224
 40
2.000000
 50
167.005383
 51
180.000000
  0
LINE
  8
CSLAYER1
  6
CONTINUOUS
 62
     6
 10
254.262756
 20
463.971943
 11
259.853781
 21
488.199719
  0
ARC
  8
CSLAYER1
  6
CONTINUOUS
 62
     6
 10
261.802564
 20
487.750000
 40
2.000000
 50
90.000000
 51
167.005383
  0
LINE
  8
CSLAYER1
  6
CONTINUOUS
 62
     6
 10
261.802564
 20
489.750000
 11
352.620513
 21
489.750000
  0
ARC
  8
CSLAYER1
  6
CONTINUOUS
 62
     6
 10
352.620513
 20
487.750000
 40
2.000000
 50
12.994617
 51
90.000000
  0
LINE
  8
CSLAYER1
  6
CONTINUOUS
 62
     6
 10
354.569296
 20
488.199719
 11
360.160321
 21
463.971943
  0
LINE
  8
CSLAYER1
  6
CONTINUOUS
 62
     6
 10
361.951538
 20
463.750000
 11
256.211538
 21
463.750000
  0
ARC
  8
CSLAYER1
  6
CONTINUOUS
 62
     6
 10
256.211538
 20
461.750000
 40
2.000000
 50
90.000000
 51
180.000000
  0
ARC
  8
CSLAYER1
  6
CONTINUOUS
 62
     6
 10
267.531332
 20
466.750000
 40
3.000000
 50
270.000000
 51
345.060000
  0
LINE
  8
CSLAYER1
  6
CONTINUOUS
 62
     6
 10
270.431332
 20
465.970000
 11
270.851332
 21
467.510000
  0
ARC
  8
CSLAYER1
  6
CONTINUOUS
 62
     6
 10
273.751332
 20
466.750000
 40
3.000000
 50
90.000000
 51
165.060000
  0
LINE
  8
CSLAYER1
  6
CONTINUOUS
 62
     6
 10
273.751332
 20
469.750000
 11
277.073861
 21
469.750000
  0
ARC
  8
CSLAYER1
  6
CONTINUOUS
 62
     6
 10
273.171538
 20
466.750000
 40
3.000000
 50
270.000000
 51
345.130000
  0
LINE
  8
CSLAYER1
  6
CONTINUOUS
 62
     6
 10
276.071538
 20
465.970000
 11
279.131538
 21
477.510000
  0
ARC
  8
CSLAYER1
  6
CONTINUOUS
 62
     6
 10
282.031538
 20
476.750000
 40
3.000000
 50
90.000000
 51
165.130000
  0
LINE
  8
CSLAYER1
  6
CONTINUOUS
 62
     6
 10
282.011538
 20
479.750000
 11
332.391538
 21
479.750000
  0
ARC
  8
CSLAYER1
  6
CONTINUOUS
 62
     6
 10
332.391538
 20
476.750000
 40
3.000000
 50
14.870000
 51
90.000000
  0
LINE
  8
CSLAYER1
  6
CONTINUOUS
 62
     6
 10
335.291538
 20
477.510000
 11
338.351538
 21
465.970000
  0
ARC
  8
CSLAYER1
  6
CONTINUOUS
 62
     6
 10
341.251538
 20
466.750000
 40
3.000000
 50
194.870000
 51
270.000000
  0
LINE
  8
CSLAYER1
  6
CONTINUOUS
 62
     6
 10
343.991745
 20
465.970000
 11
343.571745
 21
467.510000
  0
ARC
  8
CSLAYER1
  6
CONTINUOUS
 62
     6
 10
340.671745
 20
466.750000
 40
3.000000
 50
14.940000
 51
90.000000
  0
LINE
  8
CSLAYER1
  6
CONTINUOUS
 62
     6
 10
340.671745
 20
469.750000
 11
337.349216
 21
469.750000
  0
ARC
  8
CSLAYER1
  6
CONTINUOUS
 62
     6
 10
346.891745
 20
466.750000
 40
3.000000
 50
194.940000
 51
270.000000
  0
ARC
  8
CSLAYER1
  6
CONTINUOUS
 62
     6
 10
358.211538
 20
461.750000
 40
2.000000
 50
0.000000
 51
90.000000
  0
LINE
  8
CSLAYER1
  6
CONTINUOUS
 62
     6
 10
360.211538
 20
461.750000
 11
360.211538
 21
401.750000
  0
ARC
  8
CSLAYER1
  6
CONTINUOUS
 62
     6
 10
358.211538
 20
401.750000
 40
2.000000
 50
270.000000
 51
360.000000
  0
LINE
  8
CSLAYER1
  6
CONTINUOUS
 62
     6
 10
360.160321
 20
399.528057
 11
354.569296
 21
375.300281
  0
ARC
  8
CSLAYER1
  6
CONTINUOUS
 62
     6
 10
352.620513
 20
375.750000
 40
2.000000
 50
270.000000
 51
347.005383
  0
LINE
  8
CSLAYER1
  6
CONTINUOUS
 62
     6
 10
352.620513
 20
373.750000
 11
318.211538
 21
373.750000
  0
LINE
  8
CSLAYER1
  6
CONTINUOUS
 62
     6
 10
322.211538
 20
375.300281
 11
322.211538
 21
383.750000
  0
LINE
  8
CSLAYER1
  6
CONTINUOUS
 62
     6
 10
319.711538
 20
383.750000
 11
319.711538
 21
381.750000
  0
LINE
  8
CSLAYER1
  6
CONTINUOUS
 62
     6
 10
332.391538
 20
383.750000
 11
282.011538
 21
383.750000
  0
ARC
  8
CSLAYER1
  6
CONTINUOUS
 62
     6
 10
282.031538
 20
386.750000
 40
3.000000
 50
194.870000
 51
270.000000
  0
LINE
  8
CSLAYER1
  6
CONTINUOUS
 62
     6
 10
279.131538
 20
385.990000
 11
276.071538
 21
397.530000
  0
ARC
  8
CSLAYER1
  6
CONTINUOUS
 62
     6
 10
273.171538
 20
396.750000
 40
3.000000
 50
14.870000
 51
90.000000
  0
LINE
  8
CSLAYER1
  6
CONTINUOUS
 62
     6
 10
270.431332
 20
397.530000
 11
270.851332
 21
395.990000
  0
ARC
  8
CSLAYER1
  6
CONTINUOUS
 62
     6
 10
273.751332
 20
396.750000
 40
3.000000
 50
194.940000
 51
270.000000
  0
LINE
  8
CSLAYER1
  6
CONTINUOUS
 62
     6
 10
273.751332
 20
393.750000
 11
277.073861
 21
393.750000
  0
ARC
  8
CSLAYER1
  6
CONTINUOUS
 62
     6
 10
267.531332
 20
396.750000
 40
3.000000
 50
14.940000
 51
90.000000
  0
LINE
  8
CSLAYER1
  6
CONTINUOUS
 62
     6
 10
256.211538
 20
399.750000
 11
361.951538
 21
399.750000
  0
ARC
  8
CSLAYER1
  6
CONTINUOUS
 62
     6
 10
361.951538
 20
397.750000
 40
2.000000
 50
0.000000
 51
90.000000
  0
LINE
  8
CSLAYER1
  6
CONTINUOUS
 62
     6
 10
364.951538
 20
399.790000
 11
372.211538
 21
399.790000
  0
LINE
  8
CSLAYER1
  6
CONTINUOUS
 62
     6
 10
372.211538
 20
384.250000
 11
364.951538
 21
384.250000
  0
LINE
  8
CSLAYER1
  6
CONTINUOUS
 62
     6
 10
363.951538
 20
376.250000
 11
363.951538
 21
487.250000
  0
ARC
  8
CSLAYER1
  6
CONTINUOUS
 62
     6
 10
365.951538
 20
487.250000
 40
2.000000
 50
90.000000
 51
180.000000
  0
LINE
  8
CSLAYER1
  6
CONTINUOUS
 62
     6
 10
365.951538
 20
489.250000
 11
372.211538
 21
489.250000
  0
LINE
  8
CSLAYER1
  6
CONTINUOUS
 62
     6
 10
372.211538
 20
489.250000
 11
413.831538
 21
490.350000
  0
ARC
  8
CSLAYER1
  6
CONTINUOUS
 62
     6
 10
413.711538
 20
495.350000
 40
5.000000
 50
271.500000
 51
360.000000
  0
ARC
  8
CSLAYER1
  6
CONTINUOUS
 62
     6
 10
413.711538
 20
495.990000
 40
5.000000
 50
271.500000
 51
360.000000
  0
LINE
  8
CSLAYER1
  6
CONTINUOUS
 62
     6
 10
413.831538
 20
490.990000
 11
411.131538
 21
490.910000
  0
ARC
  8
CSLAYER1
  6
CONTINUOUS
 62
     6
 10
411.211538
 20
487.910000
 40
3.000000
 50
91.500000
 51
129.330719
  0
ARC
  8
CSLAYER1
  6
CONTINUOUS
 62
     6
 10
417.711538
 20
483.330000
 40
2.000000
 50
104.480000
 51
180.000000
  0
LINE
  8
CSLAYER1
  6
CONTINUOUS
 62
     6
 10
415.711538
 20
483.330000
 11
415.711538
 21
472.070000
  0
ARC
  8
CSLAYER1
  6
CONTINUOUS
 62
     6
 10
417.711538
 20
472.070000
 40
2.000000
 50
180.000000
 51
255.530000
  0
ARC
  8
CSLAYER1
  6
CONTINUOUS
 62
     6
 10
416.711538
 20
468.190000
 40
2.000000
 50
0.000000
 51
75.530000
  0
ARC
  8
CSLAYER1
  6
CONTINUOUS
 62
     6
 10
413.711538
 20
451.740000
 40
5.000000
 50
270.000000
 51
360.000000
  0
LINE
  8
CSLAYER1
  6
CONTINUOUS
 62
     6
 10
413.711538
 20
446.760000
 11
411.611538
 21
446.760000
  0
ARC
  8
CSLAYER1
  6
CONTINUOUS
 62
     6
 10
411.611538
 20
443.740000
 40
3.000000
 50
90.000000
 51
180.000000
  0
LINE
  8
CSLAYER1
  6
CONTINUOUS
 62
     6
 10
408.611538
 20
443.740000
 11
408.611538
 21
419.760000
  0
ARC
  8
CSLAYER1
  6
CONTINUOUS
 62
     6
 10
411.611538
 20
419.760000
 40
3.000000
 50
180.000000
 51
270.000000
  0
LINE
  8
CSLAYER1
  6
CONTINUOUS
 62
     6
 10
411.611538
 20
416.740000
 11
413.711538
 21
416.740000
  0
ARC
  8
CSLAYER1
  6
CONTINUOUS
 62
     6
 10
413.711538
 20
411.760000
 40
5.000000
 50
0.000000
 51
90.000000
  0
ARC
  8
CSLAYER1
  6
CONTINUOUS
 62
     6
 10
405.851538
 20
418.060000
 40
3.000000
 50
16.430000
 51
88.500000
  0
LINE
  8
CSLAYER1
  6
CONTINUOUS
 62
     6
 10
405.931538
 20
421.060000
 11
382.131538
 21
421.680000
  0
ARC
  8
CSLAYER1
  6
CONTINUOUS
 62
     6
 10
382.211538
 20
424.680000
 40
3.000000
 50
180.000000
 51
268.500000
  0
LINE
  8
CSLAYER1
  6
CONTINUOUS
 62
     6
 10
379.211538
 20
424.680000
 11
379.211538
 21
438.820000
  0
ARC
  8
CSLAYER1
  6
CONTINUOUS
 62
     6
 10
382.211538
 20
438.820000
 40
3.000000
 50
91.500000
 51
180.000000
  0
LINE
  8
CSLAYER1
  6
CONTINUOUS
 62
     6
 10
382.131538
 20
441.820000
 11
405.931538
 21
442.440000
  0
ARC
  8
CSLAYER1
  6
CONTINUOUS
 62
     6
 10
405.851538
 20
445.440000
 40
3.000000
 50
271.500000
 51
343.570000
  0
ARC
  8
CSLAYER1
  6
CONTINUOUS
 62
     6
 10
416.711538
 20
395.310000
 40
2.000000
 50
284.470000
 51
360.000000
  0
ARC
  8
CSLAYER1
  6
CONTINUOUS
 62
     6
 10
417.711538
 20
391.430000
 40
2.000000
 50
104.470000
 51
180.000000
  0
LINE
  8
CSLAYER1
  6
CONTINUOUS
 62
     6
 10
415.711538
 20
391.430000
 11
415.711538
 21
380.170000
  0
ARC
  8
CSLAYER1
  6
CONTINUOUS
 62
     6
 10
417.711538
 20
380.170000
 40
2.000000
 50
180.000000
 51
255.520000
  0
ARC
  8
CSLAYER1
  6
CONTINUOUS
 62
     6
 10
416.711538
 20
376.310000
 40
2.000000
 50
0.000000
 51
75.520000
  0
ARC
  8
CSLAYER1
  6
CONTINUOUS
 62
     6
 10
413.711538
 20
368.150000
 40
5.000000
 50
0.000000
 51
88.500000
  0
ARC
  8
CSLAYER1
  6
CONTINUOUS
 62
     6
 10
413.711538
 20
367.510000
 40
5.000000
 50
0.000000
 51
88.500000
  0
LINE
  8
CSLAYER1
  6
CONTINUOUS
 62
     6
 10
413.831538
 20
372.510000
 11
411.131538
 21
372.590000
  0
ARC
  8
CSLAYER1
  6
CONTINUOUS
 62
     6
 10
411.211538
 20
375.590000
 40
3.000000
 50
230.669281
 51
268.500000
  0
LINE
  8
CSLAYER1
  6
CONTINUOUS
 62
     6
 10
413.831538
 20
373.150000
 11
372.211538
 21
374.250000
  0
LINE
  8
CSLAYER1
  6
CONTINUOUS
 62
     6
 10
372.211538
 20
374.250000
 11
372.211538
 21
489.250000
  0
LINE
  8
CSLAYER1
  6
CONTINUOUS
 62
     6
 10
372.211538
 20
479.250000
 11
364.951538
 21
479.250000
  0
ARC
  8
CSLAYER1
  6
CONTINUOUS
 62
     6
 10
361.951538
 20
465.750000
 40
2.000000
 50
270.000000
 51
360.000000
  0
LINE
  8
CSLAYER1
  6
CONTINUOUS
 62
     6
 10
365.091538
 20
463.690000
 11
372.211538
 21
463.690000
  0
CIRCLE
  8
CSLAYER1
  6
CONTINUOUS
 62
     6
 10
342.211538
 20
476.750000
 40
5.500000
  0
LINE
  8
CSLAYER1
  6
CONTINUOUS
 62
     6
 10
322.211538
 20
479.750000
 11
322.211538
 21
488.199719
  0
LINE
  8
CSLAYER1
  6
CONTINUOUS
 62
     6
 10
327.286640
 20
461.750000
 11
327.286640
 21
401.750000
  0
LINE
  8
CSLAYER1
  6
CONTINUOUS
 62
     6
 10
338.351538
 20
397.530000
 11
335.291538
 21
385.990000
  0
ARC
  8
CSLAYER1
  6
CONTINUOUS
 62
     6
 10
332.391538
 20
386.750000
 40
3.000000
 50
270.000000
 51
345.130000
  0
CIRCLE
  8
CSLAYER1
  6
CONTINUOUS
 62
     6
 10
342.211538
 20
386.750000
 40
5.500000
  0
ARC
  8
CSLAYER1
  6
CONTINUOUS
 62
     6
 10
340.671745
 20
396.750000
 40
3.000000
 50
270.000000
 51
345.060000
  0
LINE
  8
CSLAYER1
  6
CONTINUOUS
 62
     6
 10
343.571745
 20
395.990000
 11
343.991745
 21
397.530000
  0
ARC
  8
CSLAYER1
  6
CONTINUOUS
 62
     6
 10
346.891745
 20
396.750000
 40
3.000000
 50
90.000000
 51
165.060000
  0
ARC
  8
CSLAYER1
  6
CONTINUOUS
 62
     6
 10
341.251538
 20
396.750000
 40
3.000000
 50
90.000000
 51
165.130000
  0
LINE
  8
CSLAYER1
  6
CONTINUOUS
 62
     6
 10
337.349216
 20
393.750000
 11
340.671745
 21
393.750000
  0
ARC
  8
CSLAYER1
  6
CONTINUOUS
 62
     6
 10
365.951538
 20
376.250000
 40
2.000000
 50
180.000000
 51
270.000000
  0
LINE
  8
CSLAYER1
  6
CONTINUOUS
 62
     6
 10
365.951538
 20
374.250000
 11
372.211538
 21
374.250000
  0
LINE
  8
CSLAYER1
  6
CONTINUOUS
 62
     6
 10
418.711538
 20
354.890000
 11
418.711538
 21
508.610000
  0
ARC
  8
CSLAYER1
  6
CONTINUOUS
 62
     6
 10
421.711538
 20
508.610000
 40
3.000000
 50
91.500000
 51
180.000000
  0
LINE
  8
CSLAYER1
  6
CONTINUOUS
 62
     6
 10
421.631538
 20
511.610000
 11
426.711538
 21
511.750000
  0
LINE
  8
CSLAYER1
  6
CONTINUOUS
 62
     6
 10
426.711538
 20
511.750000
 11
439.711538
 21
511.750000
  0
LINE
  8
CSLAYER1
  6
CONTINUOUS
 62
     6
 10
439.711538
 20
511.750000
 11
439.711538
 21
351.750000
  0
LINE
  8
CSLAYER1
  6
CONTINUOUS
 62
     6
 10
439.711538
 20
351.750000
 11
426.711538
 21
351.750000
  0
LINE
  8
CSLAYER1
  6
CONTINUOUS
 62
     6
 10
426.711538
 20
351.750000
 11
426.711538
 21
511.750000
  0
LINE
  8
CSLAYER1
  6
CONTINUOUS
 62
     6
 10
439.711538
 20
485.411941
 11
441.711538
 21
485.411941
  0
LINE
  8
CSLAYER1
  6
CONTINUOUS
 62
     6
 10
441.711538
 20
485.411941
 11
441.711538
 21
470.011941
  0
LINE
  8
CSLAYER1
  6
CONTINUOUS
 62
     6
 10
441.711538
 20
470.011941
 11
439.711538
 21
470.011941
  0
LINE
  8
CSLAYER1
  6
CONTINUOUS
 62
     6
 10
441.711538
 20
471.211941
 11
447.011538
 21
471.211941
  0
LINE
  8
CSLAYER1
  6
CONTINUOUS
 62
     6
 10
447.011538
 20
471.211941
 11
447.011538
 21
484.211941
  0
LINE
  8
CSLAYER1
  6
CONTINUOUS
 62
     6
 10
447.011538
 20
484.211941
 11
441.711538
 21
484.211941
  0
ARC
  8
CSLAYER1
  6
CONTINUOUS
 62
     6
 10
436.255985
 20
480.961941
 40
10.755553
 50
-17.587954
 51
17.587954
  0
ARC
  8
CSLAYER1
  6
CONTINUOUS
 62
     6
 10
436.255985
 20
474.461941
 40
10.755553
 50
-17.587954
 51
17.587954
  0
LINE
  8
CSLAYER1
  6
CONTINUOUS
 62
     6
 10
447.011538
 20
476.750000
 11
524.711538
 21
476.750000
  0
LINE
  8
CSLAYER1
  6
CONTINUOUS
 62
     6
 10
524.711538
 20
476.750000
 11
524.711538
 21
386.750000
  0
LINE
  8
CSLAYER1
  6
CONTINUOUS
 62
     6
 10
524.711538
 20
386.750000
 11
447.011538
 21
386.750000
  0
ARC
  8
CSLAYER1
  6
CONTINUOUS
 62
     6
 10
436.255985
 20
382.538059
 40
10.755553
 50
-17.587954
 51
17.587954
  0
LINE
  8
CSLAYER1
  6
CONTINUOUS
 62
     6
 10
447.011538
 20
379.288059
 11
441.711538
 21
379.288059
  0
LINE
  8
CSLAYER1
  6
CONTINUOUS
 62
     6
 10
441.711538
 20
378.088059
 11
441.711538
 21
393.488059
  0
LINE
  8
CSLAYER1
  6
CONTINUOUS
 62
     6
 10
441.711538
 20
393.488059
 11
439.711538
 21
393.488059
  0
LINE
  8
CSLAYER1
  6
CONTINUOUS
 62
     6
 10
441.711538
 20
392.288059
 11
447.011538
 21
392.288059
  0
LINE
  8
CSLAYER1
  6
CONTINUOUS
 62
     6
 10
447.011538
 20
392.288059
 11
447.011538
 21
379.288059
  0
LINE
  8
CSLAYER1
  6
CONTINUOUS
 62
     6
 10
441.711538
 20
378.088059
 11
439.711538
 21
378.088059
  0
LINE
  8
CSLAYER1
  6
CONTINUOUS
 62
     6
 10
439.711538
 20
384.556059
 11
441.711538
 21
385.172059
  0
LINE
  8
CSLAYER1
  6
CONTINUOUS
 62
     6
 10
441.711538
 20
385.788059
 11
446.508762
 21
385.788059
  0
ARC
  8
CSLAYER1
  6
CONTINUOUS
 62
     6
 10
436.255985
 20
389.038059
 40
10.755553
 50
-17.587954
 51
17.587954
  0
LINE
  8
CSLAYER1
  6
CONTINUOUS
 62
     6
 10
441.711538
 20
387.020059
 11
439.711538
 21
386.404059
  0
LINE
  8
CSLAYER1
  6
CONTINUOUS
 62
     6
 10
426.711538
 20
351.750000
 11
421.631538
 21
351.890000
  0
ARC
  8
CSLAYER1
  6
CONTINUOUS
 62
     6
 10
421.711538
 20
354.890000
 40
3.000000
 50
180.000000
 51
268.500000
  0
LINE
  8
CSLAYER1
  6
CONTINUOUS
 62
     6
 10
292.211538
 20
375.300281
 11
292.211538
 21
383.750000
  0
LINE
  8
CSLAYER1
  6
CONTINUOUS
 62
     6
 10
287.136437
 20
401.750000
 11
287.136437
 21
461.750000
  0
LINE
  8
CSLAYER1
  6
CONTINUOUS
 62
     6
 10
292.211538
 20
479.750000
 11
292.211538
 21
488.199719
  0
CIRCLE
  8
CSLAYER1
  6
CONTINUOUS
 62
     6
 10
272.211538
 20
476.750000
 40
5.500000
  0
ARC
  8
CSLAYER1
  6
CONTINUOUS
 62
     6
 10
416.711538
 20
487.190000
 40
2.000000
 50
284.480000
 51
360.000000
  0
LINE
  8
CSLAYER1
  6
CONTINUOUS
 62
     6
 10
439.711538
 20
478.327941
 11
441.711538
 21
478.943941
  0
LINE
  8
CSLAYER1
  6
CONTINUOUS
 62
     6
 10
441.711538
 20
477.711941
 11
446.508762
 21
477.711941
  0
LINE
  8
CSLAYER1
  6
CONTINUOUS
 62
     6
 10
441.711538
 20
477.095941
 11
439.711538
 21
476.479941
  0
LINE
  8
CSLAYER1
  6
CONTINUOUS
 62
     6
 10
524.711538
 20
475.749969
 11
526.186575
 21
475.749969
  0
LINE
  8
CSLAYER1
  6
CONTINUOUS
 62
     6
 10
526.617422
 20
475.854462
 11
525.919790
 21
469.217010
  0
ARC
  8
CSLAYER1
  6
CONTINUOUS
 62
     6
 10
524.925284
 20
469.321503
 40
1.000000
 50
269.999999
 51
353.999974
  0
ARC
  8
CSLAYER1
  6
CONTINUOUS
 62
     6
 10
524.974905
 20
473.793793
 40
1.000000
 50
269.999999
 51
353.999974
  0
LINE
  8
CSLAYER1
  6
CONTINUOUS
 62
     6
 10
525.969473
 20
473.689240
 11
526.617422
 21
479.854462
  0
ARC
  8
CSLAYER1
  6
CONTINUOUS
 62
     6
 10
527.611990
 20
479.749969
 40
1.000000
 50
89.999984
 51
173.999997
  0
LINE
  8
CSLAYER1
  6
CONTINUOUS
 62
     6
 10
527.611990
 20
480.749969
 11
563.811148
 21
480.749969
  0
ARC
  8
CSLAYER1
  6
CONTINUOUS
 62
     6
 10
563.811148
 20
479.749969
 40
1.000000
 50
6.000002
 51
89.999997
  0
LINE
  8
CSLAYER1
  6
CONTINUOUS
 62
     6
 10
564.805655
 20
479.854462
 11
565.453665
 21
473.689240
  0
ARC
  8
CSLAYER1
  6
CONTINUOUS
 62
     6
 10
566.448172
 20
473.793793
 40
1.000000
 50
186.000011
 51
269.999999
  0
LINE
  8
CSLAYER1
  6
CONTINUOUS
 62
     6
 10
565.237112
 20
475.749969
 11
576.711538
 21
475.749969
  0
LINE
  8
CSLAYER1
  6
CONTINUOUS
 62
     6
 10
576.711538
 20
475.749969
 11
577.711538
 21
474.749969
  0
LINE
  8
CSLAYER1
  6
CONTINUOUS
 62
     6
 10
577.711538
 20
474.749969
 11
577.711538
 21
388.749969
  0
LINE
  8
CSLAYER1
  6
CONTINUOUS
 62
     6
 10
577.711538
 20
388.749969
 11
576.711538
 21
387.749969
  0
LINE
  8
CSLAYER1
  6
CONTINUOUS
 62
     6
 10
576.711538
 20
387.749969
 11
565.237112
 21
387.749969
  0
ARC
  8
CSLAYER1
  6
CONTINUOUS
 62
     6
 10
563.811148
 20
387.749969
 40
1.000000
 50
269.999999
 51
353.999988
  0
LINE
  8
CSLAYER1
  6
CONTINUOUS
 62
     6
 10
563.811148
 20
386.749969
 11
527.611990
 21
386.749969
  0
ARC
  8
CSLAYER1
  6
CONTINUOUS
 62
     6
 10
527.611990
 20
387.749969
 40
1.000000
 50
185.999983
 51
269.999999
  0
LINE
  8
CSLAYER1
  6
CONTINUOUS
 62
     6
 10
526.617422
 20
387.645416
 11
525.919790
 21
394.282928
  0
ARC
  8
CSLAYER1
  6
CONTINUOUS
 62
     6
 10
524.925284
 20
394.178375
 40
1.000000
 50
6.000016
 51
89.999991
  0
ARC
  8
CSLAYER1
  6
CONTINUOUS
 62
     6
 10
524.974905
 20
389.706146
 40
1.000000
 50
6.000016
 51
89.999991
  0
LINE
  8
CSLAYER1
  6
CONTINUOUS
 62
     6
 10
525.969473
 20
389.810699
 11
526.617422
 21
383.645416
  0
ARC
  8
CSLAYER1
  6
CONTINUOUS
 62
     6
 10
527.611990
 20
383.749969
 40
1.000000
 50
185.999983
 51
269.999999
  0
LINE
  8
CSLAYER1
  6
CONTINUOUS
 62
     6
 10
527.611990
 20
382.749969
 11
563.811148
 21
382.749969
  0
ARC
  8
CSLAYER1
  6
CONTINUOUS
 62
     6
 10
563.811148
 20
383.749969
 40
1.000000
 50
269.999999
 51
353.999988
  0
LINE
  8
CSLAYER1
  6
CONTINUOUS
 62
     6
 10
564.805655
 20
383.645416
 11
565.453665
 21
389.810699
  0
ARC
  8
CSLAYER1
  6
CONTINUOUS
 62
     6
 10
566.448172
 20
389.706146
 40
1.000000
 50
89.999991
 51
173.999979
  0
LINE
  8
CSLAYER1
  6
CONTINUOUS
 62
     6
 10
564.805655
 20
387.645416
 11
565.503287
 21
394.282928
  0
ARC
  8
CSLAYER1
  6
CONTINUOUS
 62
     6
 10
566.497854
 20
394.178375
 40
1.000000
 50
89.999991
 51
173.999979
  0
LINE
  8
CSLAYER1
  6
CONTINUOUS
 62
     6
 10
562.025564
 20
395.356781
 11
530.068472
 21
395.356781
  0
LINE
  8
CSLAYER1
  6
CONTINUOUS
 62
     6
 10
526.186575
 20
387.749969
 11
524.711538
 21
387.749969
  0
LINE
  8
CSLAYER1
  6
CONTINUOUS
 62
     6
 10
576.711538
 20
387.749969
 11
576.711538
 21
475.749969
  0
ARC
  8
CSLAYER1
  6
CONTINUOUS
 62
     6
 10
563.811148
 20
475.749969
 40
1.000000
 50
6.000002
 51
89.999997
  0
LINE
  8
CSLAYER1
  6
CONTINUOUS
 62
     6
 10
563.811148
 20
476.749969
 11
527.611990
 21
476.749969
  0
ARC
  8
CSLAYER1
  6
CONTINUOUS
 62
     6
 10
527.611990
 20
475.749969
 40
1.000000
 50
89.999984
 51
173.999997
  0
LINE
  8
CSLAYER1
  6
CONTINUOUS
 62
     6
 10
530.068472
 20
468.143158
 11
562.025564
 21
468.143158
  0
LINE
  8
CSLAYER1
  6
CONTINUOUS
 62
     6
 10
565.503287
 20
469.217010
 11
564.805655
 21
475.854462
  0
ARC
  8
CSLAYER1
  6
CONTINUOUS
 62
     6
 10
566.497854
 20
469.321503
 40
1.000000
 50
186.000011
 51
269.999999
  0
CIRCLE
  8
CSLAYER1
  6
CONTINUOUS
 62
     6
 10
272.211538
 20
386.750000
 40
5.500000
  0
ARC
  8
CSLAYER1
  6
CONTINUOUS
 62
     6
 10
256.211538
 20
401.750000
 40
2.000000
 50
180.000000
 51
270.000000
  0
LINE
  8
CSLAYER1
  6
CONTINUOUS
 62
     6
 10
426.711538
 20
287.696154
 11
426.711538
 21
139.696154
  0
LINE
  8
CSLAYER1
  6
CONTINUOUS
 62
     6
 10
561.074891
 20
148.369480
 11
560.953319
 21
148.561368
  0
LINE
  8
CSLAYER1
  6
CONTINUOUS
 62
     6
 10
560.953319
 20
148.561368
 11
560.834775
 21
148.754281
  0
LINE
  8
CSLAYER1
  6
CONTINUOUS
 62
     6
 10
560.834775
 20
148.754281
 11
560.718977
 21
148.946861
  0
LINE
  8
CSLAYER1
  6
CONTINUOUS
 62
     6
 10
560.718977
 20
148.946861
 11
560.605644
 21
149.137752
  0
LINE
  8
CSLAYER1
  6
CONTINUOUS
 62
     6
 10
560.605644
 20
149.137752
 11
560.494496
 21
149.325597
  0
LINE
  8
CSLAYER1
  6
CONTINUOUS
 62
     6
 10
560.494496
 20
149.325597
 11
560.385250
 21
149.509040
  0
LINE
  8
CSLAYER1
  6
CONTINUOUS
 62
     6
 10
560.385250
 20
149.509040
 11
560.277625
 21
149.686724
  0
LINE
  8
CSLAYER1
  6
CONTINUOUS
 62
     6
 10
560.277625
 20
149.686724
 11
560.172300
 21
149.852411
  0
LINE
  8
CSLAYER1
  6
CONTINUOUS
 62
     6
 10
560.172300
 20
149.852411
 11
560.057571
 21
150.022300
  0
LINE
  8
CSLAYER1
  6
CONTINUOUS
 62
     6
 10
560.057571
 20
150.022300
 11
559.935270
 21
150.194963
  0
LINE
  8
CSLAYER1
  6
CONTINUOUS
 62
     6
 10
559.935270
 20
150.194963
 11
559.807229
 21
150.368973
  0
LINE
  8
CSLAYER1
  6
CONTINUOUS
 62
     6
 10
559.807229
 20
150.368973
 11
559.675276
 21
150.542903
  0
LINE
  8
CSLAYER1
  6
CONTINUOUS
 62
     6
 10
559.675276
 20
150.542903
 11
559.541245
 21
150.715324
  0
LINE
  8
CSLAYER1
  6
CONTINUOUS
 62
     6
 10
559.541245
 20
150.715324
 11
559.406964
 21
150.884809
  0
LINE
  8
CSLAYER1
  6
CONTINUOUS
 62
     6
 10
559.406964
 20
150.884809
 11
559.274265
 21
151.049930
  0
LINE
  8
CSLAYER1
  6
CONTINUOUS
 62
     6
 10
559.274265
 20
151.049930
 11
559.144979
 21
151.209261
  0
LINE
  8
CSLAYER1
  6
CONTINUOUS
 62
     6
 10
559.144979
 20
151.209261
 11
559.020937
 21
151.361373
  0
LINE
  8
CSLAYER1
  6
CONTINUOUS
 62
     6
 10
559.020937
 20
151.361373
 11
558.851679
 21
151.568974
  0
ARC
  8
CSLAYER1
  6
CONTINUOUS
 62
     6
 10
559.933929
 20
151.139202
 40
1.164461
 50
93.975995
 51
158.341495
  0
ARC
  8
CSLAYER1
  6
CONTINUOUS
 62
     6
 10
560.899584
 20
151.789955
 40
1.164461
 50
93.975995
 51
153.975995
  0
ARC
  8
CSLAYER1
  6
CONTINUOUS
 62
     6
 10
559.772445
 20
153.462518
 40
1.164461
 50
273.975995
 51
333.975995
  0
LINE
  8
CSLAYER1
  6
CONTINUOUS
 62
     6
 10
560.818855
 20
152.951617
 11
560.940037
 21
152.803703
  0
LINE
  8
CSLAYER1
  6
CONTINUOUS
 62
     6
 10
560.940037
 20
152.803703
 11
561.069047
 21
152.646304
  0
LINE
  8
CSLAYER1
  6
CONTINUOUS
 62
     6
 10
561.069047
 20
152.646304
 11
561.203848
 21
152.480992
  0
LINE
  8
CSLAYER1
  6
CONTINUOUS
 62
     6
 10
561.203848
 20
152.480992
 11
561.342405
 21
152.309339
  0
LINE
  8
CSLAYER1
  6
CONTINUOUS
 62
     6
 10
561.342405
 20
152.309339
 11
561.482681
 21
152.132918
  0
LINE
  8
CSLAYER1
  6
CONTINUOUS
 62
     6
 10
561.482681
 20
152.132918
 11
561.622639
 21
151.953300
  0
LINE
  8
CSLAYER1
  6
CONTINUOUS
 62
     6
 10
561.622639
 20
151.953300
 11
561.760242
 21
151.772056
  0
LINE
  8
CSLAYER1
  6
CONTINUOUS
 62
     6
 10
561.760242
 20
151.772056
 11
561.893454
 21
151.590760
  0
LINE
  8
CSLAYER1
  6
CONTINUOUS
 62
     6
 10
561.893454
 20
151.590760
 11
562.020238
 21
151.410983
  0
LINE
  8
CSLAYER1
  6
CONTINUOUS
 62
     6
 10
562.020238
 20
151.410983
 11
562.138557
 21
151.234297
  0
LINE
  8
CSLAYER1
  6
CONTINUOUS
 62
     6
 10
562.138557
 20
151.234297
 11
562.246375
 21
151.062273
  0
LINE
  8
CSLAYER1
  6
CONTINUOUS
 62
     6
 10
562.246375
 20
151.062273
 11
562.344014
 21
150.898512
  0
LINE
  8
CSLAYER1
  6
CONTINUOUS
 62
     6
 10
562.344014
 20
150.898512
 11
562.443644
 21
150.729245
  0
LINE
  8
CSLAYER1
  6
CONTINUOUS
 62
     6
 10
562.443644
 20
150.729245
 11
562.545470
 21
150.555774
  0
LINE
  8
CSLAYER1
  6
CONTINUOUS
 62
     6
 10
562.545470
 20
150.555774
 11
562.649700
 21
150.379401
  0
LINE
  8
CSLAYER1
  6
CONTINUOUS
 62
     6
 10
562.649700
 20
150.379401
 11
562.756540
 21
150.201428
  0
LINE
  8
CSLAYER1
  6
CONTINUOUS
 62
     6
 10
562.756540
 20
150.201428
 11
562.866197
 21
150.023159
  0
LINE
  8
CSLAYER1
  6
CONTINUOUS
 62
     6
 10
562.866197
 20
150.023159
 11
562.978878
 21
149.845894
  0
LINE
  8
CSLAYER1
  6
CONTINUOUS
 62
     6
 10
562.978878
 20
149.845894
 11
563.094788
 21
149.670936
  0
LINE
  8
CSLAYER1
  6
CONTINUOUS
 62
     6
 10
563.094788
 20
149.670936
 11
563.214136
 21
149.499588
  0
LINE
  8
CSLAYER1
  6
CONTINUOUS
 62
     6
 10
563.214136
 20
149.499588
 11
563.337126
 21
149.333152
  0
LINE
  8
CSLAYER1
  6
CONTINUOUS
 62
     6
 10
563.337126
 20
149.333152
 11
563.463966
 21
149.172930
  0
LINE
  8
CSLAYER1
  6
CONTINUOUS
 62
     6
 10
563.463966
 20
149.172930
 11
563.562787
 21
149.056417
  0
LINE
  8
CSLAYER1
  6
CONTINUOUS
 62
     6
 10
563.562787
 20
149.056417
 11
563.665000
 21
148.942658
  0
LINE
  8
CSLAYER1
  6
CONTINUOUS
 62
     6
 10
563.665000
 20
148.942658
 11
563.770264
 21
148.831377
  0
LINE
  8
CSLAYER1
  6
CONTINUOUS
 62
     6
 10
563.770264
 20
148.831377
 11
563.878241
 21
148.722299
  0
LINE
  8
CSLAYER1
  6
CONTINUOUS
 62
     6
 10
563.878241
 20
148.722299
 11
563.988592
 21
148.615148
  0
LINE
  8
CSLAYER1
  6
CONTINUOUS
 62
     6
 10
563.988592
 20
148.615148
 11
564.100977
 21
148.509650
  0
LINE
  8
CSLAYER1
  6
CONTINUOUS
 62
     6
 10
564.100977
 20
148.509650
 11
564.215058
 21
148.405528
  0
LINE
  8
CSLAYER1
  6
CONTINUOUS
 62
     6
 10
564.215058
 20
148.405528
 11
564.330496
 21
148.302507
  0
LINE
  8
CSLAYER1
  6
CONTINUOUS
 62
     6
 10
564.330496
 20
148.302507
 11
564.446951
 21
148.200313
  0
LINE
  8
CSLAYER1
  6
CONTINUOUS
 62
     6
 10
564.446951
 20
148.200313
 11
564.542977
 21
148.116985
  0
LINE
  8
CSLAYER1
  6
CONTINUOUS
 62
     6
 10
564.542977
 20
148.116985
 11
564.473830
 21
148.082456
  0
LINE
  8
CSLAYER1
  6
CONTINUOUS
 62
     6
 10
564.473830
 20
148.082456
 11
564.389354
 21
148.034840
  0
LINE
  8
CSLAYER1
  6
CONTINUOUS
 62
     6
 10
564.389354
 20
148.034840
 11
564.303421
 21
147.981090
  0
LINE
  8
CSLAYER1
  6
CONTINUOUS
 62
     6
 10
564.303421
 20
147.981090
 11
564.217302
 21
147.921865
  0
LINE
  8
CSLAYER1
  6
CONTINUOUS
 62
     6
 10
564.217302
 20
147.921865
 11
564.132266
 21
147.857828
  0
LINE
  8
CSLAYER1
  6
CONTINUOUS
 62
     6
 10
564.132266
 20
147.857828
 11
564.049584
 21
147.789637
  0
LINE
  8
CSLAYER1
  6
CONTINUOUS
 62
     6
 10
564.049584
 20
147.789637
 11
563.970524
 21
147.717954
  0
LINE
  8
CSLAYER1
  6
CONTINUOUS
 62
     6
 10
563.970524
 20
147.717954
 11
563.896358
 21
147.643438
  0
LINE
  8
CSLAYER1
  6
CONTINUOUS
 62
     6
 10
563.896358
 20
147.643438
 11
563.828356
 21
147.566751
  0
LINE
  8
CSLAYER1
  6
CONTINUOUS
 62
     6
 10
563.828356
 20
147.566751
 11
563.767786
 21
147.488552
  0
LINE
  8
CSLAYER1
  6
CONTINUOUS
 62
     6
 10
563.767786
 20
147.488552
 11
563.715919
 21
147.409502
  0
LINE
  8
CSLAYER1
  6
CONTINUOUS
 62
     6
 10
563.715919
 20
147.409502
 11
563.700013
 21
147.381896
  0
LINE
  8
CSLAYER1
  6
CONTINUOUS
 62
     6
 10
563.700013
 20
147.381896
 11
563.684360
 21
147.353202
  0
LINE
  8
CSLAYER1
  6
CONTINUOUS
 62
     6
 10
563.684360
 20
147.353202
 11
563.668917
 21
147.323589
  0
LINE
  8
CSLAYER1
  6
CONTINUOUS
 62
     6
 10
563.668917
 20
147.323589
 11
563.653644
 21
147.293222
  0
LINE
  8
CSLAYER1
  6
CONTINUOUS
 62
     6
 10
563.653644
 20
147.293222
 11
563.638499
 21
147.262271
  0
LINE
  8
CSLAYER1
  6
CONTINUOUS
 62
     6
 10
563.638499
 20
147.262271
 11
563.623439
 21
147.230901
  0
LINE
  8
CSLAYER1
  6
CONTINUOUS
 62
     6
 10
563.623439
 20
147.230901
 11
563.608422
 21
147.199279
  0
LINE
  8
CSLAYER1
  6
CONTINUOUS
 62
     6
 10
563.608422
 20
147.199279
 11
563.593406
 21
147.167574
  0
LINE
  8
CSLAYER1
  6
CONTINUOUS
 62
     6
 10
563.593406
 20
147.167574
 11
563.578351
 21
147.135952
  0
LINE
  8
CSLAYER1
  6
CONTINUOUS
 62
     6
 10
563.578351
 20
147.135952
 11
563.563213
 21
147.104580
  0
LINE
  8
CSLAYER1
  6
CONTINUOUS
 62
     6
 10
563.563213
 20
147.104580
 11
563.547950
 21
147.073626
  0
LINE
  8
CSLAYER1
  6
CONTINUOUS
 62
     6
 10
563.547950
 20
147.073626
 11
563.507129
 21
146.995489
  0
LINE
  8
CSLAYER1
  6
CONTINUOUS
 62
     6
 10
563.507129
 20
146.995489
 11
563.463794
 21
146.918956
  0
LINE
  8
CSLAYER1
  6
CONTINUOUS
 62
     6
 10
563.463794
 20
146.918956
 11
563.418195
 21
146.843868
  0
LINE
  8
CSLAYER1
  6
CONTINUOUS
 62
     6
 10
563.418195
 20
146.843868
 11
563.370585
 21
146.770063
  0
LINE
  8
CSLAYER1
  6
CONTINUOUS
 62
     6
 10
563.370585
 20
146.770063
 11
563.321215
 21
146.697382
  0
LINE
  8
CSLAYER1
  6
CONTINUOUS
 62
     6
 10
563.321215
 20
146.697382
 11
563.270337
 21
146.625664
  0
LINE
  8
CSLAYER1
  6
CONTINUOUS
 62
     6
 10
563.270337
 20
146.625664
 11
563.218201
 21
146.554747
  0
LINE
  8
CSLAYER1
  6
CONTINUOUS
 62
     6
 10
563.218201
 20
146.554747
 11
563.165059
 21
146.484473
  0
LINE
  8
CSLAYER1
  6
CONTINUOUS
 62
     6
 10
563.165059
 20
146.484473
 11
563.111163
 21
146.414680
  0
LINE
  8
CSLAYER1
  6
CONTINUOUS
 62
     6
 10
563.111163
 20
146.414680
 11
563.056764
 21
146.345208
  0
LINE
  8
CSLAYER1
  6
CONTINUOUS
 62
     6
 10
563.056764
 20
146.345208
 11
563.004691
 21
146.279165
  0
LINE
  8
CSLAYER1
  6
CONTINUOUS
 62
     6
 10
563.004691
 20
146.279165
 11
562.877344
 21
146.388466
  0
LINE
  8
CSLAYER1
  6
CONTINUOUS
 62
     6
 10
562.877344
 20
146.388466
 11
562.740628
 21
146.506499
  0
LINE
  8
CSLAYER1
  6
CONTINUOUS
 62
     6
 10
562.740628
 20
146.506499
 11
562.604741
 21
146.625203
  0
LINE
  8
CSLAYER1
  6
CONTINUOUS
 62
     6
 10
562.604741
 20
146.625203
 11
562.470095
 21
146.744914
  0
LINE
  8
CSLAYER1
  6
CONTINUOUS
 62
     6
 10
562.470095
 20
146.744914
 11
562.337103
 21
146.865969
  0
LINE
  8
CSLAYER1
  6
CONTINUOUS
 62
     6
 10
562.337103
 20
146.865969
 11
562.206181
 21
146.988702
  0
LINE
  8
CSLAYER1
  6
CONTINUOUS
 62
     6
 10
562.206181
 20
146.988702
 11
562.077741
 21
147.113450
  0
LINE
  8
CSLAYER1
  6
CONTINUOUS
 62
     6
 10
562.077741
 20
147.113450
 11
561.952198
 21
147.240547
  0
LINE
  8
CSLAYER1
  6
CONTINUOUS
 62
     6
 10
561.952198
 20
147.240547
 11
561.829964
 21
147.370331
  0
LINE
  8
CSLAYER1
  6
CONTINUOUS
 62
     6
 10
561.829964
 20
147.370331
 11
561.711455
 21
147.503137
  0
LINE
  8
CSLAYER1
  6
CONTINUOUS
 62
     6
 10
561.711455
 20
147.503137
 11
561.597083
 21
147.639300
  0
LINE
  8
CSLAYER1
  6
CONTINUOUS
 62
     6
 10
561.597083
 20
147.639300
 11
561.460587
 21
147.813526
  0
LINE
  8
CSLAYER1
  6
CONTINUOUS
 62
     6
 10
561.460587
 20
147.813526
 11
561.328244
 21
147.994202
  0
LINE
  8
CSLAYER1
  6
CONTINUOUS
 62
     6
 10
561.328244
 20
147.994202
 11
561.199773
 21
148.179972
  0
LINE
  8
CSLAYER1
  6
CONTINUOUS
 62
     6
 10
561.199773
 20
148.179972
 11
561.074891
 21
148.369480
  0
LINE
  8
CSLAYER1
  6
CONTINUOUS
 62
     6
 10
563.497459
 20
146.978410
 11
565.748389
 21
144.539904
  0
LINE
  8
CSLAYER1
  6
CONTINUOUS
 62
     6
 10
566.220924
 20
145.107012
 11
563.777929
 21
147.501647
  0
LINE
  8
CSLAYER1
  6
CONTINUOUS
 62
     6
 10
564.089426
 20
147.822497
 11
566.835273
 21
145.319659
  0
LINE
  8
CSLAYER1
  6
CONTINUOUS
 62
     6
 10
572.175269
 20
147.398943
 11
569.949147
 21
150.375181
  0
LINE
  8
CSLAYER1
  6
CONTINUOUS
 62
     6
 10
569.939486
 20
150.372890
 11
569.865750
 21
150.354865
  0
LINE
  8
CSLAYER1
  6
CONTINUOUS
 62
     6
 10
569.865750
 20
150.354865
 11
569.792454
 21
150.336459
  0
LINE
  8
CSLAYER1
  6
CONTINUOUS
 62
     6
 10
569.792454
 20
150.336459
 11
569.719548
 21
150.317713
  0
LINE
  8
CSLAYER1
  6
CONTINUOUS
 62
     6
 10
569.719548
 20
150.317713
 11
569.646984
 21
150.298671
  0
LINE
  8
CSLAYER1
  6
CONTINUOUS
 62
     6
 10
569.646984
 20
150.298671
 11
569.574713
 21
150.279375
  0
LINE
  8
CSLAYER1
  6
CONTINUOUS
 62
     6
 10
569.574713
 20
150.279375
 11
569.502686
 21
150.259866
  0
LINE
  8
CSLAYER1
  6
CONTINUOUS
 62
     6
 10
569.502686
 20
150.259866
 11
569.430854
 21
150.240188
  0
LINE
  8
CSLAYER1
  6
CONTINUOUS
 62
     6
 10
569.430854
 20
150.240188
 11
569.359168
 21
150.220382
  0
LINE
  8
CSLAYER1
  6
CONTINUOUS
 62
     6
 10
569.359168
 20
150.220382
 11
569.287580
 21
150.200492
  0
LINE
  8
CSLAYER1
  6
CONTINUOUS
 62
     6
 10
569.287580
 20
150.200492
 11
569.206961
 21
150.178029
  0
LINE
  8
CSLAYER1
  6
CONTINUOUS
 62
     6
 10
569.206961
 20
150.178029
 11
569.079706
 21
150.350179
  0
LINE
  8
CSLAYER1
  6
CONTINUOUS
 62
     6
 10
569.079706
 20
150.350179
 11
568.984926
 21
150.477341
  0
LINE
  8
CSLAYER1
  6
CONTINUOUS
 62
     6
 10
568.984926
 20
150.477341
 11
568.889275
 21
150.603573
  0
LINE
  8
CSLAYER1
  6
CONTINUOUS
 62
     6
 10
568.889275
 20
150.603573
 11
568.792316
 21
150.728409
  0
LINE
  8
CSLAYER1
  6
CONTINUOUS
 62
     6
 10
568.792316
 20
150.728409
 11
568.693614
 21
150.851384
  0
LINE
  8
CSLAYER1
  6
CONTINUOUS
 62
     6
 10
568.693614
 20
150.851384
 11
568.592732
 21
150.972032
  0
LINE
  8
CSLAYER1
  6
CONTINUOUS
 62
     6
 10
568.592732
 20
150.972032
 11
568.489236
 21
151.089889
  0
LINE
  8
CSLAYER1
  6
CONTINUOUS
 62
     6
 10
568.489236
 20
151.089889
 11
568.382689
 21
151.204489
  0
LINE
  8
CSLAYER1
  6
CONTINUOUS
 62
     6
 10
568.382689
 20
151.204489
 11
568.272654
 21
151.315367
  0
LINE
  8
CSLAYER1
  6
CONTINUOUS
 62
     6
 10
568.272654
 20
151.315367
 11
568.158698
 21
151.422058
  0
LINE
  8
CSLAYER1
  6
CONTINUOUS
 62
     6
 10
568.158698
 20
151.422058
 11
568.040382
 21
151.524096
  0
LINE
  8
CSLAYER1
  6
CONTINUOUS
 62
     6
 10
568.040382
 20
151.524096
 11
567.888958
 21
151.643134
  0
LINE
  8
CSLAYER1
  6
CONTINUOUS
 62
     6
 10
567.888958
 20
151.643134
 11
567.730718
 21
151.757646
  0
LINE
  8
CSLAYER1
  6
CONTINUOUS
 62
     6
 10
567.730718
 20
151.757646
 11
567.567597
 21
151.868586
  0
LINE
  8
CSLAYER1
  6
CONTINUOUS
 62
     6
 10
567.567597
 20
151.868586
 11
567.401529
 21
151.976904
  0
LINE
  8
CSLAYER1
  6
CONTINUOUS
 62
     6
 10
567.401529
 20
151.976904
 11
567.234447
 21
152.083554
  0
LINE
  8
CSLAYER1
  6
CONTINUOUS
 62
     6
 10
567.234447
 20
152.083554
 11
567.068286
 21
152.189487
  0
LINE
  8
CSLAYER1
  6
CONTINUOUS
 62
     6
 10
567.068286
 20
152.189487
 11
566.904980
 21
152.295654
  0
LINE
  8
CSLAYER1
  6
CONTINUOUS
 62
     6
 10
566.904980
 20
152.295654
 11
566.746462
 21
152.403009
  0
LINE
  8
CSLAYER1
  6
CONTINUOUS
 62
     6
 10
566.746462
 20
152.403009
 11
566.594666
 21
152.512503
  0
LINE
  8
CSLAYER1
  6
CONTINUOUS
 62
     6
 10
566.594666
 20
152.512503
 11
566.451527
 21
152.625089
  0
LINE
  8
CSLAYER1
  6
CONTINUOUS
 62
     6
 10
566.451527
 20
152.625089
 11
566.318977
 21
152.741717
  0
LINE
  8
CSLAYER1
  6
CONTINUOUS
 62
     6
 10
566.318977
 20
152.741717
 11
566.215972
 21
152.844732
  0
LINE
  8
CSLAYER1
  6
CONTINUOUS
 62
     6
 10
566.215972
 20
152.844732
 11
566.114309
 21
152.958167
  0
LINE
  8
CSLAYER1
  6
CONTINUOUS
 62
     6
 10
566.114309
 20
152.958167
 11
566.014554
 21
153.080335
  0
LINE
  8
CSLAYER1
  6
CONTINUOUS
 62
     6
 10
566.014554
 20
153.080335
 11
565.917276
 21
153.209544
  0
LINE
  8
CSLAYER1
  6
CONTINUOUS
 62
     6
 10
565.917276
 20
153.209544
 11
565.823041
 21
153.344104
  0
LINE
  8
CSLAYER1
  6
CONTINUOUS
 62
     6
 10
565.823041
 20
153.344104
 11
565.732417
 21
153.482325
  0
LINE
  8
CSLAYER1
  6
CONTINUOUS
 62
     6
 10
565.732417
 20
153.482325
 11
565.645971
 21
153.622519
  0
LINE
  8
CSLAYER1
  6
CONTINUOUS
 62
     6
 10
565.645971
 20
153.622519
 11
565.564270
 21
153.762993
  0
LINE
  8
CSLAYER1
  6
CONTINUOUS
 62
     6
 10
565.564270
 20
153.762993
 11
565.487881
 21
153.902060
  0
LINE
  8
CSLAYER1
  6
CONTINUOUS
 62
     6
 10
565.487881
 20
153.902060
 11
565.417372
 21
154.038028
  0
LINE
  8
CSLAYER1
  6
CONTINUOUS
 62
     6
 10
565.417372
 20
154.038028
 11
565.312111
 21
154.253568
  0
ARC
  8
CSLAYER1
  6
CONTINUOUS
 62
     6
 10
566.238222
 20
153.697490
 40
1.080690
 50
89.054803
 51
149.054803
  0
ARC
  8
CSLAYER1
  6
CONTINUOUS
 62
     6
 10
567.182913
 20
154.222323
 40
1.080690
 50
89.054803
 51
149.054803
  0
ARC
  8
CSLAYER1
  6
CONTINUOUS
 62
     6
 10
566.273877
 20
155.858576
 40
1.080690
 50
269.054803
 51
329.054803
  0
LINE
  8
CSLAYER1
  6
CONTINUOUS
 62
     6
 10
567.200721
 20
155.302843
 11
567.345424
 21
155.163497
  0
LINE
  8
CSLAYER1
  6
CONTINUOUS
 62
     6
 10
567.345424
 20
155.163497
 11
567.499339
 21
155.013747
  0
LINE
  8
CSLAYER1
  6
CONTINUOUS
 62
     6
 10
567.499339
 20
155.013747
 11
567.660689
 21
154.855919
  0
LINE
  8
CSLAYER1
  6
CONTINUOUS
 62
     6
 10
567.660689
 20
154.855919
 11
567.827700
 21
154.692337
  0
LINE
  8
CSLAYER1
  6
CONTINUOUS
 62
     6
 10
567.827700
 20
154.692337
 11
567.998595
 21
154.525326
  0
LINE
  8
CSLAYER1
  6
CONTINUOUS
 62
     6
 10
567.998595
 20
154.525326
 11
568.171598
 21
154.357210
  0
LINE
  8
CSLAYER1
  6
CONTINUOUS
 62
     6
 10
568.171598
 20
154.357210
 11
568.344933
 21
154.190315
  0
LINE
  8
CSLAYER1
  6
CONTINUOUS
 62
     6
 10
568.344933
 20
154.190315
 11
568.516825
 21
154.026966
  0
LINE
  8
CSLAYER1
  6
CONTINUOUS
 62
     6
 10
568.516825
 20
154.026966
 11
568.685497
 21
153.869487
  0
LINE
  8
CSLAYER1
  6
CONTINUOUS
 62
     6
 10
568.685497
 20
153.869487
 11
568.849174
 21
153.720202
  0
LINE
  8
CSLAYER1
  6
CONTINUOUS
 62
     6
 10
568.849174
 20
153.720202
 11
569.006080
 21
153.581438
  0
LINE
  8
CSLAYER1
  6
CONTINUOUS
 62
     6
 10
569.006080
 20
153.581438
 11
569.147311
 21
153.458640
  0
LINE
  8
CSLAYER1
  6
CONTINUOUS
 62
     6
 10
569.147311
 20
153.458640
 11
569.293495
 21
153.330755
  0
LINE
  8
CSLAYER1
  6
CONTINUOUS
 62
     6
 10
569.293495
 20
153.330755
 11
569.443488
 21
153.198248
  0
LINE
  8
CSLAYER1
  6
CONTINUOUS
 62
     6
 10
569.443488
 20
153.198248
 11
569.596149
 21
153.061589
  0
LINE
  8
CSLAYER1
  6
CONTINUOUS
 62
     6
 10
569.596149
 20
153.061589
 11
569.750336
 21
152.921244
  0
LINE
  8
CSLAYER1
  6
CONTINUOUS
 62
     6
 10
569.750336
 20
152.921244
 11
569.904907
 21
152.777681
  0
LINE
  8
CSLAYER1
  6
CONTINUOUS
 62
     6
 10
569.904907
 20
152.777681
 11
570.058718
 21
152.631369
  0
LINE
  8
CSLAYER1
  6
CONTINUOUS
 62
     6
 10
570.058718
 20
152.631369
 11
570.210629
 21
152.482774
  0
LINE
  8
CSLAYER1
  6
CONTINUOUS
 62
     6
 10
570.210629
 20
152.482774
 11
570.359496
 21
152.332364
  0
LINE
  8
CSLAYER1
  6
CONTINUOUS
 62
     6
 10
570.359496
 20
152.332364
 11
570.504178
 21
152.180608
  0
LINE
  8
CSLAYER1
  6
CONTINUOUS
 62
     6
 10
570.504178
 20
152.180608
 11
570.643531
 21
152.027972
  0
LINE
  8
CSLAYER1
  6
CONTINUOUS
 62
     6
 10
570.643531
 20
152.027972
 11
570.699056
 21
151.965028
  0
LINE
  8
CSLAYER1
  6
CONTINUOUS
 62
     6
 10
570.699056
 20
151.965028
 11
570.753983
 21
151.901528
  0
LINE
  8
CSLAYER1
  6
CONTINUOUS
 62
     6
 10
570.753983
 20
151.901528
 11
570.808374
 21
151.837526
  0
LINE
  8
CSLAYER1
  6
CONTINUOUS
 62
     6
 10
570.808374
 20
151.837526
 11
570.862288
 21
151.773080
  0
LINE
  8
CSLAYER1
  6
CONTINUOUS
 62
     6
 10
570.862288
 20
151.773080
 11
570.915784
 21
151.708244
  0
LINE
  8
CSLAYER1
  6
CONTINUOUS
 62
     6
 10
570.915784
 20
151.708244
 11
570.968922
 21
151.643074
  0
LINE
  8
CSLAYER1
  6
CONTINUOUS
 62
     6
 10
570.968922
 20
151.643074
 11
571.021761
 21
151.577626
  0
LINE
  8
CSLAYER1
  6
CONTINUOUS
 62
     6
 10
571.021761
 20
151.577626
 11
571.074362
 21
151.511956
  0
LINE
  8
CSLAYER1
  6
CONTINUOUS
 62
     6
 10
571.074362
 20
151.511956
 11
571.126785
 21
151.446118
  0
LINE
  8
CSLAYER1
  6
CONTINUOUS
 62
     6
 10
571.126785
 20
151.446118
 11
571.179087
 21
151.380169
  0
LINE
  8
CSLAYER1
  6
CONTINUOUS
 62
     6
 10
571.179087
 20
151.380169
 11
571.307642
 21
151.217752
  0
LINE
  8
CSLAYER1
  6
CONTINUOUS
 62
     6
 10
571.307642
 20
151.217752
 11
571.278905
 21
151.170897
  0
LINE
  8
CSLAYER1
  6
CONTINUOUS
 62
     6
 10
571.278905
 20
151.170897
 11
571.238313
 21
151.111016
  0
LINE
  8
CSLAYER1
  6
CONTINUOUS
 62
     6
 10
571.238313
 20
151.111016
 11
571.194031
 21
151.051148
  0
LINE
  8
CSLAYER1
  6
CONTINUOUS
 62
     6
 10
571.194031
 20
151.051148
 11
571.146579
 21
150.991875
  0
LINE
  8
CSLAYER1
  6
CONTINUOUS
 62
     6
 10
571.146579
 20
150.991875
 11
571.096481
 21
150.933777
  0
LINE
  8
CSLAYER1
  6
CONTINUOUS
 62
     6
 10
571.096481
 20
150.933777
 11
571.044256
 21
150.877436
  0
LINE
  8
CSLAYER1
  6
CONTINUOUS
 62
     6
 10
571.044256
 20
150.877436
 11
570.990428
 21
150.823433
  0
LINE
  8
CSLAYER1
  6
CONTINUOUS
 62
     6
 10
570.990428
 20
150.823433
 11
570.935517
 21
150.772348
  0
LINE
  8
CSLAYER1
  6
CONTINUOUS
 62
     6
 10
570.935517
 20
150.772348
 11
570.880046
 21
150.724762
  0
LINE
  8
CSLAYER1
  6
CONTINUOUS
 62
     6
 10
570.880046
 20
150.724762
 11
570.824536
 21
150.681257
  0
LINE
  8
CSLAYER1
  6
CONTINUOUS
 62
     6
 10
570.824536
 20
150.681257
 11
570.769508
 21
150.642412
  0
LINE
  8
CSLAYER1
  6
CONTINUOUS
 62
     6
 10
570.769508
 20
150.642412
 11
570.713022
 21
150.608118
  0
LINE
  8
CSLAYER1
  6
CONTINUOUS
 62
     6
 10
570.713022
 20
150.608118
 11
570.652421
 21
150.577151
  0
LINE
  8
CSLAYER1
  6
CONTINUOUS
 62
     6
 10
570.652421
 20
150.577151
 11
570.588260
 21
150.549162
  0
LINE
  8
CSLAYER1
  6
CONTINUOUS
 62
     6
 10
570.588260
 20
150.549162
 11
570.521098
 21
150.523801
  0
LINE
  8
CSLAYER1
  6
CONTINUOUS
 62
     6
 10
570.521098
 20
150.523801
 11
570.451491
 21
150.500719
  0
LINE
  8
CSLAYER1
  6
CONTINUOUS
 62
     6
 10
570.451491
 20
150.500719
 11
570.379997
 21
150.479565
  0
LINE
  8
CSLAYER1
  6
CONTINUOUS
 62
     6
 10
570.379997
 20
150.479565
 11
570.307173
 21
150.459991
  0
LINE
  8
CSLAYER1
  6
CONTINUOUS
 62
     6
 10
570.307173
 20
150.459991
 11
570.233574
 21
150.441646
  0
LINE
  8
CSLAYER1
  6
CONTINUOUS
 62
     6
 10
570.233574
 20
150.441646
 11
570.159760
 21
150.424180
  0
LINE
  8
CSLAYER1
  6
CONTINUOUS
 62
     6
 10
570.159760
 20
150.424180
 11
570.086286
 21
150.407245
  0
LINE
  8
CSLAYER1
  6
CONTINUOUS
 62
     6
 10
570.086286
 20
150.407245
 11
570.013709
 21
150.390490
  0
LINE
  8
CSLAYER1
  6
CONTINUOUS
 62
     6
 10
570.013709
 20
150.390490
 11
569.939486
 21
150.372890
  0
LINE
  8
CSLAYER1
  6
CONTINUOUS
 62
     6
 10
570.514981
 20
150.521773
 11
572.860511
 21
147.847887
  0
LINE
  8
CSLAYER1
  6
CONTINUOUS
 62
     6
 10
573.403968
 20
148.367693
 11
570.932199
 21
150.769501
  0
ARC
  8
CSLAYER1
  6
CONTINUOUS
 62
     6
 10
564.726781
 20
156.706691
 40
1.095863
 50
276.431024
 51
336.431024
  0
ARC
  8
CSLAYER1
  6
CONTINUOUS
 62
     6
 10
563.845080
 20
156.055908
 40
1.095863
 50
276.431024
 51
336.431024
  0
ARC
  8
CSLAYER1
  6
CONTINUOUS
 62
     6
 10
564.972270
 20
154.528757
 40
1.095863
 50
96.431024
 51
156.431024
  0
LINE
  8
CSLAYER1
  6
CONTINUOUS
 62
     6
 10
565.478097
 20
156.448478
 11
565.731208
 21
156.268511
  0
LINE
  8
CSLAYER1
  6
CONTINUOUS
 62
     6
 10
565.478097
 20
156.448478
 11
565.225236
 21
156.628798
  0
LINE
  8
CSLAYER1
  6
CONTINUOUS
 62
     6
 10
565.225236
 20
156.628798
 11
564.972876
 21
156.809824
  0
LINE
  8
CSLAYER1
  6
CONTINUOUS
 62
     6
 10
564.972876
 20
156.809824
 11
564.721268
 21
156.991908
  0
LINE
  8
CSLAYER1
  6
CONTINUOUS
 62
     6
 10
564.721268
 20
156.991908
 11
564.470662
 21
157.175403
  0
LINE
  8
CSLAYER1
  6
CONTINUOUS
 62
     6
 10
564.470662
 20
157.175403
 11
564.221310
 21
157.360662
  0
LINE
  8
CSLAYER1
  6
CONTINUOUS
 62
     6
 10
564.221310
 20
157.360662
 11
563.973461
 21
157.548037
  0
LINE
  8
CSLAYER1
  6
CONTINUOUS
 62
     6
 10
563.973461
 20
157.548037
 11
563.727366
 21
157.737882
  0
LINE
  8
CSLAYER1
  6
CONTINUOUS
 62
     6
 10
563.727366
 20
157.737882
 11
563.483276
 21
157.930550
  0
LINE
  8
CSLAYER1
  6
CONTINUOUS
 62
     6
 10
563.483276
 20
157.930550
 11
563.241442
 21
158.126392
  0
LINE
  8
CSLAYER1
  6
CONTINUOUS
 62
     6
 10
563.241442
 20
158.126392
 11
563.002113
 21
158.325762
  0
LINE
  8
CSLAYER1
  6
CONTINUOUS
 62
     6
 10
563.002113
 20
158.325762
 11
562.844849
 21
158.460059
  0
LINE
  8
CSLAYER1
  6
CONTINUOUS
 62
     6
 10
562.844849
 20
158.460059
 11
562.687799
 21
158.597083
  0
LINE
  8
CSLAYER1
  6
CONTINUOUS
 62
     6
 10
562.687799
 20
158.597083
 11
562.531708
 21
158.736643
  0
LINE
  8
CSLAYER1
  6
CONTINUOUS
 62
     6
 10
562.531708
 20
158.736643
 11
562.377319
 21
158.878545
  0
LINE
  8
CSLAYER1
  6
CONTINUOUS
 62
     6
 10
562.377319
 20
158.878545
 11
562.225374
 21
159.022598
  0
LINE
  8
CSLAYER1
  6
CONTINUOUS
 62
     6
 10
562.225374
 20
159.022598
 11
562.076618
 21
159.168608
  0
LINE
  8
CSLAYER1
  6
CONTINUOUS
 62
     6
 10
562.076618
 20
159.168608
 11
561.931791
 21
159.316383
  0
LINE
  8
CSLAYER1
  6
CONTINUOUS
 62
     6
 10
561.931791
 20
159.316383
 11
561.791639
 21
159.465730
  0
LINE
  8
CSLAYER1
  6
CONTINUOUS
 62
     6
 10
561.791639
 20
159.465730
 11
561.656903
 21
159.616458
  0
LINE
  8
CSLAYER1
  6
CONTINUOUS
 62
     6
 10
561.656903
 20
159.616458
 11
561.528327
 21
159.768372
  0
LINE
  8
CSLAYER1
  6
CONTINUOUS
 62
     6
 10
561.528327
 20
159.768372
 11
561.406654
 21
159.921282
  0
LINE
  8
CSLAYER1
  6
CONTINUOUS
 62
     6
 10
561.406654
 20
159.921282
 11
561.292200
 21
160.072608
  0
LINE
  8
CSLAYER1
  6
CONTINUOUS
 62
     6
 10
561.292200
 20
160.072608
 11
561.176899
 21
160.229862
  0
LINE
  8
CSLAYER1
  6
CONTINUOUS
 62
     6
 10
561.176899
 20
160.229862
 11
561.061286
 21
160.391920
  0
LINE
  8
CSLAYER1
  6
CONTINUOUS
 62
     6
 10
561.061286
 20
160.391920
 11
560.945893
 21
160.557660
  0
LINE
  8
CSLAYER1
  6
CONTINUOUS
 62
     6
 10
560.945893
 20
160.557660
 11
560.831253
 21
160.725959
  0
LINE
  8
CSLAYER1
  6
CONTINUOUS
 62
     6
 10
560.831253
 20
160.725959
 11
560.717899
 21
160.895695
  0
LINE
  8
CSLAYER1
  6
CONTINUOUS
 62
     6
 10
560.717899
 20
160.895695
 11
560.606363
 21
161.065746
  0
LINE
  8
CSLAYER1
  6
CONTINUOUS
 62
     6
 10
560.606363
 20
161.065746
 11
560.497179
 21
161.234988
  0
LINE
  8
CSLAYER1
  6
CONTINUOUS
 62
     6
 10
560.497179
 20
161.234988
 11
560.390879
 21
161.402300
  0
LINE
  8
CSLAYER1
  6
CONTINUOUS
 62
     6
 10
560.390879
 20
161.402300
 11
560.287996
 21
161.566558
  0
LINE
  8
CSLAYER1
  6
CONTINUOUS
 62
     6
 10
560.287996
 20
161.566558
 11
560.189063
 21
161.726641
  0
LINE
  8
CSLAYER1
  6
CONTINUOUS
 62
     6
 10
560.189063
 20
161.726641
 11
560.102590
 21
161.864867
  0
LINE
  8
CSLAYER1
  6
CONTINUOUS
 62
     6
 10
560.102590
 20
161.864867
 11
560.010638
 21
162.007325
  0
LINE
  8
CSLAYER1
  6
CONTINUOUS
 62
     6
 10
560.010638
 20
162.007325
 11
559.914438
 21
162.152805
  0
LINE
  8
CSLAYER1
  6
CONTINUOUS
 62
     6
 10
559.914438
 20
162.152805
 11
559.815219
 21
162.300095
  0
LINE
  8
CSLAYER1
  6
CONTINUOUS
 62
     6
 10
559.815219
 20
162.300095
 11
559.714211
 21
162.447985
  0
LINE
  8
CSLAYER1
  6
CONTINUOUS
 62
     6
 10
559.714211
 20
162.447985
 11
559.612643
 21
162.595264
  0
LINE
  8
CSLAYER1
  6
CONTINUOUS
 62
     6
 10
559.612643
 20
162.595264
 11
559.511745
 21
162.740720
  0
LINE
  8
CSLAYER1
  6
CONTINUOUS
 62
     6
 10
559.511745
 20
162.740720
 11
559.412746
 21
162.883144
  0
LINE
  8
CSLAYER1
  6
CONTINUOUS
 62
     6
 10
559.412746
 20
162.883144
 11
559.316876
 21
163.021324
  0
LINE
  8
CSLAYER1
  6
CONTINUOUS
 62
     6
 10
559.316876
 20
163.021324
 11
559.196335
 21
163.196154
  0
ARC
  8
CSLAYER1
  6
CONTINUOUS
 62
     6
 10
561.461538
 20
165.196154
 40
2.000000
 50
270.000000
 51
360.000000
  0
LINE
  8
CSLAYER1
  6
CONTINUOUS
 62
     6
 10
563.461538
 20
165.196154
 11
563.461538
 21
165.696154
  0
LINE
  8
CSLAYER1
  6
CONTINUOUS
 62
     6
 10
563.711538
 20
165.696154
 11
537.711538
 21
165.696154
  0
LINE
  8
CSLAYER1
  6
CONTINUOUS
 62
     6
 10
537.711538
 20
167.696154
 11
563.711538
 21
167.696154
  0
LINE
  8
CSLAYER1
  6
CONTINUOUS
 62
     6
 10
563.711538
 20
167.696154
 11
563.711538
 21
163.696154
  0
LINE
  8
CSLAYER1
  6
CONTINUOUS
 62
     6
 10
563.711538
 20
163.696154
 11
576.711538
 21
163.696154
  0
LINE
  8
CSLAYER1
  6
CONTINUOUS
 62
     6
 10
576.711538
 20
163.696154
 11
576.711538
 21
251.584612
  0
LINE
  8
CSLAYER1
  6
CONTINUOUS
 62
     6
 10
576.711538
 20
251.584612
 11
577.711538
 21
250.584612
  0
LINE
  8
CSLAYER1
  6
CONTINUOUS
 62
     6
 10
577.711538
 20
250.584612
 11
577.711538
 21
164.696154
  0
LINE
  8
CSLAYER1
  6
CONTINUOUS
 62
     6
 10
577.711538
 20
164.696154
 11
576.711538
 21
163.696154
  0
LINE
  8
CSLAYER1
  6
CONTINUOUS
 62
     6
 10
561.461538
 20
163.196154
 11
552.372913
 21
163.196154
  0
ARC
  8
CSLAYER1
  6
CONTINUOUS
 62
     6
 10
550.711538
 20
169.996142
 40
7.000000
 50
253.742974
 51
286.256997
  0
ARC
  8
CSLAYER1
  6
CONTINUOUS
 62
     6
 10
549.031881
 20
164.236071
 40
1.000000
 50
185.000098
 51
253.742592
  0
LINE
  8
CSLAYER1
  6
CONTINUOUS
 62
     6
 10
548.035696
 20
164.148913
 11
547.980581
 21
164.778734
  0
ARC
  8
CSLAYER1
  6
CONTINUOUS
 62
     6
 10
548.179800
 20
164.796160
 40
0.200000
 50
89.999981
 51
185.000126
  0
LINE
  8
CSLAYER1
  6
CONTINUOUS
 62
     6
 10
547.911551
 20
164.996172
 11
550.711538
 21
164.996142
  0
LINE
  8
CSLAYER1
  6
CONTINUOUS
 62
     6
 10
550.711538
 20
164.996142
 11
553.511526
 21
164.996142
  0
ARC
  8
CSLAYER1
  6
CONTINUOUS
 62
     6
 10
553.511526
 20
165.096148
 40
0.100000
 50
269.999999
 51
359.999995
  0
LINE
  8
CSLAYER1
  6
CONTINUOUS
 62
     6
 10
553.611563
 20
165.096148
 11
553.611563
 21
165.596148
  0
ARC
  8
CSLAYER1
  6
CONTINUOUS
 62
     6
 10
553.511526
 20
165.596148
 40
0.100000
 50
-0.000005
 51
89.999997
  0
ARC
  8
CSLAYER1
  6
CONTINUOUS
 62
     6
 10
553.243277
 20
164.796160
 40
0.200000
 50
-5.000154
 51
89.999997
  0
LINE
  8
CSLAYER1
  6
CONTINUOUS
 62
     6
 10
553.442526
 20
164.778734
 11
553.387442
 21
164.148913
  0
ARC
  8
CSLAYER1
  6
CONTINUOUS
 62
     6
 10
552.391226
 20
164.236071
 40
1.000000
 50
286.257380
 51
354.999887
  0
LINE
  8
CSLAYER1
  6
CONTINUOUS
 62
     6
 10
554.282916
 20
163.196154
 11
554.448034
 21
162.178110
  0
LINE
  8
CSLAYER1
  6
CONTINUOUS
 62
     6
 10
554.448034
 20
162.178110
 11
554.506169
 21
161.855683
  0
LINE
  8
CSLAYER1
  6
CONTINUOUS
 62
     6
 10
554.506169
 20
161.855683
 11
554.571022
 21
161.523873
  0
LINE
  8
CSLAYER1
  6
CONTINUOUS
 62
     6
 10
554.571022
 20
161.523873
 11
554.641397
 21
161.186077
  0
LINE
  8
CSLAYER1
  6
CONTINUOUS
 62
     6
 10
554.641397
 20
161.186077
 11
554.716100
 21
160.845689
  0
LINE
  8
CSLAYER1
  6
CONTINUOUS
 62
     6
 10
554.716100
 20
160.845689
 11
554.793937
 21
160.506105
  0
LINE
  8
CSLAYER1
  6
CONTINUOUS
 62
     6
 10
554.793937
 20
160.506105
 11
554.873710
 21
160.170720
  0
LINE
  8
CSLAYER1
  6
CONTINUOUS
 62
     6
 10
554.873710
 20
160.170720
 11
554.954227
 21
159.842929
  0
LINE
  8
CSLAYER1
  6
CONTINUOUS
 62
     6
 10
554.954227
 20
159.842929
 11
555.034291
 21
159.526128
  0
LINE
  8
CSLAYER1
  6
CONTINUOUS
 62
     6
 10
555.034291
 20
159.526128
 11
555.112708
 21
159.223711
  0
LINE
  8
CSLAYER1
  6
CONTINUOUS
 62
     6
 10
555.112708
 20
159.223711
 11
555.196081
 21
158.923961
  0
LINE
  8
CSLAYER1
  6
CONTINUOUS
 62
     6
 10
555.196081
 20
158.923961
 11
555.289994
 21
158.618437
  0
LINE
  8
CSLAYER1
  6
CONTINUOUS
 62
     6
 10
555.289994
 20
158.618437
 11
555.393579
 21
158.308397
  0
LINE
  8
CSLAYER1
  6
CONTINUOUS
 62
     6
 10
555.393579
 20
158.308397
 11
555.505968
 21
157.995102
  0
LINE
  8
CSLAYER1
  6
CONTINUOUS
 62
     6
 10
555.505968
 20
157.995102
 11
555.626290
 21
157.679811
  0
LINE
  8
CSLAYER1
  6
CONTINUOUS
 62
     6
 10
555.626290
 20
157.679811
 11
555.753676
 21
157.363782
  0
LINE
  8
CSLAYER1
  6
CONTINUOUS
 62
     6
 10
555.753676
 20
157.363782
 11
555.887259
 21
157.048277
  0
LINE
  8
CSLAYER1
  6
CONTINUOUS
 62
     6
 10
555.887259
 20
157.048277
 11
556.026168
 21
156.734553
  0
LINE
  8
CSLAYER1
  6
CONTINUOUS
 62
     6
 10
556.026168
 20
156.734553
 11
556.169534
 21
156.423871
  0
LINE
  8
CSLAYER1
  6
CONTINUOUS
 62
     6
 10
556.169534
 20
156.423871
 11
556.316489
 21
156.117489
  0
LINE
  8
CSLAYER1
  6
CONTINUOUS
 62
     6
 10
556.316489
 20
156.117489
 11
556.466163
 21
155.816668
  0
LINE
  8
CSLAYER1
  6
CONTINUOUS
 62
     6
 10
556.466163
 20
155.816668
 11
556.593508
 21
155.569048
  0
LINE
  8
CSLAYER1
  6
CONTINUOUS
 62
     6
 10
556.593508
 20
155.569048
 11
556.723660
 21
155.323014
  0
LINE
  8
CSLAYER1
  6
CONTINUOUS
 62
     6
 10
556.723660
 20
155.323014
 11
556.856339
 21
155.078408
  0
LINE
  8
CSLAYER1
  6
CONTINUOUS
 62
     6
 10
556.856339
 20
155.078408
 11
556.991264
 21
154.835071
  0
LINE
  8
CSLAYER1
  6
CONTINUOUS
 62
     6
 10
556.991264
 20
154.835071
 11
557.128154
 21
154.592844
  0
LINE
  8
CSLAYER1
  6
CONTINUOUS
 62
     6
 10
557.128154
 20
154.592844
 11
557.266729
 21
154.351569
  0
LINE
  8
CSLAYER1
  6
CONTINUOUS
 62
     6
 10
557.266729
 20
154.351569
 11
557.406707
 21
154.111087
  0
LINE
  8
CSLAYER1
  6
CONTINUOUS
 62
     6
 10
557.406707
 20
154.111087
 11
557.547809
 21
153.871240
  0
LINE
  8
CSLAYER1
  6
CONTINUOUS
 62
     6
 10
557.547809
 20
153.871240
 11
557.689752
 21
153.631868
  0
LINE
  8
CSLAYER1
  6
CONTINUOUS
 62
     6
 10
557.689752
 20
153.631868
 11
557.832257
 21
153.392814
  0
LINE
  8
CSLAYER1
  6
CONTINUOUS
 62
     6
 10
557.832257
 20
153.392814
 11
557.975043
 21
153.153918
  0
ARC
  8
CSLAYER1
  6
CONTINUOUS
 62
     6
 10
557.984709
 20
154.353886
 40
1.200008
 50
269.538514
 51
329.538514
  0
ARC
  8
CSLAYER1
  6
CONTINUOUS
 62
     6
 10
559.028746
 20
154.945500
 40
1.200008
 50
269.538514
 51
329.538514
  0
LINE
  8
CSLAYER1
  6
CONTINUOUS
 62
     6
 10
560.063148
 20
154.337145
 11
559.927867
 21
154.563067
  0
LINE
  8
CSLAYER1
  6
CONTINUOUS
 62
     6
 10
559.927867
 20
154.563067
 11
559.792860
 21
154.789143
  0
LINE
  8
CSLAYER1
  6
CONTINUOUS
 62
     6
 10
559.792860
 20
154.789143
 11
559.658404
 21
155.015529
  0
LINE
  8
CSLAYER1
  6
CONTINUOUS
 62
     6
 10
559.658404
 20
155.015529
 11
559.524774
 21
155.242379
  0
LINE
  8
CSLAYER1
  6
CONTINUOUS
 62
     6
 10
559.524774
 20
155.242379
 11
559.392244
 21
155.469847
  0
LINE
  8
CSLAYER1
  6
CONTINUOUS
 62
     6
 10
559.392244
 20
155.469847
 11
559.261091
 21
155.698089
  0
LINE
  8
CSLAYER1
  6
CONTINUOUS
 62
     6
 10
559.261091
 20
155.698089
 11
559.131588
 21
155.927259
  0
LINE
  8
CSLAYER1
  6
CONTINUOUS
 62
     6
 10
559.131588
 20
155.927259
 11
559.004013
 21
156.157511
  0
LINE
  8
CSLAYER1
  6
CONTINUOUS
 62
     6
 10
559.004013
 20
156.157511
 11
558.878639
 21
156.389000
  0
LINE
  8
CSLAYER1
  6
CONTINUOUS
 62
     6
 10
558.878639
 20
156.389000
 11
558.755741
 21
156.621882
  0
LINE
  8
CSLAYER1
  6
CONTINUOUS
 62
     6
 10
558.755741
 20
156.621882
 11
558.635596
 21
156.856310
  0
LINE
  8
CSLAYER1
  6
CONTINUOUS
 62
     6
 10
558.635596
 20
156.856310
 11
558.501355
 21
157.127115
  0
LINE
  8
CSLAYER1
  6
CONTINUOUS
 62
     6
 10
558.501355
 20
157.127115
 11
558.369492
 21
157.402880
  0
LINE
  8
CSLAYER1
  6
CONTINUOUS
 62
     6
 10
558.369492
 20
157.402880
 11
558.240785
 21
157.682474
  0
LINE
  8
CSLAYER1
  6
CONTINUOUS
 62
     6
 10
558.240785
 20
157.682474
 11
558.116011
 21
157.964764
  0
LINE
  8
CSLAYER1
  6
CONTINUOUS
 62
     6
 10
558.116011
 20
157.964764
 11
557.995948
 21
158.248620
  0
LINE
  8
CSLAYER1
  6
CONTINUOUS
 62
     6
 10
557.995948
 20
158.248620
 11
557.881373
 21
158.532910
  0
LINE
  8
CSLAYER1
  6
CONTINUOUS
 62
     6
 10
557.881373
 20
158.532910
 11
557.773064
 21
158.816503
  0
LINE
  8
CSLAYER1
  6
CONTINUOUS
 62
     6
 10
557.773064
 20
158.816503
 11
557.671798
 21
159.098268
  0
LINE
  8
CSLAYER1
  6
CONTINUOUS
 62
     6
 10
557.671798
 20
159.098268
 11
557.578354
 21
159.377074
  0
LINE
  8
CSLAYER1
  6
CONTINUOUS
 62
     6
 10
557.578354
 20
159.377074
 11
557.493507
 21
159.651789
  0
LINE
  8
CSLAYER1
  6
CONTINUOUS
 62
     6
 10
557.493507
 20
159.651789
 11
557.418037
 21
159.921282
  0
LINE
  8
CSLAYER1
  6
CONTINUOUS
 62
     6
 10
557.418037
 20
159.921282
 11
557.343497
 21
160.206721
  0
LINE
  8
CSLAYER1
  6
CONTINUOUS
 62
     6
 10
557.343497
 20
160.206721
 11
557.267489
 21
160.505900
  0
LINE
  8
CSLAYER1
  6
CONTINUOUS
 62
     6
 10
557.267489
 20
160.505900
 11
557.191146
 21
160.815565
  0
LINE
  8
CSLAYER1
  6
CONTINUOUS
 62
     6
 10
557.191146
 20
160.815565
 11
557.115600
 21
161.132465
  0
LINE
  8
CSLAYER1
  6
CONTINUOUS
 62
     6
 10
557.115600
 20
161.132465
 11
557.041984
 21
161.453347
  0
LINE
  8
CSLAYER1
  6
CONTINUOUS
 62
     6
 10
557.041984
 20
161.453347
 11
556.971431
 21
161.774958
  0
LINE
  8
CSLAYER1
  6
CONTINUOUS
 62
     6
 10
556.971431
 20
161.774958
 11
556.905074
 21
162.094046
  0
LINE
  8
CSLAYER1
  6
CONTINUOUS
 62
     6
 10
556.905074
 20
162.094046
 11
556.844046
 21
162.407357
  0
LINE
  8
CSLAYER1
  6
CONTINUOUS
 62
     6
 10
556.844046
 20
162.407357
 11
556.789479
 21
162.711640
  0
LINE
  8
CSLAYER1
  6
CONTINUOUS
 62
     6
 10
556.789479
 20
162.711640
 11
556.711538
 21
163.196154
  0
LINE
  8
CSLAYER1
  6
CONTINUOUS
 62
     6
 10
556.839939
 20
162.430260
 11
556.888185
 21
162.342426
  0
LINE
  8
CSLAYER1
  6
CONTINUOUS
 62
     6
 10
556.888185
 20
162.342426
 11
556.998073
 21
162.150617
  0
LINE
  8
CSLAYER1
  6
CONTINUOUS
 62
     6
 10
556.998073
 20
162.150617
 11
557.116327
 21
161.951130
  0
LINE
  8
CSLAYER1
  6
CONTINUOUS
 62
     6
 10
557.116327
 20
161.951130
 11
557.241365
 21
161.746150
  0
LINE
  8
CSLAYER1
  6
CONTINUOUS
 62
     6
 10
557.241365
 20
161.746150
 11
557.371606
 21
161.537864
  0
LINE
  8
CSLAYER1
  6
CONTINUOUS
 62
     6
 10
557.371606
 20
161.537864
 11
557.505469
 21
161.328459
  0
LINE
  8
CSLAYER1
  6
CONTINUOUS
 62
     6
 10
557.505469
 20
161.328459
 11
557.641371
 21
161.120119
  0
LINE
  8
CSLAYER1
  6
CONTINUOUS
 62
     6
 10
557.641371
 20
161.120119
 11
557.777731
 21
160.915032
  0
LINE
  8
CSLAYER1
  6
CONTINUOUS
 62
     6
 10
557.777731
 20
160.915032
 11
557.912968
 21
160.715382
  0
LINE
  8
CSLAYER1
  6
CONTINUOUS
 62
     6
 10
557.912968
 20
160.715382
 11
558.045499
 21
160.523357
  0
LINE
  8
CSLAYER1
  6
CONTINUOUS
 62
     6
 10
558.045499
 20
160.523357
 11
558.173743
 21
160.341143
  0
LINE
  8
CSLAYER1
  6
CONTINUOUS
 62
     6
 10
558.173743
 20
160.341143
 11
558.278824
 21
160.196964
  0
LINE
  8
CSLAYER1
  6
CONTINUOUS
 62
     6
 10
558.278824
 20
160.196964
 11
558.390715
 21
160.049914
  0
LINE
  8
CSLAYER1
  6
CONTINUOUS
 62
     6
 10
558.390715
 20
160.049914
 11
558.508283
 21
159.900892
  0
LINE
  8
CSLAYER1
  6
CONTINUOUS
 62
     6
 10
558.508283
 20
159.900892
 11
558.630396
 21
159.750798
  0
LINE
  8
CSLAYER1
  6
CONTINUOUS
 62
     6
 10
558.630396
 20
159.750798
 11
558.755922
 21
159.600530
  0
LINE
  8
CSLAYER1
  6
CONTINUOUS
 62
     6
 10
558.755922
 20
159.600530
 11
558.883728
 21
159.450987
  0
LINE
  8
CSLAYER1
  6
CONTINUOUS
 62
     6
 10
558.883728
 20
159.450987
 11
559.012681
 21
159.303069
  0
LINE
  8
CSLAYER1
  6
CONTINUOUS
 62
     6
 10
559.012681
 20
159.303069
 11
559.141648
 21
159.157674
  0
LINE
  8
CSLAYER1
  6
CONTINUOUS
 62
     6
 10
559.141648
 20
159.157674
 11
559.269497
 21
159.015702
  0
LINE
  8
CSLAYER1
  6
CONTINUOUS
 62
     6
 10
559.269497
 20
159.015702
 11
559.395095
 21
158.878052
  0
LINE
  8
CSLAYER1
  6
CONTINUOUS
 62
     6
 10
559.395095
 20
158.878052
 11
559.517310
 21
158.745623
  0
LINE
  8
CSLAYER1
  6
CONTINUOUS
 62
     6
 10
559.517310
 20
158.745623
 11
559.662287
 21
158.593463
  0
LINE
  8
CSLAYER1
  6
CONTINUOUS
 62
     6
 10
559.662287
 20
158.593463
 11
559.815462
 21
158.439512
  0
LINE
  8
CSLAYER1
  6
CONTINUOUS
 62
     6
 10
559.815462
 20
158.439512
 11
559.974871
 21
158.284079
  0
LINE
  8
CSLAYER1
  6
CONTINUOUS
 62
     6
 10
559.974871
 20
158.284079
 11
560.138547
 21
158.127471
  0
LINE
  8
CSLAYER1
  6
CONTINUOUS
 62
     6
 10
560.138547
 20
158.127471
 11
560.304527
 21
157.969997
  0
LINE
  8
CSLAYER1
  6
CONTINUOUS
 62
     6
 10
560.304527
 20
157.969997
 11
560.470845
 21
157.811966
  0
LINE
  8
CSLAYER1
  6
CONTINUOUS
 62
     6
 10
560.470845
 20
157.811966
 11
560.635535
 21
157.653686
  0
LINE
  8
CSLAYER1
  6
CONTINUOUS
 62
     6
 10
560.635535
 20
157.653686
 11
560.796633
 21
157.495466
  0
LINE
  8
CSLAYER1
  6
CONTINUOUS
 62
     6
 10
560.796633
 20
157.495466
 11
560.952172
 21
157.337614
  0
LINE
  8
CSLAYER1
  6
CONTINUOUS
 62
     6
 10
560.952172
 20
157.337614
 11
561.100188
 21
157.180438
  0
LINE
  8
CSLAYER1
  6
CONTINUOUS
 62
     6
 10
561.100188
 20
157.180438
 11
561.238715
 21
157.024248
  0
LINE
  8
CSLAYER1
  6
CONTINUOUS
 62
     6
 10
561.238715
 20
157.024248
 11
561.364630
 21
156.877666
  0
LINE
  8
CSLAYER1
  6
CONTINUOUS
 62
     6
 10
561.364630
 20
156.877666
 11
561.495440
 21
156.727487
  0
LINE
  8
CSLAYER1
  6
CONTINUOUS
 62
     6
 10
561.495440
 20
156.727487
 11
561.631042
 21
156.575268
  0
LINE
  8
CSLAYER1
  6
CONTINUOUS
 62
     6
 10
561.631042
 20
156.575268
 11
561.771336
 21
156.422563
  0
LINE
  8
CSLAYER1
  6
CONTINUOUS
 62
     6
 10
561.771336
 20
156.422563
 11
561.916219
 21
156.270930
  0
LINE
  8
CSLAYER1
  6
CONTINUOUS
 62
     6
 10
561.916219
 20
156.270930
 11
562.065590
 21
156.121923
  0
LINE
  8
CSLAYER1
  6
CONTINUOUS
 62
     6
 10
562.065590
 20
156.121923
 11
562.219346
 21
155.977099
  0
LINE
  8
CSLAYER1
  6
CONTINUOUS
 62
     6
 10
562.219346
 20
155.977099
 11
562.377387
 21
155.838014
  0
LINE
  8
CSLAYER1
  6
CONTINUOUS
 62
     6
 10
562.377387
 20
155.838014
 11
562.539610
 21
155.706224
  0
LINE
  8
CSLAYER1
  6
CONTINUOUS
 62
     6
 10
562.539610
 20
155.706224
 11
562.705914
 21
155.583284
  0
LINE
  8
CSLAYER1
  6
CONTINUOUS
 62
     6
 10
562.705914
 20
155.583284
 11
562.876197
 21
155.470751
  0
LINE
  8
CSLAYER1
  6
CONTINUOUS
 62
     6
 10
562.876197
 20
155.470751
 11
562.968931
 21
155.415325
  0
LINE
  8
CSLAYER1
  6
CONTINUOUS
 62
     6
 10
562.968931
 20
155.415325
 11
563.063524
 21
155.362648
  0
LINE
  8
CSLAYER1
  6
CONTINUOUS
 62
     6
 10
563.063524
 20
155.362648
 11
563.159788
 21
155.312447
  0
LINE
  8
CSLAYER1
  6
CONTINUOUS
 62
     6
 10
563.159788
 20
155.312447
 11
563.257539
 21
155.264446
  0
LINE
  8
CSLAYER1
  6
CONTINUOUS
 62
     6
 10
563.257539
 20
155.264446
 11
563.356591
 21
155.218369
  0
LINE
  8
CSLAYER1
  6
CONTINUOUS
 62
     6
 10
563.356591
 20
155.218369
 11
563.456758
 21
155.173943
  0
LINE
  8
CSLAYER1
  6
CONTINUOUS
 62
     6
 10
563.456758
 20
155.173943
 11
563.557854
 21
155.130891
  0
LINE
  8
CSLAYER1
  6
CONTINUOUS
 62
     6
 10
563.557854
 20
155.130891
 11
563.659693
 21
155.088940
  0
LINE
  8
CSLAYER1
  6
CONTINUOUS
 62
     6
 10
563.659693
 20
155.088940
 11
563.762089
 21
155.047814
  0
LINE
  8
CSLAYER1
  6
CONTINUOUS
 62
     6
 10
563.762089
 20
155.047814
 11
563.864857
 21
155.007237
  0
LINE
  8
CSLAYER1
  6
CONTINUOUS
 62
     6
 10
563.864857
 20
155.007237
 11
563.967811
 21
154.966936
  0
ARC
  8
CSLAYER1
  6
CONTINUOUS
 62
     6
 10
559.009415
 20
152.545562
 40
1.200008
 50
89.538514
 51
149.538514
  0
LINE
  8
CSLAYER1
  6
CONTINUOUS
 62
     6
 10
550.615622
 20
164.996172
 11
551.059500
 21
165.696154
  0
LINE
  8
CSLAYER1
  6
CONTINUOUS
 62
     6
 10
550.559500
 20
165.696154
 11
550.115622
 21
164.996172
  0
ARC
  8
CSLAYER1
  6
CONTINUOUS
 62
     6
 10
547.911551
 20
165.096148
 40
0.100000
 50
180.057309
 51
269.999999
  0
LINE
  8
CSLAYER1
  6
CONTINUOUS
 62
     6
 10
547.811575
 20
165.096148
 11
547.811575
 21
165.596148
  0
ARC
  8
CSLAYER1
  6
CONTINUOUS
 62
     6
 10
547.911551
 20
165.596148
 40
0.100000
 50
89.999984
 51
179.999990
  0
LINE
  8
CSLAYER1
  6
CONTINUOUS
 62
     6
 10
537.711538
 20
163.696154
 11
537.711538
 21
167.696154
  0
LINE
  8
CSLAYER1
  6
CONTINUOUS
 62
     6
 10
537.711538
 20
163.696154
 11
524.711538
 21
163.696154
  0
LINE
  8
CSLAYER1
  6
CONTINUOUS
 62
     6
 10
524.711538
 20
162.696154
 11
524.711538
 21
252.696154
  0
LINE
  8
CSLAYER1
  6
CONTINUOUS
 62
     6
 10
524.711538
 20
252.696154
 11
447.011538
 21
252.696154
  0
LINE
  8
CSLAYER1
  6
CONTINUOUS
 62
     6
 10
446.508762
 20
249.905318
 11
441.711538
 21
249.905318
  0
LINE
  8
CSLAYER1
  6
CONTINUOUS
 62
     6
 10
441.711538
 20
253.042095
 11
439.711538
 21
252.426095
  0
LINE
  8
CSLAYER1
  6
CONTINUOUS
 62
     6
 10
439.711538
 20
254.274095
 11
441.711538
 21
254.890095
  0
LINE
  8
CSLAYER1
  6
CONTINUOUS
 62
     6
 10
441.711538
 20
257.410871
 11
446.508762
 21
257.410871
  0
ARC
  8
CSLAYER1
  6
CONTINUOUS
 62
     6
 10
432.754597
 20
253.658095
 40
14.256942
 50
-15.261480
 51
15.261480
  0
ARC
  8
CSLAYER1
  6
CONTINUOUS
 62
     6
 10
443.258762
 20
248.028929
 40
3.752777
 50
-15.446648
 51
30.000000
  0
LINE
  8
CSLAYER1
  6
CONTINUOUS
 62
     6
 10
447.011538
 20
247.353095
 11
447.011538
 21
259.963095
  0
LINE
  8
CSLAYER1
  6
CONTINUOUS
 62
     6
 10
447.011538
 20
259.963095
 11
446.508762
 21
261.163648
  0
LINE
  8
CSLAYER1
  6
CONTINUOUS
 62
     6
 10
446.508762
 20
261.163648
 11
441.711538
 21
261.163648
  0
LINE
  8
CSLAYER1
  6
CONTINUOUS
 62
     6
 10
441.711538
 20
261.358095
 11
441.711538
 21
245.958095
  0
LINE
  8
CSLAYER1
  6
CONTINUOUS
 62
     6
 10
441.711538
 20
245.958095
 11
439.711538
 21
245.958095
  0
LINE
  8
CSLAYER1
  6
CONTINUOUS
 62
     6
 10
441.711538
 20
246.152541
 11
446.508762
 21
246.152541
  0
LINE
  8
CSLAYER1
  6
CONTINUOUS
 62
     6
 10
446.508762
 20
246.152541
 11
447.011538
 21
247.353095
  0
ARC
  8
CSLAYER1
  6
CONTINUOUS
 62
     6
 10
443.258762
 20
259.287260
 40
3.752777
 50
-30.000000
 51
15.446648
  0
LINE
  8
CSLAYER1
  6
CONTINUOUS
 62
     6
 10
441.711538
 20
261.358095
 11
439.711538
 21
261.358095
  0
LINE
  8
CSLAYER1
  6
CONTINUOUS
 62
     6
 10
524.711538
 20
251.584612
 11
576.711538
 21
251.584612
  0
ARC
  8
CSLAYER1
  6
CONTINUOUS
 62
     6
 10
563.711538
 20
232.696154
 40
1.000000
 50
-0.000005
 51
89.999984
  0
LINE
  8
CSLAYER1
  6
CONTINUOUS
 62
     6
 10
564.711538
 20
232.696154
 11
564.711538
 21
231.696154
  0
ARC
  8
CSLAYER1
  6
CONTINUOUS
 62
     6
 10
563.711538
 20
231.696154
 40
1.000000
 50
269.999999
 51
359.999981
  0
LINE
  8
CSLAYER1
  6
CONTINUOUS
 62
     6
 10
563.711538
 20
230.696154
 11
527.711538
 21
230.696154
  0
ARC
  8
CSLAYER1
  6
CONTINUOUS
 62
     6
 10
527.711538
 20
231.696154
 40
1.000000
 50
180.057309
 51
269.999999
  0
LINE
  8
CSLAYER1
  6
CONTINUOUS
 62
     6
 10
526.711538
 20
231.696154
 11
526.711538
 21
232.696154
  0
ARC
  8
CSLAYER1
  6
CONTINUOUS
 62
     6
 10
527.711538
 20
232.696154
 40
1.000000
 50
89.999997
 51
180.000000
  0
LINE
  8
CSLAYER1
  6
CONTINUOUS
 62
     6
 10
527.711538
 20
233.696154
 11
563.711538
 21
233.696154
  0
LINE
  8
CSLAYER1
  6
CONTINUOUS
 62
     6
 10
563.711538
 20
226.696154
 11
527.711538
 21
226.696154
  0
ARC
  8
CSLAYER1
  6
CONTINUOUS
 62
     6
 10
527.711538
 20
225.696154
 40
1.000000
 50
89.999997
 51
180.000000
  0
LINE
  8
CSLAYER1
  6
CONTINUOUS
 62
     6
 10
526.711538
 20
225.696154
 11
526.711538
 21
224.696154
  0
ARC
  8
CSLAYER1
  6
CONTINUOUS
 62
     6
 10
527.711538
 20
224.696154
 40
1.000000
 50
180.057309
 51
269.999999
  0
LINE
  8
CSLAYER1
  6
CONTINUOUS
 62
     6
 10
527.711538
 20
223.696154
 11
532.482779
 21
223.696154
  0
ARC
  8
CSLAYER1
  6
CONTINUOUS
 62
     6
 10
532.482779
 20
222.696154
 40
1.000000
 50
-48.590367
 51
89.999997
  0
ARC
  8
CSLAYER1
  6
CONTINUOUS
 62
     6
 10
545.711538
 20
207.696154
 40
19.000000
 50
131.409614
 51
228.590366
  0
ARC
  8
CSLAYER1
  6
CONTINUOUS
 62
     6
 10
532.482779
 20
192.696154
 40
1.000000
 50
-90.000001
 51
48.590357
  0
LINE
  8
CSLAYER1
  6
CONTINUOUS
 62
     6
 10
532.482779
 20
191.696154
 11
527.711538
 21
191.696154
  0
ARC
  8
CSLAYER1
  6
CONTINUOUS
 62
     6
 10
527.711538
 20
190.696154
 40
1.000000
 50
90.000001
 51
179.942691
  0
LINE
  8
CSLAYER1
  6
CONTINUOUS
 62
     6
 10
526.711538
 20
190.696154
 11
526.711538
 21
189.696154
  0
ARC
  8
CSLAYER1
  6
CONTINUOUS
 62
     6
 10
527.711538
 20
189.696154
 40
1.000000
 50
180.000000
 51
270.000003
  0
LINE
  8
CSLAYER1
  6
CONTINUOUS
 62
     6
 10
527.711538
 20
188.696154
 11
563.711538
 21
188.696154
  0
ARC
  8
CSLAYER1
  6
CONTINUOUS
 62
     6
 10
563.711538
 20
189.696154
 40
1.000000
 50
-89.999984
 51
0.000005
  0
LINE
  8
CSLAYER1
  6
CONTINUOUS
 62
     6
 10
564.711538
 20
189.696154
 11
564.711538
 21
190.696154
  0
ARC
  8
CSLAYER1
  6
CONTINUOUS
 62
     6
 10
563.711538
 20
190.696154
 40
1.000000
 50
0.000019
 51
90.000001
  0
LINE
  8
CSLAYER1
  6
CONTINUOUS
 62
     6
 10
563.711538
 20
191.696154
 11
558.940298
 21
191.696154
  0
ARC
  8
CSLAYER1
  6
CONTINUOUS
 62
     6
 10
558.940298
 20
192.696154
 40
1.000000
 50
131.409614
 51
269.999999
  0
ARC
  8
CSLAYER1
  6
CONTINUOUS
 62
     6
 10
545.711538
 20
207.696154
 40
19.000000
 50
-48.590367
 51
48.590343
  0
ARC
  8
CSLAYER1
  6
CONTINUOUS
 62
     6
 10
558.940298
 20
222.696154
 40
1.000000
 50
89.999981
 51
228.590366
  0
LINE
  8
CSLAYER1
  6
CONTINUOUS
 62
     6
 10
558.940298
 20
223.696154
 11
563.711538
 21
223.696154
  0
ARC
  8
CSLAYER1
  6
CONTINUOUS
 62
     6
 10
563.711538
 20
224.696154
 40
1.000000
 50
269.999999
 51
359.999981
  0
LINE
  8
CSLAYER1
  6
CONTINUOUS
 62
     6
 10
564.711538
 20
224.696154
 11
564.711538
 21
225.696154
  0
ARC
  8
CSLAYER1
  6
CONTINUOUS
 62
     6
 10
563.711538
 20
225.696154
 40
1.000000
 50
-0.000005
 51
89.999984
  0
LINE
  8
CSLAYER1
  6
CONTINUOUS
 62
     6
 10
551.711538
 20
208.596148
 11
539.711538
 21
208.596148
  0
LINE
  8
CSLAYER1
  6
CONTINUOUS
 62
     6
 10
539.711538
 20
208.596148
 11
539.711538
 21
206.796160
  0
LINE
  8
CSLAYER1
  6
CONTINUOUS
 62
     6
 10
539.711538
 20
206.796160
 11
551.711538
 21
206.796160
  0
LINE
  8
CSLAYER1
  6
CONTINUOUS
 62
     6
 10
551.711538
 20
206.796160
 11
551.711538
 21
208.596148
  0
CIRCLE
  8
CSLAYER1
  6
CONTINUOUS
 62
     6
 10
545.711538
 20
207.696154
 40
12.000000
  0
CIRCLE
  8
CSLAYER1
  6
CONTINUOUS
 62
     6
 10
545.711538
 20
207.696154
 40
15.000000
  0
CIRCLE
  8
CSLAYER1
  6
CONTINUOUS
 62
     6
 10
545.711538
 20
207.696154
 40
16.000000
  0
ARC
  8
CSLAYER1
  6
CONTINUOUS
 62
     6
 10
563.711538
 20
183.696154
 40
1.000000
 50
0.000019
 51
90.000001
  0
LINE
  8
CSLAYER1
  6
CONTINUOUS
 62
     6
 10
564.711538
 20
183.696154
 11
564.711538
 21
182.696154
  0
ARC
  8
CSLAYER1
  6
CONTINUOUS
 62
     6
 10
563.711538
 20
182.696154
 40
1.000000
 50
-89.999984
 51
0.000005
  0
LINE
  8
CSLAYER1
  6
CONTINUOUS
 62
     6
 10
563.711538
 20
181.696154
 11
527.711538
 21
181.696154
  0
ARC
  8
CSLAYER1
  6
CONTINUOUS
 62
     6
 10
527.711538
 20
182.696154
 40
1.000000
 50
180.000000
 51
270.000003
  0
LINE
  8
CSLAYER1
  6
CONTINUOUS
 62
     6
 10
526.711538
 20
182.696154
 11
526.711538
 21
183.696154
  0
ARC
  8
CSLAYER1
  6
CONTINUOUS
 62
     6
 10
527.711538
 20
183.696154
 40
1.000000
 50
90.000001
 51
179.942691
  0
LINE
  8
CSLAYER1
  6
CONTINUOUS
 62
     6
 10
527.711538
 20
184.696154
 11
563.711538
 21
184.696154
  0
LINE
  8
CSLAYER1
  6
CONTINUOUS
 62
     6
 10
524.711538
 20
162.696154
 11
447.011538
 21
162.696154
  0
ARC
  8
CSLAYER1
  6
CONTINUOUS
 62
     6
 10
443.258762
 20
167.353379
 40
3.752777
 50
-30.000000
 51
15.446648
  0
LINE
  8
CSLAYER1
  6
CONTINUOUS
 62
     6
 10
447.011538
 20
168.029214
 11
446.508762
 21
169.229768
  0
LINE
  8
CSLAYER1
  6
CONTINUOUS
 62
     6
 10
446.508762
 20
169.229768
 11
441.711538
 21
169.229768
  0
LINE
  8
CSLAYER1
  6
CONTINUOUS
 62
     6
 10
441.711538
 20
169.424214
 11
441.711538
 21
154.024214
  0
LINE
  8
CSLAYER1
  6
CONTINUOUS
 62
     6
 10
441.711538
 20
154.024214
 11
439.711538
 21
154.024214
  0
LINE
  8
CSLAYER1
  6
CONTINUOUS
 62
     6
 10
441.711538
 20
154.218661
 11
446.508762
 21
154.218661
  0
LINE
  8
CSLAYER1
  6
CONTINUOUS
 62
     6
 10
446.508762
 20
154.218661
 11
447.011538
 21
155.419214
  0
LINE
  8
CSLAYER1
  6
CONTINUOUS
 62
     6
 10
447.011538
 20
155.419214
 11
447.011538
 21
168.029214
  0
LINE
  8
CSLAYER1
  6
CONTINUOUS
 62
     6
 10
446.508762
 20
165.476991
 11
441.711538
 21
165.476991
  0
LINE
  8
CSLAYER1
  6
CONTINUOUS
 62
     6
 10
441.711538
 20
162.956214
 11
439.711538
 21
162.340214
  0
LINE
  8
CSLAYER1
  6
CONTINUOUS
 62
     6
 10
439.711538
 20
160.492214
 11
441.711538
 21
161.108214
  0
LINE
  8
CSLAYER1
  6
CONTINUOUS
 62
     6
 10
441.711538
 20
157.971437
 11
446.508762
 21
157.971437
  0
ARC
  8
CSLAYER1
  6
CONTINUOUS
 62
     6
 10
443.258762
 20
156.095049
 40
3.752777
 50
-15.446648
 51
30.000000
  0
ARC
  8
CSLAYER1
  6
CONTINUOUS
 62
     6
 10
432.754597
 20
161.724214
 40
14.256942
 50
-15.261480
 51
15.261480
  0
LINE
  8
CSLAYER1
  6
CONTINUOUS
 62
     6
 10
441.711538
 20
169.424214
 11
439.711538
 21
169.424214
  0
LINE
  8
CSLAYER1
  6
CONTINUOUS
 62
     6
 10
611.711538
 20
227.196154
 11
624.124491
 21
227.196154
  0
LINE
  8
CSLAYER1
  6
CONTINUOUS
 62
     6
 10
611.711538
 20
227.196154
 11
611.711538
 21
249.196154
  0
LINE
  8
CSLAYER1
  6
CONTINUOUS
 62
     6
 10
611.711538
 20
249.196154
 11
633.317460
 21
249.196154
  0
LINE
  8
CSLAYER1
  6
CONTINUOUS
 62
     6
 10
649.249598
 20
249.905318
 11
655.749598
 21
246.152541
  0
LINE
  8
CSLAYER1
  6
CONTINUOUS
 62
     6
 10
655.749598
 20
246.152541
 11
662.249598
 21
249.905318
  0
LINE
  8
CSLAYER1
  6
CONTINUOUS
 62
     6
 10
662.249598
 20
249.905318
 11
662.249598
 21
257.410871
  0
LINE
  8
CSLAYER1
  6
CONTINUOUS
 62
     6
 10
662.249598
 20
257.410871
 11
655.749598
 21
261.163648
  0
LINE
  8
CSLAYER1
  6
CONTINUOUS
 62
     6
 10
655.749598
 20
261.163648
 11
649.249598
 21
257.410871
  0
LINE
  8
CSLAYER1
  6
CONTINUOUS
 62
     6
 10
649.249598
 20
257.410871
 11
649.249598
 21
249.905318
  0
CIRCLE
  8
CSLAYER1
  6
CONTINUOUS
 62
     6
 10
655.749598
 20
253.658095
 40
7.700000
  0
CIRCLE
  8
CSLAYER1
  6
CONTINUOUS
 62
     6
 10
655.749598
 20
253.658095
 40
6.305000
  0
ARC
  8
CSLAYER1
  6
CONTINUOUS
 62
     6
 10
657.711538
 20
232.696154
 40
1.000000
 50
90.000019
 51
180.000000
  0
LINE
  8
CSLAYER1
  6
CONTINUOUS
 62
     6
 10
656.711538
 20
232.696154
 11
656.711538
 21
231.696154
  0
ARC
  8
CSLAYER1
  6
CONTINUOUS
 62
     6
 10
657.696493
 20
231.696154
 40
1.000000
 50
180.057313
 51
269.999999
  0
LINE
  8
CSLAYER1
  6
CONTINUOUS
 62
     6
 10
657.696493
 20
230.696154
 11
662.372686
 21
230.451037
  0
ARC
  8
CSLAYER1
  6
CONTINUOUS
 62
     6
 10
662.320333
 20
229.452410
 40
1.000000
 50
-28.911585
 51
86.999038
  0
ARC
  8
CSLAYER1
  6
CONTINUOUS
 62
     6
 10
660.995367
 20
229.101641
 40
2.000000
 50
272.999605
 51
332.268193
  0
LINE
  8
CSLAYER1
  6
CONTINUOUS
 62
     6
 10
661.100027
 20
227.104357
 11
653.691122
 21
226.716113
  0
ARC
  8
CSLAYER1
  6
CONTINUOUS
 62
     6
 10
653.711538
 20
225.716357
 40
1.000000
 50
91.169254
 51
180.000000
  0
LINE
  8
CSLAYER1
  6
CONTINUOUS
 62
     6
 10
652.711538
 20
225.716357
 11
652.711538
 21
189.675951
  0
ARC
  8
CSLAYER1
  6
CONTINUOUS
 62
     6
 10
653.711538
 20
189.675951
 40
1.000000
 50
180.057313
 51
268.830764
  0
LINE
  8
CSLAYER1
  6
CONTINUOUS
 62
     6
 10
653.691122
 20
188.676196
 11
661.100027
 21
188.287951
  0
ARC
  8
CSLAYER1
  6
CONTINUOUS
 62
     6
 10
660.995367
 20
186.290667
 40
2.000000
 50
27.731825
 51
87.000355
  0
ARC
  8
CSLAYER1
  6
CONTINUOUS
 62
     6
 10
662.320333
 20
185.939898
 40
1.000000
 50
-86.999020
 51
28.911602
  0
LINE
  8
CSLAYER1
  6
CONTINUOUS
 62
     6
 10
662.372686
 20
184.941271
 11
657.696493
 21
184.696154
  0
ARC
  8
CSLAYER1
  6
CONTINUOUS
 62
     6
 10
657.696493
 20
183.696154
 40
1.000000
 50
90.000019
 51
180.000000
  0
LINE
  8
CSLAYER1
  6
CONTINUOUS
 62
     6
 10
656.711538
 20
183.696154
 11
656.711538
 21
182.696154
  0
ARC
  8
CSLAYER1
  6
CONTINUOUS
 62
     6
 10
657.711538
 20
182.696154
 40
1.000000
 50
180.057313
 51
269.999999
  0
LINE
  8
CSLAYER1
  6
CONTINUOUS
 62
     6
 10
657.711538
 20
181.696154
 11
665.640020
 21
181.280657
  0
ARC
  8
CSLAYER1
  6
CONTINUOUS
 62
     6
 10
665.535345
 20
179.283404
 40
2.000000
 50
38.145734
 51
86.999897
  0
ARC
  8
CSLAYER1
  6
CONTINUOUS
 62
     6
 10
701.711538
 20
207.696124
 40
45.000000
 50
215.914343
 51
324.085656
  0
ARC
  8
CSLAYER1
  6
CONTINUOUS
 62
     6
 10
737.887747
 20
179.283404
 40
2.000000
 50
93.000083
 51
141.854246
  0
LINE
  8
CSLAYER1
  6
CONTINUOUS
 62
     6
 10
737.783071
 20
181.280657
 11
745.711538
 21
181.696154
  0
ARC
  8
CSLAYER1
  6
CONTINUOUS
 62
     6
 10
745.711538
 20
182.696154
 40
1.000000
 50
269.999999
 51
359.999980
  0
LINE
  8
CSLAYER1
  6
CONTINUOUS
 62
     6
 10
746.711538
 20
182.696154
 11
746.711538
 21
183.696154
  0
ARC
  8
CSLAYER1
  6
CONTINUOUS
 62
     6
 10
745.726583
 20
183.696154
 40
1.000000
 50
-0.000020
 51
89.999961
  0
LINE
  8
CSLAYER1
  6
CONTINUOUS
 62
     6
 10
745.726583
 20
184.696154
 11
741.050405
 21
184.941271
  0
ARC
  8
CSLAYER1
  6
CONTINUOUS
 62
     6
 10
741.102743
 20
185.939898
 40
1.000000
 50
151.088395
 51
266.999018
  0
ARC
  8
CSLAYER1
  6
CONTINUOUS
 62
     6
 10
742.427725
 20
186.290667
 40
2.000000
 50
92.999625
 51
152.268155
  0
LINE
  8
CSLAYER1
  6
CONTINUOUS
 62
     6
 10
742.323049
 20
188.287951
 11
749.731954
 21
188.676196
  0
ARC
  8
CSLAYER1
  6
CONTINUOUS
 62
     6
 10
749.711538
 20
189.675951
 40
1.000000
 50
271.169234
 51
359.999980
  0
LINE
  8
CSLAYER1
  6
CONTINUOUS
 62
     6
 10
750.711538
 20
189.675951
 11
750.711538
 21
225.716357
  0
ARC
  8
CSLAYER1
  6
CONTINUOUS
 62
     6
 10
749.711538
 20
225.716357
 40
1.000000
 50
-0.000020
 51
88.830784
  0
LINE
  8
CSLAYER1
  6
CONTINUOUS
 62
     6
 10
749.731954
 20
226.716113
 11
742.323049
 21
227.104357
  0
ARC
  8
CSLAYER1
  6
CONTINUOUS
 62
     6
 10
742.427725
 20
229.101641
 40
2.000000
 50
207.731805
 51
267.000336
  0
ARC
  8
CSLAYER1
  6
CONTINUOUS
 62
     6
 10
741.102743
 20
229.452410
 40
1.000000
 50
93.000960
 51
208.911583
  0
LINE
  8
CSLAYER1
  6
CONTINUOUS
 62
     6
 10
741.050405
 20
230.451037
 11
745.726583
 21
230.696154
  0
ARC
  8
CSLAYER1
  6
CONTINUOUS
 62
     6
 10
745.726583
 20
231.696154
 40
1.000000
 50
269.999999
 51
359.999980
  0
LINE
  8
CSLAYER1
  6
CONTINUOUS
 62
     6
 10
746.711538
 20
231.696154
 11
746.711538
 21
232.696154
  0
ARC
  8
CSLAYER1
  6
CONTINUOUS
 62
     6
 10
745.711538
 20
232.696154
 40
1.000000
 50
-0.000020
 51
89.999961
  0
LINE
  8
CSLAYER1
  6
CONTINUOUS
 62
     6
 10
745.711538
 20
233.696154
 11
737.783071
 21
234.111651
  0
ARC
  8
CSLAYER1
  6
CONTINUOUS
 62
     6
 10
737.887747
 20
236.108904
 40
2.000000
 50
218.145714
 51
266.999935
  0
ARC
  8
CSLAYER1
  6
CONTINUOUS
 62
     6
 10
701.711538
 20
207.696185
 40
45.000000
 50
35.914343
 51
144.085658
  0
ARC
  8
CSLAYER1
  6
CONTINUOUS
 62
     6
 10
665.535345
 20
236.108904
 40
2.000000
 50
273.000063
 51
321.854284
  0
LINE
  8
CSLAYER1
  6
CONTINUOUS
 62
     6
 10
665.640020
 20
234.111651
 11
657.711538
 21
233.696154
  0
ARC
  8
CSLAYER1
  6
CONTINUOUS
 62
     6
 10
701.711538
 20
207.696185
 40
45.000000
 50
149.814348
 51
154.449465
  0
LINE
  8
CSLAYER1
  6
CONTINUOUS
 62
     6
 10
669.711538
 20
225.723956
 11
669.711553
 21
219.696154
  0
ARC
  8
CSLAYER1
  6
CONTINUOUS
 62
     6
 10
671.711553
 20
219.696154
 40
2.000000
 50
180.057313
 51
269.999999
  0
LINE
  8
CSLAYER1
  6
CONTINUOUS
 62
     6
 10
671.711553
 20
217.696154
 11
677.711553
 21
217.696154
  0
ARC
  8
CSLAYER1
  6
CONTINUOUS
 62
     6
 10
677.711553
 20
220.696154
 40
3.000000
 50
-90.000001
 51
0.000037
  0
LINE
  8
CSLAYER1
  6
CONTINUOUS
 62
     6
 10
680.711553
 20
220.696154
 11
680.711538
 21
234.078021
  0
ARC
  8
CSLAYER1
  6
CONTINUOUS
 62
     6
 10
678.711538
 20
234.078021
 40
2.000000
 50
-0.000020
 51
131.082239
  0
ARC
  8
CSLAYER1
  6
CONTINUOUS
 62
     6
 10
701.711538
 20
207.696185
 40
37.000008
 50
131.082296
 51
148.997254
  0
ARC
  8
CSLAYER1
  6
CONTINUOUS
 62
     6
 10
671.711538
 20
225.723956
 40
2.000000
 50
148.997311
 51
180.000000
  0
ARC
  8
CSLAYER1
  6
CONTINUOUS
 62
     6
 10
689.711538
 20
227.317584
 40
2.000000
 50
180.057313
 51
301.448850
  0
ARC
  8
CSLAYER1
  6
CONTINUOUS
 62
     6
 10
701.711538
 20
207.696185
 40
20.999992
 50
107.718968
 51
121.449042
  0
ARC
  8
CSLAYER1
  6
CONTINUOUS
 62
     6
 10
694.711538
 20
229.605090
 40
2.000000
 50
287.718719
 51
359.999980
  0
LINE
  8
CSLAYER1
  6
CONTINUOUS
 62
     6
 10
696.711538
 20
229.605090
 11
696.711538
 21
237.696154
  0
ARC
  8
CSLAYER1
  6
CONTINUOUS
 62
     6
 10
694.711538
 20
237.696154
 40
2.000000
 50
-0.000020
 51
90.000019
  0
LINE
  8
CSLAYER1
  6
CONTINUOUS
 62
     6
 10
694.711538
 20
239.696154
 11
689.711538
 21
239.696154
  0
ARC
  8
CSLAYER1
  6
CONTINUOUS
 62
     6
 10
689.711538
 20
237.696154
 40
2.000000
 50
90.000019
 51
180.000000
  0
LINE
  8
CSLAYER1
  6
CONTINUOUS
 62
     6
 10
687.711538
 20
237.696154
 11
687.711538
 21
227.317584
  0
ARC
  8
CSLAYER1
  6
CONTINUOUS
 62
     6
 10
708.711538
 20
229.605090
 40
2.000000
 50
180.057313
 51
252.281222
  0
ARC
  8
CSLAYER1
  6
CONTINUOUS
 62
     6
 10
701.711538
 20
207.696185
 40
20.999992
 50
58.550938
 51
72.281070
  0
ARC
  8
CSLAYER1
  6
CONTINUOUS
 62
     6
 10
713.711538
 20
227.317584
 40
2.000000
 50
238.551148
 51
359.999980
  0
LINE
  8
CSLAYER1
  6
CONTINUOUS
 62
     6
 10
715.711538
 20
227.317584
 11
715.711538
 21
237.696154
  0
ARC
  8
CSLAYER1
  6
CONTINUOUS
 62
     6
 10
713.711538
 20
237.696154
 40
2.000000
 50
-0.000020
 51
89.999961
  0
LINE
  8
CSLAYER1
  6
CONTINUOUS
 62
     6
 10
713.711538
 20
239.696154
 11
708.711538
 21
239.696154
  0
ARC
  8
CSLAYER1
  6
CONTINUOUS
 62
     6
 10
708.711538
 20
237.696154
 40
2.000000
 50
89.999961
 51
180.000000
  0
LINE
  8
CSLAYER1
  6
CONTINUOUS
 62
     6
 10
706.711538
 20
237.696154
 11
706.711538
 21
229.605090
  0
ARC
  8
CSLAYER1
  6
CONTINUOUS
 62
     6
 10
724.711538
 20
234.078021
 40
2.000000
 50
48.917742
 51
180.000000
  0
ARC
  8
CSLAYER1
  6
CONTINUOUS
 62
     6
 10
701.711538
 20
207.696185
 40
37.000008
 50
31.002726
 51
48.917684
  0
ARC
  8
CSLAYER1
  6
CONTINUOUS
 62
     6
 10
731.711538
 20
225.723956
 40
2.000000
 50
-0.000020
 51
31.002669
  0
LINE
  8
CSLAYER1
  6
CONTINUOUS
 62
     6
 10
733.711538
 20
225.723956
 11
733.711523
 21
219.696154
  0
ARC
  8
CSLAYER1
  6
CONTINUOUS
 62
     6
 10
731.711523
 20
219.696154
 40
2.000000
 50
269.999999
 51
359.999866
  0
LINE
  8
CSLAYER1
  6
CONTINUOUS
 62
     6
 10
731.711523
 20
217.696154
 11
725.711523
 21
217.696154
  0
ARC
  8
CSLAYER1
  6
CONTINUOUS
 62
     6
 10
725.711523
 20
220.696154
 40
3.000000
 50
180.057313
 51
269.999999
  0
LINE
  8
CSLAYER1
  6
CONTINUOUS
 62
     6
 10
722.711523
 20
220.696154
 11
722.711538
 21
234.078021
  0
ARC
  8
CSLAYER1
  6
CONTINUOUS
 62
     6
 10
701.711538
 20
207.696185
 40
45.000000
 50
25.550626
 51
30.185652
  0
LINE
  8
CSLAYER1
  6
CONTINUOUS
 62
     6
 10
747.673479
 20
246.152541
 11
741.173479
 21
249.905318
  0
LINE
  8
CSLAYER1
  6
CONTINUOUS
 62
     6
 10
741.173479
 20
249.905318
 11
741.173479
 21
257.410871
  0
LINE
  8
CSLAYER1
  6
CONTINUOUS
 62
     6
 10
741.173479
 20
257.410871
 11
747.673479
 21
261.163648
  0
LINE
  8
CSLAYER1
  6
CONTINUOUS
 62
     6
 10
747.673479
 20
261.163648
 11
754.173479
 21
257.410871
  0
LINE
  8
CSLAYER1
  6
CONTINUOUS
 62
     6
 10
754.173479
 20
257.410871
 11
754.173479
 21
249.905318
  0
LINE
  8
CSLAYER1
  6
CONTINUOUS
 62
     6
 10
754.173479
 20
249.905318
 11
747.673479
 21
246.152541
  0
CIRCLE
  8
CSLAYER1
  6
CONTINUOUS
 62
     6
 10
747.673479
 20
253.658095
 40
7.700000
  0
CIRCLE
  8
CSLAYER1
  6
CONTINUOUS
 62
     6
 10
747.673479
 20
253.658095
 40
6.305000
  0
ARC
  8
CSLAYER1
  6
CONTINUOUS
 62
     6
 10
731.711538
 20
280.656154
 40
2.000000
 50
10.860436
 51
89.000000
  0
LINE
  8
CSLAYER1
  6
CONTINUOUS
 62
     6
 10
731.751538
 20
282.656154
 11
729.551582
 21
282.695700
  0
LINE
  8
CSLAYER1
  6
CONTINUOUS
 62
     6
 10
673.871495
 20
282.695700
 11
671.671538
 21
282.656154
  0
ARC
  8
CSLAYER1
  6
CONTINUOUS
 62
     6
 10
671.711538
 20
280.656154
 40
2.000000
 50
91.000000
 51
169.139564
  0
CIRCLE
  8
CSLAYER1
  6
CONTINUOUS
 62
     6
 10
701.711538
 20
207.696185
 40
15.000000
  0
CIRCLE
  8
CSLAYER1
  6
CONTINUOUS
 62
     6
 10
701.711538
 20
207.696185
 40
44.000000
  0
ARC
  8
CSLAYER1
  6
CONTINUOUS
 62
     6
 10
692.477919
 20
199.714081
 40
1.363635
 50
217.903410
 51
309.763671
  0
ARC
  8
CSLAYER1
  6
CONTINUOUS
 62
     6
 10
701.711538
 20
206.903032
 40
13.065822
 50
-37.903051
 51
217.903067
  0
ARC
  8
CSLAYER1
  6
CONTINUOUS
 62
     6
 10
710.945169
 20
199.714081
 40
1.363635
 50
230.236270
 51
322.096587
  0
ARC
  8
CSLAYER1
  6
CONTINUOUS
 62
     6
 10
708.203667
 20
196.419418
 40
2.922462
 50
50.235849
 51
203.481547
  0
LINE
  8
CSLAYER1
  6
CONTINUOUS
 62
     6
 10
705.523221
 20
195.254959
 11
706.105566
 21
193.354189
  0
CIRCLE
  8
CSLAYER1
  6
CONTINUOUS
 62
     6
 10
708.203667
 20
196.419418
 40
1.363635
  0
ARC
  8
CSLAYER1
  6
CONTINUOUS
 62
     6
 10
713.711538
 20
188.074725
 40
2.000000
 50
-0.000020
 51
121.448870
  0
LINE
  8
CSLAYER1
  6
CONTINUOUS
 62
     6
 10
715.711538
 20
188.074725
 11
715.711538
 21
177.696154
  0
ARC
  8
CSLAYER1
  6
CONTINUOUS
 62
     6
 10
713.711538
 20
177.696154
 40
2.000000
 50
269.999999
 51
359.999980
  0
LINE
  8
CSLAYER1
  6
CONTINUOUS
 62
     6
 10
713.711538
 20
175.696154
 11
708.711538
 21
175.696154
  0
ARC
  8
CSLAYER1
  6
CONTINUOUS
 62
     6
 10
708.711538
 20
177.696154
 40
2.000000
 50
180.057313
 51
269.999999
  0
LINE
  8
CSLAYER1
  6
CONTINUOUS
 62
     6
 10
706.711538
 20
177.696154
 11
706.711538
 21
185.787219
  0
ARC
  8
CSLAYER1
  6
CONTINUOUS
 62
     6
 10
708.711538
 20
185.787219
 40
2.000000
 50
107.718739
 51
180.000000
  0
ARC
  8
CSLAYER1
  6
CONTINUOUS
 62
     6
 10
701.711538
 20
207.696124
 40
20.999992
 50
287.718948
 51
301.449022
  0
ARC
  8
CSLAYER1
  6
CONTINUOUS
 62
     6
 10
725.711523
 20
194.696154
 40
3.000000
 50
89.999979
 51
180.000018
  0
LINE
  8
CSLAYER1
  6
CONTINUOUS
 62
     6
 10
725.711523
 20
197.696154
 11
731.711523
 21
197.696154
  0
ARC
  8
CSLAYER1
  6
CONTINUOUS
 62
     6
 10
731.711523
 20
195.696154
 40
2.000000
 50
0.000095
 51
90.000019
  0
LINE
  8
CSLAYER1
  6
CONTINUOUS
 62
     6
 10
733.711523
 20
195.696154
 11
733.711538
 21
189.668353
  0
ARC
  8
CSLAYER1
  6
CONTINUOUS
 62
     6
 10
731.711538
 20
189.668353
 40
2.000000
 50
328.997291
 51
359.999980
  0
ARC
  8
CSLAYER1
  6
CONTINUOUS
 62
     6
 10
701.711538
 20
207.696124
 40
37.000008
 50
311.082276
 51
328.997234
  0
ARC
  8
CSLAYER1
  6
CONTINUOUS
 62
     6
 10
724.711538
 20
181.314288
 40
2.000000
 50
180.057313
 51
311.082219
  0
LINE
  8
CSLAYER1
  6
CONTINUOUS
 62
     6
 10
722.711538
 20
181.314288
 11
722.711523
 21
194.696154
  0
ARC
  8
CSLAYER1
  6
CONTINUOUS
 62
     6
 10
701.711538
 20
207.696124
 40
45.000000
 50
329.814347
 51
334.449464
  0
LINE
  8
CSLAYER1
  6
CONTINUOUS
 62
     6
 10
747.673479
 20
169.239767
 11
741.173479
 21
165.486990
  0
LINE
  8
CSLAYER1
  6
CONTINUOUS
 62
     6
 10
741.173479
 20
165.486990
 11
741.173479
 21
157.981436
  0
LINE
  8
CSLAYER1
  6
CONTINUOUS
 62
     6
 10
741.173479
 20
157.981436
 11
747.673479
 21
154.228660
  0
LINE
  8
CSLAYER1
  6
CONTINUOUS
 62
     6
 10
747.673479
 20
154.228660
 11
754.173479
 21
157.981436
  0
LINE
  8
CSLAYER1
  6
CONTINUOUS
 62
     6
 10
754.173479
 20
157.981436
 11
754.173479
 21
165.486990
  0
LINE
  8
CSLAYER1
  6
CONTINUOUS
 62
     6
 10
754.173479
 20
165.486990
 11
747.673479
 21
169.239767
  0
CIRCLE
  8
CSLAYER1
  6
CONTINUOUS
 62
     6
 10
747.673479
 20
161.734213
 40
7.700000
  0
CIRCLE
  8
CSLAYER1
  6
CONTINUOUS
 62
     6
 10
747.673479
 20
161.734213
 40
6.305000
  0
LINE
  8
CSLAYER1
  6
CONTINUOUS
 62
     6
 10
703.713537
 20
162.740679
 11
703.713529
 21
156.140107
  0
ARC
  8
CSLAYER1
  6
CONTINUOUS
 62
     6
 10
703.213025
 20
157.007004
 40
1.001006
 50
240.000019
 51
300.000019
  0
ARC
  8
CSLAYER1
  6
CONTINUOUS
 62
     6
 10
702.212019
 20
157.007003
 40
1.001006
 50
240.000019
 51
300.000019
  0
LINE
  8
CSLAYER1
  6
CONTINUOUS
 62
     6
 10
701.711516
 20
156.140106
 11
701.711538
 21
162.696154
  0
LINE
  8
CSLAYER1
  6
CONTINUOUS
 62
     6
 10
699.709539
 20
162.740679
 11
699.709531
 21
156.140107
  0
ARC
  8
CSLAYER1
  6
CONTINUOUS
 62
     6
 10
700.210005
 20
157.007003
 40
1.001006
 50
240.000019
 51
300.000019
  0
ARC
  8
CSLAYER1
  6
CONTINUOUS
 62
     6
 10
701.211011
 20
157.007004
 40
1.001006
 50
240.000019
 51
300.000019
  0
ARC
  8
CSLAYER1
  6
CONTINUOUS
 62
     6
 10
702.212020
 20
155.273210
 40
1.001006
 50
60.000019
 51
120.000019
  0
ARC
  8
CSLAYER1
  6
CONTINUOUS
 62
     6
 10
703.213047
 20
153.781743
 40
1.000999
 50
59.999655
 51
119.999655
  0
ARC
  8
CSLAYER1
  6
CONTINUOUS
 62
     6
 10
703.213057
 20
155.515524
 40
1.000999
 50
239.999655
 51
299.999655
  0
ARC
  8
CSLAYER1
  6
CONTINUOUS
 62
     6
 10
702.212048
 20
153.781749
 40
1.000999
 50
59.999655
 51
119.999655
  0
LINE
  8
CSLAYER1
  6
CONTINUOUS
 62
     6
 10
701.711537
 20
154.648631
 11
701.711562
 21
153.475646
  0
ARC
  8
CSLAYER1
  6
CONTINUOUS
 62
     6
 10
716.052076
 20
153.489991
 40
14.340522
 50
180.057313
 51
207.463775
  0
LINE
  8
CSLAYER1
  6
CONTINUOUS
 62
     6
 10
703.327695
 20
146.876328
 11
705.104078
 21
147.799638
  0
ARC
  8
CSLAYER1
  6
CONTINUOUS
 62
     6
 10
716.052076
 20
153.489991
 40
12.338538
 50
180.057313
 51
207.463775
  0
LINE
  8
CSLAYER1
  6
CONTINUOUS
 62
     6
 10
703.713544
 20
153.490037
 11
703.713544
 21
154.648637
  0
ARC
  8
CSLAYER1
  6
CONTINUOUS
 62
     6
 10
701.211043
 20
155.515524
 40
1.000999
 50
239.999655
 51
299.999655
  0
ARC
  8
CSLAYER1
  6
CONTINUOUS
 62
     6
 10
701.211033
 20
153.781743
 40
1.000999
 50
59.999655
 51
119.999655
  0
ARC
  8
CSLAYER1
  6
CONTINUOUS
 62
     6
 10
700.210034
 20
153.781749
 40
1.000999
 50
59.999655
 51
119.999655
  0
LINE
  8
CSLAYER1
  6
CONTINUOUS
 62
     6
 10
699.709531
 20
154.648637
 11
699.709531
 21
153.490037
  0
ARC
  8
CSLAYER1
  6
CONTINUOUS
 62
     6
 10
687.371000
 20
153.489991
 40
12.338538
 50
-27.463892
 51
0.000037
  0
LINE
  8
CSLAYER1
  6
CONTINUOUS
 62
     6
 10
698.318982
 20
147.799607
 11
700.095365
 21
146.876328
  0
ARC
  8
CSLAYER1
  6
CONTINUOUS
 62
     6
 10
687.371000
 20
153.490037
 40
14.340522
 50
332.536108
 51
359.999980
  0
ARC
  8
CSLAYER1
  6
CONTINUOUS
 62
     6
 10
700.210006
 20
155.273210
 40
1.001006
 50
60.000019
 51
120.000019
  0
LINE
  8
CSLAYER1
  6
CONTINUOUS
 62
     6
 10
694.711538
 20
175.696154
 11
689.711538
 21
175.696154
  0
ARC
  8
CSLAYER1
  6
CONTINUOUS
 62
     6
 10
689.711538
 20
177.696154
 40
2.000000
 50
180.057313
 51
269.999999
  0
LINE
  8
CSLAYER1
  6
CONTINUOUS
 62
     6
 10
687.711538
 20
177.696154
 11
687.711538
 21
188.074725
  0
ARC
  8
CSLAYER1
  6
CONTINUOUS
 62
     6
 10
689.711538
 20
188.074725
 40
2.000000
 50
58.551110
 51
180.000000
  0
ARC
  8
CSLAYER1
  6
CONTINUOUS
 62
     6
 10
701.711538
 20
207.696124
 40
20.999992
 50
238.550976
 51
252.281050
  0
ARC
  8
CSLAYER1
  6
CONTINUOUS
 62
     6
 10
694.711538
 20
185.787219
 40
2.000000
 50
-0.000020
 51
72.281242
  0
LINE
  8
CSLAYER1
  6
CONTINUOUS
 62
     6
 10
696.711538
 20
185.787219
 11
696.711538
 21
177.696154
  0
ARC
  8
CSLAYER1
  6
CONTINUOUS
 62
     6
 10
694.711538
 20
177.696154
 40
2.000000
 50
269.999999
 51
359.999980
  0
ARC
  8
CSLAYER1
  6
CONTINUOUS
 62
     6
 10
678.711538
 20
181.314288
 40
2.000000
 50
228.917779
 51
359.999980
  0
ARC
  8
CSLAYER1
  6
CONTINUOUS
 62
     6
 10
701.711538
 20
207.696124
 40
37.000008
 50
211.002764
 51
228.917722
  0
ARC
  8
CSLAYER1
  6
CONTINUOUS
 62
     6
 10
671.711538
 20
189.668353
 40
2.000000
 50
180.057313
 51
211.002649
  0
LINE
  8
CSLAYER1
  6
CONTINUOUS
 62
     6
 10
669.711538
 20
189.668353
 11
669.711553
 21
195.696154
  0
ARC
  8
CSLAYER1
  6
CONTINUOUS
 62
     6
 10
671.711553
 20
195.696154
 40
2.000000
 50
90.000019
 51
179.999885
  0
LINE
  8
CSLAYER1
  6
CONTINUOUS
 62
     6
 10
671.711553
 20
197.696154
 11
677.711553
 21
197.696154
  0
ARC
  8
CSLAYER1
  6
CONTINUOUS
 62
     6
 10
677.711553
 20
194.696154
 40
3.000000
 50
-0.000020
 51
90.000019
  0
LINE
  8
CSLAYER1
  6
CONTINUOUS
 62
     6
 10
680.711553
 20
194.696154
 11
680.711538
 21
181.314288
  0
ARC
  8
CSLAYER1
  6
CONTINUOUS
 62
     6
 10
701.711538
 20
207.696124
 40
45.000000
 50
205.550536
 51
210.185653
  0
LINE
  8
CSLAYER1
  6
CONTINUOUS
 62
     6
 10
655.749598
 20
169.239767
 11
662.249598
 21
165.486990
  0
LINE
  8
CSLAYER1
  6
CONTINUOUS
 62
     6
 10
662.249598
 20
165.486990
 11
662.249598
 21
157.981436
  0
LINE
  8
CSLAYER1
  6
CONTINUOUS
 62
     6
 10
662.249598
 20
157.981436
 11
655.749598
 21
154.228660
  0
LINE
  8
CSLAYER1
  6
CONTINUOUS
 62
     6
 10
655.749598
 20
154.228660
 11
649.249598
 21
157.981436
  0
LINE
  8
CSLAYER1
  6
CONTINUOUS
 62
     6
 10
649.249598
 20
157.981436
 11
649.249598
 21
165.486990
  0
LINE
  8
CSLAYER1
  6
CONTINUOUS
 62
     6
 10
649.249598
 20
165.486990
 11
655.749598
 21
169.239767
  0
CIRCLE
  8
CSLAYER1
  6
CONTINUOUS
 62
     6
 10
655.749598
 20
161.734213
 40
7.700000
  0
CIRCLE
  8
CSLAYER1
  6
CONTINUOUS
 62
     6
 10
655.749598
 20
161.734213
 40
6.305000
  0
LINE
  8
CSLAYER1
  6
CONTINUOUS
 62
     6
 10
697.317522
 20
193.354189
 11
697.899867
 21
195.254959
  0
ARC
  8
CSLAYER1
  6
CONTINUOUS
 62
     6
 10
695.219418
 20
196.419418
 40
2.922462
 50
-23.481549
 51
129.764149
  0
CIRCLE
  8
CSLAYER1
  6
CONTINUOUS
 62
     6
 10
695.219418
 20
196.419418
 40
1.363635
  0
LINE
  8
CSLAYER1
  6
CONTINUOUS
 62
     6
 10
698.748820
 20
147.576198
 11
697.296022
 21
145.180056
  0
LINE
  8
CSLAYER1
  6
CONTINUOUS
 62
     6
 10
697.886022
 20
144.770056
 11
699.207174
 21
147.337967
  0
LINE
  8
CSLAYER1
  6
CONTINUOUS
 62
     6
 10
699.667492
 20
147.103555
 11
698.562635
 21
144.528403
  0
LINE
  8
CSLAYER1
  6
CONTINUOUS
 62
     6
 10
703.741348
 20
147.091332
 11
704.996022
 21
144.360056
  0
LINE
  8
CSLAYER1
  6
CONTINUOUS
 62
     6
 10
705.626022
 20
144.590056
 11
704.215887
 21
147.337983
  0
LINE
  8
CSLAYER1
  6
CONTINUOUS
 62
     6
 10
704.692973
 20
147.579671
 11
706.180232
 21
144.967749
  0
LINE
  8
CSLAYER1
  6
CONTINUOUS
 62
     6
 10
725.711538
 20
134.196154
 11
677.711538
 21
134.196154
  0
LINE
  8
CSLAYER1
  6
CONTINUOUS
 62
     6
 10
677.711538
 20
134.196154
 11
676.711538
 21
133.196154
  0
LINE
  8
CSLAYER1
  6
CONTINUOUS
 62
     6
 10
676.711538
 20
133.196154
 11
643.711538
 21
133.196154
  0
LINE
  8
CSLAYER1
  6
CONTINUOUS
 62
     6
 10
643.711538
 20
133.196154
 11
643.711538
 21
143.816154
  0
ARC
  8
CSLAYER1
  6
CONTINUOUS
 62
     6
 10
645.711538
 20
143.816154
 40
2.000000
 50
111.030000
 51
180.000000
  0
LINE
  8
CSLAYER1
  6
CONTINUOUS
 62
     6
 10
644.991538
 20
145.676154
 11
649.237540
 21
147.310067
  0
LINE
  8
CSLAYER1
  6
DASHED
 62
     6
 10
651.211538
 20
145.196154
 11
651.211538
 21
133.196154
  0
ARC
  8
CSLAYER1
  6
CONTINUOUS
 62
     6
 10
701.711538
 20
207.696154
 40
80.000000
 50
-58.211669
 51
238.211669
  0
LINE
  8
CSLAYER1
  6
CONTINUOUS
 62
     6
 10
743.854153
 20
139.696154
 11
659.568923
 21
139.696154
  0
LINE
  8
CSLAYER1
  6
DASHED
 62
     6
 10
662.211538
 20
139.696154
 11
662.211538
 21
133.196154
  0
LINE
  8
CSLAYER1
  6
CONTINUOUS
 62
     6
 10
669.711538
 20
133.196154
 11
669.711538
 21
139.696154
  0
LINE
  8
CSLAYER1
  6
CONTINUOUS
 62
     6
 10
651.774078
 20
145.196154
 11
645.711538
 21
145.196154
  0
ARC
  8
CSLAYER1
  6
CONTINUOUS
 62
     6
 10
645.711538
 20
143.196154
 40
2.000000
 50
90.000000
 51
180.000000
  0
LINE
  8
CSLAYER1
  6
CONTINUOUS
 62
     6
 10
725.711538
 20
134.196154
 11
726.711538
 21
133.196154
  0
LINE
  8
CSLAYER1
  6
CONTINUOUS
 62
     6
 10
726.711538
 20
133.196154
 11
759.711538
 21
133.196154
  0
LINE
  8
CSLAYER1
  6
CONTINUOUS
 62
     6
 10
759.711538
 20
133.196154
 11
759.711538
 21
143.816154
  0
ARC
  8
CSLAYER1
  6
CONTINUOUS
 62
     6
 10
757.711538
 20
143.816154
 40
2.000000
 50
0.000000
 51
68.960000
  0
LINE
  8
CSLAYER1
  6
CONTINUOUS
 62
     6
 10
758.431538
 20
145.676154
 11
754.185537
 21
147.310067
  0
LINE
  8
CSLAYER1
  6
DASHED
 62
     6
 10
752.211538
 20
145.196154
 11
752.211538
 21
133.196154
  0
LINE
  8
CSLAYER1
  6
DASHED
 62
     6
 10
741.211538
 20
133.196154
 11
741.211538
 21
139.696154
  0
LINE
  8
CSLAYER1
  6
CONTINUOUS
 62
     6
 10
733.711538
 20
139.696154
 11
733.711538
 21
133.196154
  0
LINE
  8
CSLAYER1
  6
CONTINUOUS
 62
     6
 10
751.648999
 20
145.196154
 11
757.711538
 21
145.196154
  0
ARC
  8
CSLAYER1
  6
CONTINUOUS
 62
     6
 10
757.711538
 20
143.196154
 40
2.000000
 50
0.000000
 51
90.000000
  0
ENDSEC
  0
EOF
