  0
SECTION
  2
HEADER
  9
$ACADVER
  1
AC1006
  9
$INSBASE
 10
0.000000
 20
0.000000
 30
0.0
  9
$EXTMIN
 10
0.000000
 20
0.000000
  9
$EXTMAX
 10
841.000000
 20
594.000000
  9
$LIMMIN
 10
0.000000
 20
0.000000
  9
$LIMMAX
 10
841.000000
 20
594.000000
  9
$VIEWCTR
 10
420.500000
 20
297.000000
  9
$VIEWSIZE
 40
594.000000
  9
$SNAPMODE
 70
     0
  9
$SNAPUNIT
 10
1.0
 20
1.0
  9
$SNAPBASE
 10
0.0
 20
0.0
  9
$SNAPANG
 50
0.0
  9
$SNAPSTYLE
 70
     0
  9
$SNAPISOPAIR
 70
     0
  9
$GRIDMODE
 70
     0
  9
$GRIDUNIT
 10
0.0
 20
0.0
  9
$ORTHOMODE
 70
     0
  9
$REGENMODE
 70
     1
  9
$FILLMODE
 70
     1
  9
$QTEXTMODE
 70
     0
  9
$DRAGMODE
 70
     2
  9
$LTSCALE
 40
15.000000
  9
$OSMODE
 70
     0
  9
$ATTMODE
 70
     1
  9
$TEXTSIZE
 40
0.2
  9
$TRACEWID
 40
0.05
  9
$TEXTSTYLE
  7
STANDARD
  9
$CLAYER
  8
CSLAYER1
  9
$CELTYPE
  6
BYLAYER
  9
$CECOLOR
 62
   256
  9
$DIMSCALE
 40
1.0
  9
$DIMASZ
 40
0.18
  9
$DIMEXO
 40
0.0625
  9
$DIMDLI
 40
0.38
  9
$DIMRND
 40
0.0
  9
$DIMDLE
 40
0.0
  9
$DIMEXE
 40
0.18
  9
$DIMTP
 40
0.0
  9
$DIMTM
 40
0.0
  9
$DIMTXT
 40
0.18
  9
$DIMCEN
 40
0.09
  9
$DIMTSZ
 40
0.0
  9
$DIMTOL
 70
     0
  9
$DIMLIM
 70
     0
  9
$DIMTIH
 70
     1
  9
$DIMTOH
 70
     1
  9
$DIMSE1
 70
     0
  9
$DIMSE2
 70
     0
  9
$DIMTAD
 70
     0
  9
$DIMZIN
 70
     0
  9
$DIMBLK
  1

  9
$LUNITS
 70
     2
  9
$LUPREC
 70
     4
  9
$AXISMODE
 70
     0
  9
$AXISUNIT
 10
0.0
 20
0.0
  9
$SKETCHINC
 40
0.1
  9
$FILLETRAD
 40
0.0
  9
$AUNITS
 70
     0
  9
$AUPREC
 70
     0
  9
$MENU
  1
ACAD
  9
$ELEVATION
 40
0.0
  9
$THICKNESS
 40
0.0
  9
$VIEWDIR
 10
0.0
 20
0.0
 30
1.0
  9
$LIMCHECK
 70
     0
  9
$BLIPMODE
 70
     1
  9
$CHAMFERA
 40
0.0
  9
$CHAMFERB
 40
0.0
  9
$FASTZOOM
 70
     1
  9
$SKPOLY
 70
     0
  9
$TDCREATE
 40
0.000000
  9
$TDUPDATE
 40
0.000000
  9
$TDINDWG
 40
0.0
  9
$TDUSRTIMER
 40
0.0
  9
$USRTIMER
 70
     1
  9
$ANGBASE
 50
0.0
  9
$ANGDIR
 70
     0
  9
$PDMODE
 70
     0
  9
$PDSIZE
 40
0.0
  9
$PLINEWID
 40
0.0
  9
$COORDS
 70
     0
  9
$USERI1
 70
     0
  9
$USERI2
 70
     0
  9
$USERI3
 70
     0
  9
$USERI4
 70
     0
  9
$USERI5
 70
     0
  9
$USERR1
 40
0.0
  9
$USERR2
 40
0.0
  9
$USERR3
 40
0.0
  9
$USERR4
 40
0.0
  9
$USERR5
 40
0.0
  0
ENDSEC
  0
SECTION
  2
TABLES
  0
TABLE
  2
LTYPE
 70
     9
  0
LTYPE
  2
CONTINUOUS
 70
    64
  3
Solid line
 72
    65
 73
     0
 40
0.0
  0
LTYPE
  2
DASHED
 70
    64
  3
__ __ __ __ __ __ __ __ __ __ __ __ __ __ __
 72
    65
 73
     2
 40
0.75
 49
0.5
 49
-0.25
  0
LTYPE
  2
HIDDEN
 70
    64
  3
_ _ _ _ _ _ _ _ _ _ _ _ _ _ _ _ _ _ _ _ _ _ _
 72
    65
 73
     2
 40
0.375
 49
0.25
 49
-0.125
  0
LTYPE
  2
DOT
 70
    64
  3
...............................................
 72
    65
 73
     2
 40
0.25
 49
0.0
 49
-0.25
  0
LTYPE
  2
DASHDOT
 70
    64
  3
__ . __ . __ . __ . __ . __ . __ . __ . __ . __
 72
    65
 73
     4
 40
1.0
 49
0.5
 49
-0.25
 49
0.0
 49
-0.25
  0
LTYPE
  2
DIVIDE
 70
    64
  3
__ . . __ . . __ . . __ . . __ . . __ . . __
 72
    65
 73
     6
 40
1.25
 49
0.5
 49
-0.25
 49
0.0
 49
-0.25
 49
0.0
 49
-0.25
  0
LTYPE
  2
CENTER
 70
    64
  3
____ _ ____ _ ____ _ ____ _ ____ _ ____ _ ____ 
 72
    65
 73
     4
 40
2.0
 49
1.25
 49
-0.25
 49
0.25
 49
-0.25
  0
LTYPE
  2
PHANTOM
 70
    64
  3
______  __  __  ______  __  __  ______  __  __ 
 72
    65
 73
     6
 40
2.5
 49
1.25
 49
-0.25
 49
0.25
 49
-0.25
 49
0.25
 49
-0.25
  0
LTYPE
  2
BORDER
 70
    64
  3
__ __ . __ __ . __ __ . __ __ . __ __ . __ __ .
 72
    65
 73
     6
 40
1.75
 49
0.5
 49
-0.25
 49
0.5
 49
-0.25
 49
0.0
 49
-0.25
  0
ENDTAB
  0
TABLE
  2
LAYER
 70
    16
  0
LAYER
  2
CSLAYER1
 70
    64
 62
     7
  6
CONTINUOUS
  0
LAYER
  2
CSLAYER2
 70
    64
 62
     7
  6
CONTINUOUS
  0
LAYER
  2
CSLAYER3
 70
    64
 62
     7
  6
CONTINUOUS
  0
LAYER
  2
CSLAYER4
 70
    64
 62
     7
  6
CONTINUOUS
  0
LAYER
  2
CSLAYER5
 70
    64
 62
     7
  6
CONTINUOUS
  0
LAYER
  2
CSLAYER6
 70
    64
 62
     7
  6
CONTINUOUS
  0
LAYER
  2
CSLAYER7
 70
    64
 62
     7
  6
CONTINUOUS
  0
LAYER
  2
CSLAYER8
 70
    64
 62
     7
  6
CONTINUOUS
  0
LAYER
  2
CSLAYER9
 70
    64
 62
     7
  6
CONTINUOUS
  0
LAYER
  2
CSLAYER10
 70
    64
 62
     7
  6
CONTINUOUS
  0
LAYER
  2
CSLAYER11
 70
    64
 62
     7
  6
CONTINUOUS
  0
LAYER
  2
CSLAYER12
 70
    64
 62
     7
  6
CONTINUOUS
  0
LAYER
  2
CSLAYER13
 70
    64
 62
     7
  6
CONTINUOUS
  0
LAYER
  2
CSLAYER14
 70
    64
 62
     7
  6
CONTINUOUS
  0
LAYER
  2
CSLAYER15
 70
    64
 62
     7
  6
CONTINUOUS
  0
LAYER
  2
CSLAYER16
 70
    64
 62
     7
  6
CONTINUOUS
  0
ENDTAB
  0
TABLE
  2
STYLE
 70
     1
  0
STYLE
  2
JX_FONT
 70
     0
 40
1.0
 41
1.0
 50
0.0
 71
     0
 42
1.0
  3
monotxt
  4
bigfont
  0
ENDTAB
  0
TABLE
  2
VIEW
 70
     0
  0
ENDTAB
  0
ENDSEC
  0
SECTION
  2
BLOCKS
  0
ENDSEC
  0
SECTION
  2
ENTITIES
  0
LINE
  8
CSLAYER1
  6
CENTER
 62
     3
 10
94.288462
 20
128.556154
 11
94.288462
 21
150.496154
  0
ARC
  8
CSLAYER1
  6
CENTER
 62
     3
 10
139.288462
 20
207.696154
 40
65.000000
 50
212.917958
 51
237.082042
  0
LINE
  8
CSLAYER1
  6
CENTER
 62
     3
 10
103.000633
 20
171.408325
 11
83.652409
 21
152.060101
  0
LINE
  8
CSLAYER1
  6
CENTER
 62
     3
 10
53.088462
 20
207.696154
 11
225.908462
 21
207.696154
  0
LINE
  8
CSLAYER1
  6
CENTER
 62
     3
 10
257.300462
 20
207.696154
 11
483.048462
 21
207.696154
  0
LINE
  8
CSLAYER1
  6
CENTER
 62
     3
 10
495.758443
 20
238.196154
 11
571.820417
 21
238.196154
  0
LINE
  8
CSLAYER1
  6
CENTER
 62
     3
 10
620.884295
 20
238.196154
 11
774.576525
 21
238.196154
  0
ARC
  8
CSLAYER1
  6
CONTINUOUS
 62
     3
 10
761.792295
 20
253.656154
 40
4.000000
 50
-59.336170
 51
59.360000
  0
LINE
  8
CSLAYER1
  6
CENTER
 62
     3
 10
715.832295
 20
295.096154
 11
715.832295
 21
127.496154
  0
LINE
  8
CSLAYER1
  6
CENTER
 62
     3
 10
760.832295
 20
128.556154
 11
760.832295
 21
150.496154
  0
ARC
  8
CSLAYER1
  6
CONTINUOUS
 62
     3
 10
761.792295
 20
161.716154
 40
4.000000
 50
-157.666317
 51
67.380000
  0
LINE
  8
CSLAYER1
  6
CENTER
 62
     3
 10
802.032295
 20
207.696154
 11
629.212295
 21
207.696154
  0
LINE
  8
CSLAYER1
  6
CENTER
 62
     3
 10
568.788462
 20
149.936154
 11
568.788462
 21
129.436154
  0
LINE
  8
CSLAYER1
  6
CENTER
 62
     3
 10
533.788462
 20
126.936154
 11
533.788462
 21
289.196154
  0
LINE
  8
CSLAYER1
  6
CENTER
 62
     3
 10
431.288462
 20
253.658095
 11
387.988462
 21
253.658095
  0
LINE
  8
CSLAYER1
  6
CONTINUOUS
 62
     3
 10
380.288431
 20
252.696154
 11
380.288431
 21
246.101888
  0
ARC
  8
CSLAYER1
  6
CONTINUOUS
 62
     3
 10
378.288431
 20
246.101888
 40
2.000000
 50
270.000001
 51
359.942691
  0
LINE
  8
CSLAYER1
  6
CONTINUOUS
 62
     3
 10
378.288431
 20
244.101888
 11
350.288431
 21
244.101919
  0
ARC
  8
CSLAYER1
  6
CONTINUOUS
 62
     3
 10
350.288431
 20
246.101919
 40
2.000000
 50
180.000005
 51
270.000001
  0
LINE
  8
CSLAYER1
  6
CONTINUOUS
 62
     3
 10
348.288431
 20
246.101919
 11
348.288431
 21
252.696154
  0
LINE
  8
CSLAYER1
  6
CENTER
 62
     3
 10
295.288462
 20
239.696154
 11
295.288462
 21
175.696154
  0
LINE
  8
CSLAYER1
  6
CENTER
 62
     3
 10
290.288462
 20
170.696154
 11
290.288462
 21
159.996142
  0
LINE
  8
CSLAYER1
  6
CENTER
 62
     3
 10
234.236462
 20
238.196154
 11
202.538599
 21
238.196154
  0
ARC
  8
CSLAYER1
  6
CENTER
 62
     3
 10
139.288462
 20
207.696154
 40
65.000000
 50
32.917958
 51
57.082042
  0
LINE
  8
CSLAYER1
  6
CENTER
 62
     3
 10
175.576290
 20
243.983983
 11
194.924514
 21
263.332207
  0
LINE
  8
CSLAYER1
  6
CENTER
 62
     3
 10
139.288462
 20
293.696154
 11
139.288462
 21
127.496154
  0
LINE
  8
CSLAYER1
  6
CENTER
 62
     3
 10
184.288462
 20
129.076154
 11
184.288462
 21
149.476154
  0
ARC
  8
CSLAYER1
  6
CENTER
 62
     3
 10
139.288462
 20
207.696154
 40
65.000000
 50
302.917958
 51
327.082042
  0
LINE
  8
CSLAYER1
  6
CENTER
 62
     3
 10
175.576290
 20
171.408325
 11
194.924514
 21
152.060101
  0
LINE
  8
CSLAYER1
  6
CENTER
 62
     3
 10
103.000633
 20
243.983983
 11
83.652409
 21
263.332207
  0
ARC
  8
CSLAYER1
  6
CENTER
 62
     3
 10
139.288462
 20
207.696154
 40
65.000000
 50
122.917958
 51
147.082042
  0
LINE
  8
CSLAYER1
  6
CENTER
 62
     3
 10
295.288462
 20
377.749969
 11
295.288462
 21
400.356781
  0
LINE
  8
CSLAYER1
  6
CENTER
 62
     3
 10
257.300462
 20
431.750000
 11
592.219854
 21
431.750000
  0
LINE
  8
CSLAYER1
  6
CENTER
 62
     3
 10
568.788462
 20
395.976578
 11
568.788462
 21
376.124522
  0
LINE
  8
CSLAYER1
  6
CENTER
 62
     3
 10
576.468105
 20
386.750000
 11
560.867610
 21
386.750000
  0
LINE
  8
CSLAYER1
  6
CENTER
 62
     3
 10
506.709313
 20
386.750000
 11
491.108818
 21
386.750000
  0
LINE
  8
CSLAYER1
  6
CENTER
 62
     3
 10
498.788462
 20
395.976578
 11
498.788462
 21
376.124522
  0
LINE
  8
CSLAYER1
  6
CENTER
 62
     3
 10
533.788462
 20
336.802000
 11
533.788462
 21
494.360905
  0
LINE
  8
CSLAYER1
  6
CENTER
 62
     3
 10
560.867610
 20
476.750000
 11
576.468105
 21
476.750000
  0
LINE
  8
CSLAYER1
  6
CENTER
 62
     3
 10
568.788462
 20
467.523422
 11
568.788462
 21
487.375478
  0
LINE
  8
CSLAYER1
  6
CENTER
 62
     3
 10
506.709313
 20
476.750000
 11
491.108818
 21
476.750000
  0
LINE
  8
CSLAYER1
  6
CENTER
 62
     3
 10
498.788462
 20
467.523422
 11
498.788462
 21
487.375478
  0
LINE
  8
CSLAYER1
  6
CENTER
 62
     3
 10
431.288462
 20
477.711941
 11
387.988462
 21
477.711941
  0
ARC
  8
CSLAYER1
  6
CONTINUOUS
 62
     3
 10
378.288462
 20
455.250000
 40
2.000000
 50
0.000000
 51
90.000000
  0
LINE
  8
CSLAYER1
  6
CONTINUOUS
 62
     3
 10
380.288462
 20
455.250000
 11
380.288462
 21
408.250000
  0
ARC
  8
CSLAYER1
  6
CONTINUOUS
 62
     3
 10
378.288462
 20
408.250000
 40
2.000000
 50
270.000000
 51
360.000000
  0
LINE
  8
CSLAYER1
  6
CONTINUOUS
 62
     3
 10
378.288462
 20
406.250000
 11
350.288462
 21
406.250000
  0
ARC
  8
CSLAYER1
  6
CONTINUOUS
 62
     3
 10
350.288462
 20
408.250000
 40
2.000000
 50
180.000000
 51
270.000000
  0
LINE
  8
CSLAYER1
  6
CONTINUOUS
 62
     3
 10
348.288462
 20
408.250000
 11
348.288462
 21
455.250000
  0
ARC
  8
CSLAYER1
  6
CONTINUOUS
 62
     3
 10
350.288462
 20
455.250000
 40
2.000000
 50
90.000000
 51
180.000000
  0
LINE
  8
CSLAYER1
  6
CONTINUOUS
 62
     3
 10
350.288462
 20
457.250000
 11
378.288462
 21
457.250000
  0
LINE
  8
CSLAYER1
  6
CENTER
 62
     3
 10
295.288462
 20
463.143158
 11
295.288462
 21
485.749969
  0
LINE
  8
CSLAYER1
  6
CENTER
 62
     3
 10
387.988462
 20
385.788059
 11
431.288462
 21
385.788059
  0
LINE
  8
CSLAYER1
  6
CENTER
 62
     3
 10
431.288462
 20
161.724214
 11
387.988462
 21
161.724214
  0
LINE
  8
CSLAYER1
  6
CENTER
 62
     3
 10
498.788462
 20
148.936154
 11
498.788462
 21
128.936154
  0
LINE
  8
CSLAYER1
  6
CENTER
 62
     3
 10
670.832295
 20
129.076154
 11
670.832295
 21
149.476154
  0
ARC
  8
CSLAYER1
  6
CONTINUOUS
 62
     3
 10
669.872295
 20
161.716154
 40
4.000000
 50
112.643740
 51
337.380000
  0
ARC
  8
CSLAYER1
  6
CONTINUOUS
 62
     3
 10
669.872295
 20
253.656154
 40
4.000000
 50
120.663830
 51
227.770000
  0
TEXT
  8
CSLAYER1
 62
     3
 10
362.345215
 20
437.000031
 40
3.500000
 41
1.125000
  1
N P
 50
-90.000000
 51
10.000000
  7
JX_FONT
 72
     5
 11
362.345215
 21
426.500031
  0
LINE
  8
CSLAYER1
  6
CONTINUOUS
 62
     6
 10
81.288462
 20
133.196154
 11
114.288462
 21
133.196154
  0
LINE
  8
CSLAYER1
  6
CONTINUOUS
 62
     6
 10
114.288462
 20
133.196154
 11
115.288462
 21
134.196154
  0
LINE
  8
CSLAYER1
  6
CONTINUOUS
 62
     6
 10
115.288462
 20
134.196154
 11
163.288462
 21
134.196154
  0
LINE
  8
CSLAYER1
  6
CONTINUOUS
 62
     6
 10
163.288462
 20
134.196154
 11
164.288462
 21
133.196154
  0
LINE
  8
CSLAYER1
  6
CONTINUOUS
 62
     6
 10
164.288462
 20
133.196154
 11
197.288462
 21
133.196154
  0
LINE
  8
CSLAYER1
  6
CONTINUOUS
 62
     6
 10
197.288462
 20
133.196154
 11
197.288462
 21
143.816154
  0
ARC
  8
CSLAYER1
  6
CONTINUOUS
 62
     6
 10
195.288462
 20
143.816154
 40
2.000000
 50
0.000000
 51
68.970000
  0
LINE
  8
CSLAYER1
  6
CONTINUOUS
 62
     6
 10
196.008462
 20
145.676154
 11
191.762460
 21
147.310067
  0
LINE
  8
CSLAYER1
  6
DASHED
 62
     6
 10
189.788462
 20
145.196154
 11
189.788462
 21
133.196154
  0
ARC
  8
CSLAYER1
  6
CONTINUOUS
 62
     6
 10
139.288462
 20
207.696154
 40
80.000000
 50
-58.211669
 51
238.211669
  0
LINE
  8
CSLAYER1
  6
CONTINUOUS
 62
     6
 10
97.145847
 20
139.696154
 11
181.431077
 21
139.696154
  0
LINE
  8
CSLAYER1
  6
DASHED
 62
     6
 10
178.788462
 20
139.696154
 11
178.788462
 21
133.196154
  0
LINE
  8
CSLAYER1
  6
CONTINUOUS
 62
     6
 10
189.225922
 20
145.196154
 11
195.288462
 21
145.196154
  0
ARC
  8
CSLAYER1
  6
CONTINUOUS
 62
     6
 10
195.288462
 20
143.196154
 40
2.000000
 50
0.000000
 51
90.000000
  0
LINE
  8
CSLAYER1
  6
CONTINUOUS
 62
     6
 10
143.703978
 20
145.180056
 11
142.251180
 21
147.576198
  0
ARC
  8
CSLAYER1
  6
CONTINUOUS
 62
     6
 10
153.629000
 20
153.489991
 40
12.338538
 50
179.999963
 51
207.463892
  0
LINE
  8
CSLAYER1
  6
CONTINUOUS
 62
     6
 10
141.290469
 20
153.490037
 11
141.290469
 21
154.648637
  0
ARC
  8
CSLAYER1
  6
CONTINUOUS
 62
     6
 10
140.789966
 20
153.781749
 40
1.000999
 50
60.000345
 51
120.000345
  0
ARC
  8
CSLAYER1
  6
CONTINUOUS
 62
     6
 10
139.788967
 20
153.781743
 40
1.000999
 50
60.000345
 51
120.000345
  0
LINE
  8
CSLAYER1
  6
CONTINUOUS
 62
     6
 10
139.288463
 20
154.648631
 11
139.288438
 21
153.475646
  0
ARC
  8
CSLAYER1
  6
CONTINUOUS
 62
     6
 10
124.947924
 20
153.489991
 40
14.340522
 50
332.536225
 51
359.942687
  0
LINE
  8
CSLAYER1
  6
CONTINUOUS
 62
     6
 10
137.672305
 20
146.876328
 11
135.895922
 21
147.799638
  0
ARC
  8
CSLAYER1
  6
CONTINUOUS
 62
     6
 10
124.947924
 20
153.489991
 40
12.338538
 50
332.536225
 51
359.942687
  0
LINE
  8
CSLAYER1
  6
CONTINUOUS
 62
     6
 10
137.286456
 20
153.490037
 11
137.286456
 21
154.648637
  0
ARC
  8
CSLAYER1
  6
CONTINUOUS
 62
     6
 10
137.786953
 20
153.781743
 40
1.000999
 50
60.000345
 51
120.000345
  0
ARC
  8
CSLAYER1
  6
CONTINUOUS
 62
     6
 10
137.786943
 20
155.515524
 40
1.000999
 50
240.000345
 51
300.000345
  0
ARC
  8
CSLAYER1
  6
CONTINUOUS
 62
     6
 10
138.787952
 20
153.781749
 40
1.000999
 50
60.000345
 51
120.000345
  0
ARC
  8
CSLAYER1
  6
CONTINUOUS
 62
     6
 10
139.788957
 20
155.515524
 40
1.000999
 50
240.000345
 51
300.000345
  0
ARC
  8
CSLAYER1
  6
CONTINUOUS
 62
     6
 10
139.788989
 20
157.007004
 40
1.001006
 50
239.999981
 51
299.999981
  0
LINE
  8
CSLAYER1
  6
CONTINUOUS
 62
     6
 10
139.288484
 20
156.140106
 11
139.288462
 21
162.696154
  0
LINE
  8
CSLAYER1
  6
CONTINUOUS
 62
     6
 10
137.286463
 20
162.740679
 11
137.286471
 21
156.140107
  0
ARC
  8
CSLAYER1
  6
CONTINUOUS
 62
     6
 10
137.786975
 20
157.007004
 40
1.001006
 50
239.999981
 51
299.999981
  0
ARC
  8
CSLAYER1
  6
CONTINUOUS
 62
     6
 10
138.787981
 20
157.007003
 40
1.001006
 50
239.999981
 51
299.999981
  0
ARC
  8
CSLAYER1
  6
CONTINUOUS
 62
     6
 10
138.787980
 20
155.273210
 40
1.001006
 50
59.999981
 51
119.999981
  0
ARC
  8
CSLAYER1
  6
CONTINUOUS
 62
     6
 10
140.789995
 20
157.007003
 40
1.001006
 50
239.999981
 51
299.999981
  0
ARC
  8
CSLAYER1
  6
CONTINUOUS
 62
     6
 10
140.789994
 20
155.273210
 40
1.001006
 50
59.999981
 51
119.999981
  0
LINE
  8
CSLAYER1
  6
CONTINUOUS
 62
     6
 10
141.290469
 20
156.140107
 11
141.290461
 21
162.740679
  0
ARC
  8
CSLAYER1
  6
CONTINUOUS
 62
     6
 10
153.629000
 20
153.490037
 40
14.340522
 50
180.000020
 51
207.463892
  0
LINE
  8
CSLAYER1
  6
CONTINUOUS
 62
     6
 10
140.904635
 20
146.876328
 11
142.681018
 21
147.799607
  0
LINE
  8
CSLAYER1
  6
CONTINUOUS
 62
     6
 10
141.792826
 20
147.337967
 11
143.113978
 21
144.770056
  0
LINE
  8
CSLAYER1
  6
CONTINUOUS
 62
     6
 10
142.437365
 20
144.528403
 11
141.332508
 21
147.103555
  0
LINE
  8
CSLAYER1
  6
CONTINUOUS
 62
     6
 10
137.258652
 20
147.091332
 11
136.003978
 21
144.360056
  0
LINE
  8
CSLAYER1
  6
CONTINUOUS
 62
     6
 10
135.373978
 20
144.590056
 11
136.784113
 21
147.337983
  0
LINE
  8
CSLAYER1
  6
CONTINUOUS
 62
     6
 10
136.307027
 20
147.579671
 11
134.819768
 21
144.967749
  0
LINE
  8
CSLAYER1
  6
DASHED
 62
     6
 10
99.788462
 20
139.696154
 11
99.788462
 21
133.196154
  0
LINE
  8
CSLAYER1
  6
DASHED
 62
     6
 10
88.788462
 20
133.196154
 11
88.788462
 21
145.196154
  0
LINE
  8
CSLAYER1
  6
CONTINUOUS
 62
     6
 10
89.351001
 20
145.196154
 11
83.288462
 21
145.196154
  0
ARC
  8
CSLAYER1
  6
CONTINUOUS
 62
     6
 10
83.288462
 20
143.196154
 40
2.000000
 50
90.000000
 51
180.000000
  0
LINE
  8
CSLAYER1
  6
CONTINUOUS
 62
     6
 10
81.288462
 20
143.816154
 11
81.288462
 21
133.196154
  0
ARC
  8
CSLAYER1
  6
CONTINUOUS
 62
     6
 10
83.288462
 20
143.816154
 40
2.000000
 50
111.040000
 51
180.000000
  0
LINE
  8
CSLAYER1
  6
CONTINUOUS
 62
     6
 10
82.568462
 20
145.676154
 11
86.814463
 21
147.310067
  0
LINE
  8
CSLAYER1
  6
CONTINUOUS
 62
     6
 10
93.326521
 20
154.228660
 11
86.826521
 21
157.981436
  0
LINE
  8
CSLAYER1
  6
CONTINUOUS
 62
     6
 10
86.826521
 20
157.981436
 11
86.826521
 21
165.486990
  0
LINE
  8
CSLAYER1
  6
CONTINUOUS
 62
     6
 10
86.826521
 20
165.486990
 11
93.326521
 21
169.239767
  0
LINE
  8
CSLAYER1
  6
CONTINUOUS
 62
     6
 10
93.326521
 20
169.239767
 11
99.826521
 21
165.486990
  0
LINE
  8
CSLAYER1
  6
CONTINUOUS
 62
     6
 10
99.826521
 20
165.486990
 11
99.826521
 21
157.981436
  0
LINE
  8
CSLAYER1
  6
CONTINUOUS
 62
     6
 10
99.826521
 20
157.981436
 11
93.326521
 21
154.228660
  0
CIRCLE
  8
CSLAYER1
  6
CONTINUOUS
 62
     6
 10
93.326521
 20
161.734213
 40
7.700000
  0
CIRCLE
  8
CSLAYER1
  6
CONTINUOUS
 62
     6
 10
93.326521
 20
161.734213
 40
6.305000
  0
LINE
  8
CSLAYER1
  6
CONTINUOUS
 62
     6
 10
95.288462
 20
181.696154
 11
103.216929
 21
181.280657
  0
ARC
  8
CSLAYER1
  6
CONTINUOUS
 62
     6
 10
103.112253
 20
179.283404
 40
2.000000
 50
38.145754
 51
86.999917
  0
ARC
  8
CSLAYER1
  6
CONTINUOUS
 62
     6
 10
139.288462
 20
207.696124
 40
45.000000
 50
215.914344
 51
324.085657
  0
LINE
  8
CSLAYER1
  6
CONTINUOUS
 62
     6
 10
175.359980
 20
181.280657
 11
183.288462
 21
181.696154
  0
ARC
  8
CSLAYER1
  6
CONTINUOUS
 62
     6
 10
183.288462
 20
182.696154
 40
1.000000
 50
270.000001
 51
359.942687
  0
LINE
  8
CSLAYER1
  6
CONTINUOUS
 62
     6
 10
184.288462
 20
182.696154
 11
184.288462
 21
183.696154
  0
ARC
  8
CSLAYER1
  6
CONTINUOUS
 62
     6
 10
183.303507
 20
183.696154
 40
1.000000
 50
0.000000
 51
89.999981
  0
LINE
  8
CSLAYER1
  6
CONTINUOUS
 62
     6
 10
183.303507
 20
184.696154
 11
178.627314
 21
184.941271
  0
ARC
  8
CSLAYER1
  6
CONTINUOUS
 62
     6
 10
178.679667
 20
185.939898
 40
1.000000
 50
151.088398
 51
266.999020
  0
ARC
  8
CSLAYER1
  6
CONTINUOUS
 62
     6
 10
180.004633
 20
186.290667
 40
2.000000
 50
92.999645
 51
152.268175
  0
LINE
  8
CSLAYER1
  6
CONTINUOUS
 62
     6
 10
179.899973
 20
188.287951
 11
187.308878
 21
188.676196
  0
ARC
  8
CSLAYER1
  6
CONTINUOUS
 62
     6
 10
187.288462
 20
189.675951
 40
1.000000
 50
271.169236
 51
359.942687
  0
LINE
  8
CSLAYER1
  6
CONTINUOUS
 62
     6
 10
188.288462
 20
189.675951
 11
188.288462
 21
225.716357
  0
ARC
  8
CSLAYER1
  6
CONTINUOUS
 62
     6
 10
187.288462
 20
225.716357
 40
1.000000
 50
0.000000
 51
88.830746
  0
LINE
  8
CSLAYER1
  6
CONTINUOUS
 62
     6
 10
187.308878
 20
226.716113
 11
179.899973
 21
227.104357
  0
ARC
  8
CSLAYER1
  6
CONTINUOUS
 62
     6
 10
180.004633
 20
229.101641
 40
2.000000
 50
207.731807
 51
267.000395
  0
ARC
  8
CSLAYER1
  6
CONTINUOUS
 62
     6
 10
178.679667
 20
229.452410
 40
1.000000
 50
93.000962
 51
208.911585
  0
LINE
  8
CSLAYER1
  6
CONTINUOUS
 62
     6
 10
178.627314
 20
230.451037
 11
183.303507
 21
230.696154
  0
ARC
  8
CSLAYER1
  6
CONTINUOUS
 62
     6
 10
183.303507
 20
231.696154
 40
1.000000
 50
270.000001
 51
359.942687
  0
LINE
  8
CSLAYER1
  6
CONTINUOUS
 62
     6
 10
184.288462
 20
231.696154
 11
184.288462
 21
232.696154
  0
ARC
  8
CSLAYER1
  6
CONTINUOUS
 62
     6
 10
183.288462
 20
232.696154
 40
1.000000
 50
0.000000
 51
89.999981
  0
LINE
  8
CSLAYER1
  6
CONTINUOUS
 62
     6
 10
183.288462
 20
233.696154
 11
175.359980
 21
234.111651
  0
ARC
  8
CSLAYER1
  6
CONTINUOUS
 62
     6
 10
175.464655
 20
236.108904
 40
2.000000
 50
218.145716
 51
266.999937
  0
ARC
  8
CSLAYER1
  6
CONTINUOUS
 62
     6
 10
139.288462
 20
207.696185
 40
45.000000
 50
35.914342
 51
144.085657
  0
ARC
  8
CSLAYER1
  6
CONTINUOUS
 62
     6
 10
103.112253
 20
236.108904
 40
2.000000
 50
273.000065
 51
321.854286
  0
LINE
  8
CSLAYER1
  6
CONTINUOUS
 62
     6
 10
103.216929
 20
234.111651
 11
95.288462
 21
233.696154
  0
ARC
  8
CSLAYER1
  6
CONTINUOUS
 62
     6
 10
95.288462
 20
232.696154
 40
1.000000
 50
90.000039
 51
180.000020
  0
LINE
  8
CSLAYER1
  6
CONTINUOUS
 62
     6
 10
94.288462
 20
232.696154
 11
94.288462
 21
231.696154
  0
ARC
  8
CSLAYER1
  6
CONTINUOUS
 62
     6
 10
95.273417
 20
231.696154
 40
1.000000
 50
180.000020
 51
270.000001
  0
LINE
  8
CSLAYER1
  6
CONTINUOUS
 62
     6
 10
95.273417
 20
230.696154
 11
99.949595
 21
230.451037
  0
ARC
  8
CSLAYER1
  6
CONTINUOUS
 62
     6
 10
99.897257
 20
229.452410
 40
1.000000
 50
-28.911583
 51
86.999040
  0
ARC
  8
CSLAYER1
  6
CONTINUOUS
 62
     6
 10
98.572275
 20
229.101641
 40
2.000000
 50
272.999664
 51
332.268195
  0
LINE
  8
CSLAYER1
  6
CONTINUOUS
 62
     6
 10
98.676951
 20
227.104357
 11
91.268046
 21
226.716113
  0
ARC
  8
CSLAYER1
  6
CONTINUOUS
 62
     6
 10
91.288462
 20
225.716357
 40
1.000000
 50
91.169216
 51
180.000020
  0
LINE
  8
CSLAYER1
  6
CONTINUOUS
 62
     6
 10
90.288462
 20
225.716357
 11
90.288462
 21
189.675951
  0
ARC
  8
CSLAYER1
  6
CONTINUOUS
 62
     6
 10
91.288462
 20
189.675951
 40
1.000000
 50
180.000020
 51
268.830766
  0
LINE
  8
CSLAYER1
  6
CONTINUOUS
 62
     6
 10
91.268046
 20
188.676196
 11
98.676951
 21
188.287951
  0
ARC
  8
CSLAYER1
  6
CONTINUOUS
 62
     6
 10
98.572275
 20
186.290667
 40
2.000000
 50
27.731845
 51
87.000375
  0
ARC
  8
CSLAYER1
  6
CONTINUOUS
 62
     6
 10
99.897257
 20
185.939898
 40
1.000000
 50
-86.999018
 51
28.911605
  0
LINE
  8
CSLAYER1
  6
CONTINUOUS
 62
     6
 10
99.949595
 20
184.941271
 11
95.273417
 21
184.696154
  0
ARC
  8
CSLAYER1
  6
CONTINUOUS
 62
     6
 10
95.273417
 20
183.696154
 40
1.000000
 50
90.000039
 51
180.000020
  0
LINE
  8
CSLAYER1
  6
CONTINUOUS
 62
     6
 10
94.288462
 20
183.696154
 11
94.288462
 21
182.696154
  0
ARC
  8
CSLAYER1
  6
CONTINUOUS
 62
     6
 10
95.288462
 20
182.696154
 40
1.000000
 50
180.000020
 51
270.000001
  0
ARC
  8
CSLAYER1
  6
CONTINUOUS
 62
     6
 10
139.288462
 20
207.696124
 40
45.000000
 50
205.550536
 51
210.185653
  0
ARC
  8
CSLAYER1
  6
CONTINUOUS
 62
     6
 10
109.288462
 20
189.668353
 40
2.000000
 50
180.000020
 51
211.002709
  0
ARC
  8
CSLAYER1
  6
CONTINUOUS
 62
     6
 10
139.288462
 20
207.696124
 40
37.000008
 50
211.002766
 51
228.917724
  0
ARC
  8
CSLAYER1
  6
CONTINUOUS
 62
     6
 10
116.288462
 20
181.314288
 40
2.000000
 50
228.917781
 51
359.942687
  0
LINE
  8
CSLAYER1
  6
CONTINUOUS
 62
     6
 10
118.288462
 20
181.314288
 11
118.288477
 21
194.696154
  0
ARC
  8
CSLAYER1
  6
CONTINUOUS
 62
     6
 10
115.288477
 20
194.696154
 40
3.000000
 50
-0.000018
 51
90.000021
  0
LINE
  8
CSLAYER1
  6
CONTINUOUS
 62
     6
 10
115.288477
 20
197.696154
 11
109.288477
 21
197.696154
  0
ARC
  8
CSLAYER1
  6
CONTINUOUS
 62
     6
 10
109.288477
 20
195.696154
 40
2.000000
 50
89.999981
 51
179.999905
  0
LINE
  8
CSLAYER1
  6
CONTINUOUS
 62
     6
 10
107.288477
 20
195.696154
 11
107.288462
 21
189.668353
  0
LINE
  8
CSLAYER1
  6
CONTINUOUS
 62
     6
 10
125.288462
 20
188.074725
 11
125.288462
 21
177.696154
  0
ARC
  8
CSLAYER1
  6
CONTINUOUS
 62
     6
 10
127.288462
 20
177.696154
 40
2.000000
 50
180.000020
 51
270.000001
  0
LINE
  8
CSLAYER1
  6
CONTINUOUS
 62
     6
 10
127.288462
 20
175.696154
 11
132.288462
 21
175.696154
  0
ARC
  8
CSLAYER1
  6
CONTINUOUS
 62
     6
 10
132.288462
 20
177.696154
 40
2.000000
 50
270.000001
 51
359.942687
  0
LINE
  8
CSLAYER1
  6
CONTINUOUS
 62
     6
 10
134.288462
 20
177.696154
 11
134.288462
 21
185.787219
  0
ARC
  8
CSLAYER1
  6
CONTINUOUS
 62
     6
 10
132.288462
 20
185.787219
 40
2.000000
 50
0.000000
 51
72.281261
  0
ARC
  8
CSLAYER1
  6
CONTINUOUS
 62
     6
 10
139.288462
 20
207.696124
 40
20.999992
 50
238.550978
 51
252.281052
  0
ARC
  8
CSLAYER1
  6
CONTINUOUS
 62
     6
 10
127.288462
 20
188.074725
 40
2.000000
 50
58.551130
 51
180.000020
  0
LINE
  8
CSLAYER1
  6
CONTINUOUS
 62
     6
 10
134.894434
 20
193.354189
 11
135.476779
 21
195.254959
  0
ARC
  8
CSLAYER1
  6
CONTINUOUS
 62
     6
 10
132.796333
 20
196.419418
 40
2.922462
 50
-23.481547
 51
129.764151
  0
ARC
  8
CSLAYER1
  6
CONTINUOUS
 62
     6
 10
130.054831
 20
199.714081
 40
1.363635
 50
217.903413
 51
309.763730
  0
ARC
  8
CSLAYER1
  6
CONTINUOUS
 62
     6
 10
139.288462
 20
206.903032
 40
13.065822
 50
-37.903067
 51
217.903051
  0
ARC
  8
CSLAYER1
  6
CONTINUOUS
 62
     6
 10
148.522081
 20
199.714081
 40
1.363635
 50
230.236329
 51
322.096590
  0
ARC
  8
CSLAYER1
  6
CONTINUOUS
 62
     6
 10
145.780582
 20
196.419418
 40
2.922462
 50
50.235851
 51
203.481549
  0
LINE
  8
CSLAYER1
  6
CONTINUOUS
 62
     6
 10
143.100133
 20
195.254959
 11
143.682478
 21
193.354189
  0
CIRCLE
  8
CSLAYER1
  6
CONTINUOUS
 62
     6
 10
145.780582
 20
196.419418
 40
1.363635
  0
ARC
  8
CSLAYER1
  6
CONTINUOUS
 62
     6
 10
151.288462
 20
188.074725
 40
2.000000
 50
0.000000
 51
121.448890
  0
LINE
  8
CSLAYER1
  6
CONTINUOUS
 62
     6
 10
153.288462
 20
188.074725
 11
153.288462
 21
177.696154
  0
ARC
  8
CSLAYER1
  6
CONTINUOUS
 62
     6
 10
151.288462
 20
177.696154
 40
2.000000
 50
270.000001
 51
359.942687
  0
LINE
  8
CSLAYER1
  6
CONTINUOUS
 62
     6
 10
151.288462
 20
175.696154
 11
146.288462
 21
175.696154
  0
ARC
  8
CSLAYER1
  6
CONTINUOUS
 62
     6
 10
146.288462
 20
177.696154
 40
2.000000
 50
180.000020
 51
270.000001
  0
LINE
  8
CSLAYER1
  6
CONTINUOUS
 62
     6
 10
144.288462
 20
177.696154
 11
144.288462
 21
185.787219
  0
ARC
  8
CSLAYER1
  6
CONTINUOUS
 62
     6
 10
146.288462
 20
185.787219
 40
2.000000
 50
107.718758
 51
180.000020
  0
ARC
  8
CSLAYER1
  6
CONTINUOUS
 62
     6
 10
139.288462
 20
207.696124
 40
20.999992
 50
287.718950
 51
301.449024
  0
ARC
  8
CSLAYER1
  6
CONTINUOUS
 62
     6
 10
163.288447
 20
194.696154
 40
3.000000
 50
89.999981
 51
180.000020
  0
LINE
  8
CSLAYER1
  6
CONTINUOUS
 62
     6
 10
163.288447
 20
197.696154
 11
169.288447
 21
197.696154
  0
ARC
  8
CSLAYER1
  6
CONTINUOUS
 62
     6
 10
169.288447
 20
195.696154
 40
2.000000
 50
0.000115
 51
89.999981
  0
LINE
  8
CSLAYER1
  6
CONTINUOUS
 62
     6
 10
171.288447
 20
195.696154
 11
171.288462
 21
189.668353
  0
ARC
  8
CSLAYER1
  6
CONTINUOUS
 62
     6
 10
169.288462
 20
189.668353
 40
2.000000
 50
328.997351
 51
359.942687
  0
ARC
  8
CSLAYER1
  6
CONTINUOUS
 62
     6
 10
139.288462
 20
207.696124
 40
37.000008
 50
311.082278
 51
328.997236
  0
ARC
  8
CSLAYER1
  6
CONTINUOUS
 62
     6
 10
162.288462
 20
181.314288
 40
2.000000
 50
180.000020
 51
311.082221
  0
LINE
  8
CSLAYER1
  6
CONTINUOUS
 62
     6
 10
160.288462
 20
181.314288
 11
160.288447
 21
194.696154
  0
ARC
  8
CSLAYER1
  6
CONTINUOUS
 62
     6
 10
175.464655
 20
179.283404
 40
2.000000
 50
93.000103
 51
141.854266
  0
ARC
  8
CSLAYER1
  6
CONTINUOUS
 62
     6
 10
139.288462
 20
207.696124
 40
45.000000
 50
329.814347
 51
334.449464
  0
LINE
  8
CSLAYER1
  6
CONTINUOUS
 62
     6
 10
185.250402
 20
169.239767
 11
178.750402
 21
165.486990
  0
LINE
  8
CSLAYER1
  6
CONTINUOUS
 62
     6
 10
178.750402
 20
165.486990
 11
178.750402
 21
157.981436
  0
LINE
  8
CSLAYER1
  6
CONTINUOUS
 62
     6
 10
178.750402
 20
157.981436
 11
185.250402
 21
154.228660
  0
LINE
  8
CSLAYER1
  6
CONTINUOUS
 62
     6
 10
185.250402
 20
154.228660
 11
191.750402
 21
157.981436
  0
LINE
  8
CSLAYER1
  6
CONTINUOUS
 62
     6
 10
191.750402
 20
157.981436
 11
191.750402
 21
165.486990
  0
LINE
  8
CSLAYER1
  6
CONTINUOUS
 62
     6
 10
191.750402
 20
165.486990
 11
185.250402
 21
169.239767
  0
CIRCLE
  8
CSLAYER1
  6
CONTINUOUS
 62
     6
 10
185.250402
 20
161.734213
 40
7.700000
  0
CIRCLE
  8
CSLAYER1
  6
CONTINUOUS
 62
     6
 10
185.250402
 20
161.734213
 40
6.305000
  0
ARC
  8
CSLAYER1
  6
CONTINUOUS
 62
     6
 10
169.288447
 20
219.696154
 40
2.000000
 50
270.000001
 51
359.942687
  0
LINE
  8
CSLAYER1
  6
CONTINUOUS
 62
     6
 10
171.288447
 20
219.696154
 11
171.288462
 21
225.723956
  0
ARC
  8
CSLAYER1
  6
CONTINUOUS
 62
     6
 10
169.288462
 20
225.723956
 40
2.000000
 50
0.000000
 51
31.002689
  0
ARC
  8
CSLAYER1
  6
CONTINUOUS
 62
     6
 10
139.288462
 20
207.696185
 40
37.000008
 50
31.002746
 51
48.917704
  0
ARC
  8
CSLAYER1
  6
CONTINUOUS
 62
     6
 10
162.288462
 20
234.078021
 40
2.000000
 50
48.917761
 51
180.000020
  0
LINE
  8
CSLAYER1
  6
CONTINUOUS
 62
     6
 10
160.288462
 20
234.078021
 11
160.288447
 21
220.696154
  0
ARC
  8
CSLAYER1
  6
CONTINUOUS
 62
     6
 10
163.288447
 20
220.696154
 40
3.000000
 50
179.999963
 51
270.000001
  0
LINE
  8
CSLAYER1
  6
CONTINUOUS
 62
     6
 10
163.288447
 20
217.696154
 11
169.288447
 21
217.696154
  0
ARC
  8
CSLAYER1
  6
CONTINUOUS
 62
     6
 10
139.288462
 20
207.696185
 40
45.000000
 50
25.550535
 51
30.185652
  0
LINE
  8
CSLAYER1
  6
CONTINUOUS
 62
     6
 10
185.250402
 20
246.152541
 11
178.750402
 21
249.905318
  0
LINE
  8
CSLAYER1
  6
CONTINUOUS
 62
     6
 10
178.750402
 20
249.905318
 11
178.750402
 21
257.410871
  0
LINE
  8
CSLAYER1
  6
CONTINUOUS
 62
     6
 10
178.750402
 20
257.410871
 11
185.250402
 21
261.163648
  0
LINE
  8
CSLAYER1
  6
CONTINUOUS
 62
     6
 10
185.250402
 20
261.163648
 11
191.750402
 21
257.410871
  0
LINE
  8
CSLAYER1
  6
CONTINUOUS
 62
     6
 10
191.750402
 20
257.410871
 11
191.750402
 21
249.905318
  0
LINE
  8
CSLAYER1
  6
CONTINUOUS
 62
     6
 10
191.750402
 20
249.905318
 11
185.250402
 21
246.152541
  0
CIRCLE
  8
CSLAYER1
  6
CONTINUOUS
 62
     6
 10
185.250402
 20
253.658095
 40
7.700000
  0
CIRCLE
  8
CSLAYER1
  6
CONTINUOUS
 62
     6
 10
185.250402
 20
253.658095
 40
6.305000
  0
LINE
  8
CSLAYER1
  6
CONTINUOUS
 62
     6
 10
207.682540
 20
249.196154
 11
229.288462
 21
249.196154
  0
LINE
  8
CSLAYER1
  6
CONTINUOUS
 62
     6
 10
229.288462
 20
249.196154
 11
229.288462
 21
227.196154
  0
LINE
  8
CSLAYER1
  6
CONTINUOUS
 62
     6
 10
229.288462
 20
227.196154
 11
216.875509
 21
227.196154
  0
LINE
  8
CSLAYER1
  6
CONTINUOUS
 62
     6
 10
263.288462
 20
250.584612
 11
263.288462
 21
164.696154
  0
LINE
  8
CSLAYER1
  6
CONTINUOUS
 62
     6
 10
263.288462
 20
164.696154
 11
264.288462
 21
163.696154
  0
LINE
  8
CSLAYER1
  6
CONTINUOUS
 62
     6
 10
264.288462
 20
163.696154
 11
264.288462
 21
251.584612
  0
LINE
  8
CSLAYER1
  6
CONTINUOUS
 62
     6
 10
264.288462
 20
251.584612
 11
263.288462
 21
250.584612
  0
LINE
  8
CSLAYER1
  6
CONTINUOUS
 62
     6
 10
264.288462
 20
251.584612
 11
316.288462
 21
251.584612
  0
LINE
  8
CSLAYER1
  6
CONTINUOUS
 62
     6
 10
316.288462
 20
252.696154
 11
393.988462
 21
252.696154
  0
ARC
  8
CSLAYER1
  6
CONTINUOUS
 62
     6
 10
397.741238
 20
248.028929
 40
3.752777
 50
150.000000
 51
195.446648
  0
LINE
  8
CSLAYER1
  6
CONTINUOUS
 62
     6
 10
393.988462
 20
247.353095
 11
393.988462
 21
259.963095
  0
LINE
  8
CSLAYER1
  6
CONTINUOUS
 62
     6
 10
393.988462
 20
259.963095
 11
394.491238
 21
261.163648
  0
LINE
  8
CSLAYER1
  6
CONTINUOUS
 62
     6
 10
394.491238
 20
261.163648
 11
399.288462
 21
261.163648
  0
LINE
  8
CSLAYER1
  6
CONTINUOUS
 62
     6
 10
399.288462
 20
261.358095
 11
399.288462
 21
245.958095
  0
LINE
  8
CSLAYER1
  6
CONTINUOUS
 62
     6
 10
399.288462
 20
245.958095
 11
401.288462
 21
245.958095
  0
LINE
  8
CSLAYER1
  6
CONTINUOUS
 62
     6
 10
399.288462
 20
246.152541
 11
394.491238
 21
246.152541
  0
LINE
  8
CSLAYER1
  6
CONTINUOUS
 62
     6
 10
394.491238
 20
246.152541
 11
393.988462
 21
247.353095
  0
LINE
  8
CSLAYER1
  6
CONTINUOUS
 62
     6
 10
394.491238
 20
249.905318
 11
399.288462
 21
249.905318
  0
LINE
  8
CSLAYER1
  6
CONTINUOUS
 62
     6
 10
399.288462
 20
252.426095
 11
401.288462
 21
253.042095
  0
LINE
  8
CSLAYER1
  6
CONTINUOUS
 62
     6
 10
401.288462
 20
254.890095
 11
399.288462
 21
254.274095
  0
LINE
  8
CSLAYER1
  6
CONTINUOUS
 62
     6
 10
399.288462
 20
257.410871
 11
394.491238
 21
257.410871
  0
ARC
  8
CSLAYER1
  6
CONTINUOUS
 62
     6
 10
397.741238
 20
259.287260
 40
3.752777
 50
164.553352
 51
210.000000
  0
ARC
  8
CSLAYER1
  6
CONTINUOUS
 62
     6
 10
408.245403
 20
253.658095
 40
14.256942
 50
164.738520
 51
195.261480
  0
LINE
  8
CSLAYER1
  6
CONTINUOUS
 62
     6
 10
399.288462
 20
261.358095
 11
401.288462
 21
261.358095
  0
LINE
  8
CSLAYER1
  6
CONTINUOUS
 62
     6
 10
401.288462
 20
287.696154
 11
401.288462
 21
139.696154
  0
LINE
  8
CSLAYER1
  6
CONTINUOUS
 62
     6
 10
401.288462
 20
139.696154
 11
422.288462
 21
139.696154
  0
LINE
  8
CSLAYER1
  6
CONTINUOUS
 62
     6
 10
422.288462
 20
139.696154
 11
422.288462
 21
284.556154
  0
ARC
  8
CSLAYER1
  6
CONTINUOUS
 62
     6
 10
419.288462
 20
284.556154
 40
3.000000
 50
0.000000
 51
88.500000
  0
LINE
  8
CSLAYER1
  6
CONTINUOUS
 62
     6
 10
419.368462
 20
287.556154
 11
414.288462
 21
287.696154
  0
LINE
  8
CSLAYER1
  6
CONTINUOUS
 62
     6
 10
414.288462
 20
287.696154
 11
401.288462
 21
287.696154
  0
LINE
  8
CSLAYER1
  6
CONTINUOUS
 62
     6
 10
414.288462
 20
287.696154
 11
414.288462
 21
139.696154
  0
LINE
  8
CSLAYER1
  6
CONTINUOUS
 62
     6
 10
279.925109
 20
148.369480
 11
280.046681
 21
148.561368
  0
LINE
  8
CSLAYER1
  6
CONTINUOUS
 62
     6
 10
280.046681
 20
148.561368
 11
280.165225
 21
148.754281
  0
LINE
  8
CSLAYER1
  6
CONTINUOUS
 62
     6
 10
280.165225
 20
148.754281
 11
280.281023
 21
148.946861
  0
LINE
  8
CSLAYER1
  6
CONTINUOUS
 62
     6
 10
280.281023
 20
148.946861
 11
280.394356
 21
149.137752
  0
LINE
  8
CSLAYER1
  6
CONTINUOUS
 62
     6
 10
280.394356
 20
149.137752
 11
280.505504
 21
149.325597
  0
LINE
  8
CSLAYER1
  6
CONTINUOUS
 62
     6
 10
280.505504
 20
149.325597
 11
280.614750
 21
149.509040
  0
LINE
  8
CSLAYER1
  6
CONTINUOUS
 62
     6
 10
280.614750
 20
149.509040
 11
280.722375
 21
149.686724
  0
LINE
  8
CSLAYER1
  6
CONTINUOUS
 62
     6
 10
280.722375
 20
149.686724
 11
280.827700
 21
149.852411
  0
LINE
  8
CSLAYER1
  6
CONTINUOUS
 62
     6
 10
280.827700
 20
149.852411
 11
280.942429
 21
150.022300
  0
LINE
  8
CSLAYER1
  6
CONTINUOUS
 62
     6
 10
280.942429
 20
150.022300
 11
281.064730
 21
150.194963
  0
LINE
  8
CSLAYER1
  6
CONTINUOUS
 62
     6
 10
281.064730
 20
150.194963
 11
281.192771
 21
150.368973
  0
LINE
  8
CSLAYER1
  6
CONTINUOUS
 62
     6
 10
281.192771
 20
150.368973
 11
281.324724
 21
150.542903
  0
LINE
  8
CSLAYER1
  6
CONTINUOUS
 62
     6
 10
281.324724
 20
150.542903
 11
281.458755
 21
150.715324
  0
LINE
  8
CSLAYER1
  6
CONTINUOUS
 62
     6
 10
281.458755
 20
150.715324
 11
281.593036
 21
150.884809
  0
LINE
  8
CSLAYER1
  6
CONTINUOUS
 62
     6
 10
281.593036
 20
150.884809
 11
281.725735
 21
151.049930
  0
LINE
  8
CSLAYER1
  6
CONTINUOUS
 62
     6
 10
281.725735
 20
151.049930
 11
281.855021
 21
151.209261
  0
LINE
  8
CSLAYER1
  6
CONTINUOUS
 62
     6
 10
281.855021
 20
151.209261
 11
281.979063
 21
151.361373
  0
LINE
  8
CSLAYER1
  6
CONTINUOUS
 62
     6
 10
281.979063
 20
151.361373
 11
282.148321
 21
151.568974
  0
ARC
  8
CSLAYER1
  6
CONTINUOUS
 62
     6
 10
281.066071
 20
151.139202
 40
1.164461
 50
21.658505
 51
86.024005
  0
ARC
  8
CSLAYER1
  6
CONTINUOUS
 62
     6
 10
280.100416
 20
151.789955
 40
1.164461
 50
26.024005
 51
86.024005
  0
ARC
  8
CSLAYER1
  6
CONTINUOUS
 62
     6
 10
281.227555
 20
153.462518
 40
1.164461
 50
206.024005
 51
266.024005
  0
LINE
  8
CSLAYER1
  6
CONTINUOUS
 62
     6
 10
280.181145
 20
152.951617
 11
280.059963
 21
152.803703
  0
LINE
  8
CSLAYER1
  6
CONTINUOUS
 62
     6
 10
280.059963
 20
152.803703
 11
279.930953
 21
152.646304
  0
LINE
  8
CSLAYER1
  6
CONTINUOUS
 62
     6
 10
279.930953
 20
152.646304
 11
279.796152
 21
152.480992
  0
LINE
  8
CSLAYER1
  6
CONTINUOUS
 62
     6
 10
279.796152
 20
152.480992
 11
279.657595
 21
152.309339
  0
LINE
  8
CSLAYER1
  6
CONTINUOUS
 62
     6
 10
279.657595
 20
152.309339
 11
279.517319
 21
152.132918
  0
LINE
  8
CSLAYER1
  6
CONTINUOUS
 62
     6
 10
279.517319
 20
152.132918
 11
279.377361
 21
151.953300
  0
LINE
  8
CSLAYER1
  6
CONTINUOUS
 62
     6
 10
279.377361
 20
151.953300
 11
279.239758
 21
151.772056
  0
LINE
  8
CSLAYER1
  6
CONTINUOUS
 62
     6
 10
279.239758
 20
151.772056
 11
279.106546
 21
151.590760
  0
LINE
  8
CSLAYER1
  6
CONTINUOUS
 62
     6
 10
279.106546
 20
151.590760
 11
278.979762
 21
151.410983
  0
LINE
  8
CSLAYER1
  6
CONTINUOUS
 62
     6
 10
278.979762
 20
151.410983
 11
278.861443
 21
151.234297
  0
LINE
  8
CSLAYER1
  6
CONTINUOUS
 62
     6
 10
278.861443
 20
151.234297
 11
278.753625
 21
151.062273
  0
LINE
  8
CSLAYER1
  6
CONTINUOUS
 62
     6
 10
278.753625
 20
151.062273
 11
278.655986
 21
150.898512
  0
LINE
  8
CSLAYER1
  6
CONTINUOUS
 62
     6
 10
278.655986
 20
150.898512
 11
278.556356
 21
150.729245
  0
LINE
  8
CSLAYER1
  6
CONTINUOUS
 62
     6
 10
278.556356
 20
150.729245
 11
278.454530
 21
150.555774
  0
LINE
  8
CSLAYER1
  6
CONTINUOUS
 62
     6
 10
278.454530
 20
150.555774
 11
278.350300
 21
150.379401
  0
LINE
  8
CSLAYER1
  6
CONTINUOUS
 62
     6
 10
278.350300
 20
150.379401
 11
278.243460
 21
150.201428
  0
LINE
  8
CSLAYER1
  6
CONTINUOUS
 62
     6
 10
278.243460
 20
150.201428
 11
278.133803
 21
150.023159
  0
LINE
  8
CSLAYER1
  6
CONTINUOUS
 62
     6
 10
278.133803
 20
150.023159
 11
278.021122
 21
149.845894
  0
LINE
  8
CSLAYER1
  6
CONTINUOUS
 62
     6
 10
278.021122
 20
149.845894
 11
277.905212
 21
149.670936
  0
LINE
  8
CSLAYER1
  6
CONTINUOUS
 62
     6
 10
277.905212
 20
149.670936
 11
277.785864
 21
149.499588
  0
LINE
  8
CSLAYER1
  6
CONTINUOUS
 62
     6
 10
277.785864
 20
149.499588
 11
277.662874
 21
149.333152
  0
LINE
  8
CSLAYER1
  6
CONTINUOUS
 62
     6
 10
277.662874
 20
149.333152
 11
277.536034
 21
149.172930
  0
LINE
  8
CSLAYER1
  6
CONTINUOUS
 62
     6
 10
277.536034
 20
149.172930
 11
277.437213
 21
149.056417
  0
LINE
  8
CSLAYER1
  6
CONTINUOUS
 62
     6
 10
277.437213
 20
149.056417
 11
277.335000
 21
148.942658
  0
LINE
  8
CSLAYER1
  6
CONTINUOUS
 62
     6
 10
277.335000
 20
148.942658
 11
277.229736
 21
148.831377
  0
LINE
  8
CSLAYER1
  6
CONTINUOUS
 62
     6
 10
277.229736
 20
148.831377
 11
277.121759
 21
148.722299
  0
LINE
  8
CSLAYER1
  6
CONTINUOUS
 62
     6
 10
277.121759
 20
148.722299
 11
277.011408
 21
148.615148
  0
LINE
  8
CSLAYER1
  6
CONTINUOUS
 62
     6
 10
277.011408
 20
148.615148
 11
276.899023
 21
148.509650
  0
LINE
  8
CSLAYER1
  6
CONTINUOUS
 62
     6
 10
276.899023
 20
148.509650
 11
276.784942
 21
148.405528
  0
LINE
  8
CSLAYER1
  6
CONTINUOUS
 62
     6
 10
276.784942
 20
148.405528
 11
276.669504
 21
148.302507
  0
LINE
  8
CSLAYER1
  6
CONTINUOUS
 62
     6
 10
276.669504
 20
148.302507
 11
276.553049
 21
148.200313
  0
LINE
  8
CSLAYER1
  6
CONTINUOUS
 62
     6
 10
276.553049
 20
148.200313
 11
276.457023
 21
148.116985
  0
LINE
  8
CSLAYER1
  6
CONTINUOUS
 62
     6
 10
276.457023
 20
148.116985
 11
276.526170
 21
148.082456
  0
LINE
  8
CSLAYER1
  6
CONTINUOUS
 62
     6
 10
276.526170
 20
148.082456
 11
276.610646
 21
148.034840
  0
LINE
  8
CSLAYER1
  6
CONTINUOUS
 62
     6
 10
276.610646
 20
148.034840
 11
276.696579
 21
147.981090
  0
LINE
  8
CSLAYER1
  6
CONTINUOUS
 62
     6
 10
276.696579
 20
147.981090
 11
276.782698
 21
147.921865
  0
LINE
  8
CSLAYER1
  6
CONTINUOUS
 62
     6
 10
276.782698
 20
147.921865
 11
276.867734
 21
147.857828
  0
LINE
  8
CSLAYER1
  6
CONTINUOUS
 62
     6
 10
276.867734
 20
147.857828
 11
276.950416
 21
147.789637
  0
LINE
  8
CSLAYER1
  6
CONTINUOUS
 62
     6
 10
276.950416
 20
147.789637
 11
277.029476
 21
147.717954
  0
LINE
  8
CSLAYER1
  6
CONTINUOUS
 62
     6
 10
277.029476
 20
147.717954
 11
277.103642
 21
147.643438
  0
LINE
  8
CSLAYER1
  6
CONTINUOUS
 62
     6
 10
277.103642
 20
147.643438
 11
277.171644
 21
147.566751
  0
LINE
  8
CSLAYER1
  6
CONTINUOUS
 62
     6
 10
277.171644
 20
147.566751
 11
277.232214
 21
147.488552
  0
LINE
  8
CSLAYER1
  6
CONTINUOUS
 62
     6
 10
277.232214
 20
147.488552
 11
277.284081
 21
147.409502
  0
LINE
  8
CSLAYER1
  6
CONTINUOUS
 62
     6
 10
277.284081
 20
147.409502
 11
277.299987
 21
147.381896
  0
LINE
  8
CSLAYER1
  6
CONTINUOUS
 62
     6
 10
277.299987
 20
147.381896
 11
277.315640
 21
147.353202
  0
LINE
  8
CSLAYER1
  6
CONTINUOUS
 62
     6
 10
277.315640
 20
147.353202
 11
277.331083
 21
147.323589
  0
LINE
  8
CSLAYER1
  6
CONTINUOUS
 62
     6
 10
277.331083
 20
147.323589
 11
277.346356
 21
147.293222
  0
LINE
  8
CSLAYER1
  6
CONTINUOUS
 62
     6
 10
277.346356
 20
147.293222
 11
277.361501
 21
147.262271
  0
LINE
  8
CSLAYER1
  6
CONTINUOUS
 62
     6
 10
277.361501
 20
147.262271
 11
277.376561
 21
147.230901
  0
LINE
  8
CSLAYER1
  6
CONTINUOUS
 62
     6
 10
277.376561
 20
147.230901
 11
277.391578
 21
147.199279
  0
LINE
  8
CSLAYER1
  6
CONTINUOUS
 62
     6
 10
277.391578
 20
147.199279
 11
277.406594
 21
147.167574
  0
LINE
  8
CSLAYER1
  6
CONTINUOUS
 62
     6
 10
277.406594
 20
147.167574
 11
277.421649
 21
147.135952
  0
LINE
  8
CSLAYER1
  6
CONTINUOUS
 62
     6
 10
277.421649
 20
147.135952
 11
277.436787
 21
147.104580
  0
LINE
  8
CSLAYER1
  6
CONTINUOUS
 62
     6
 10
277.436787
 20
147.104580
 11
277.452050
 21
147.073626
  0
LINE
  8
CSLAYER1
  6
CONTINUOUS
 62
     6
 10
277.452050
 20
147.073626
 11
277.492871
 21
146.995489
  0
LINE
  8
CSLAYER1
  6
CONTINUOUS
 62
     6
 10
277.492871
 20
146.995489
 11
277.536206
 21
146.918956
  0
LINE
  8
CSLAYER1
  6
CONTINUOUS
 62
     6
 10
277.536206
 20
146.918956
 11
277.581805
 21
146.843868
  0
LINE
  8
CSLAYER1
  6
CONTINUOUS
 62
     6
 10
277.581805
 20
146.843868
 11
277.629415
 21
146.770063
  0
LINE
  8
CSLAYER1
  6
CONTINUOUS
 62
     6
 10
277.629415
 20
146.770063
 11
277.678785
 21
146.697382
  0
LINE
  8
CSLAYER1
  6
CONTINUOUS
 62
     6
 10
277.678785
 20
146.697382
 11
277.729663
 21
146.625664
  0
LINE
  8
CSLAYER1
  6
CONTINUOUS
 62
     6
 10
277.729663
 20
146.625664
 11
277.781799
 21
146.554747
  0
LINE
  8
CSLAYER1
  6
CONTINUOUS
 62
     6
 10
277.781799
 20
146.554747
 11
277.834941
 21
146.484473
  0
LINE
  8
CSLAYER1
  6
CONTINUOUS
 62
     6
 10
277.834941
 20
146.484473
 11
277.888837
 21
146.414680
  0
LINE
  8
CSLAYER1
  6
CONTINUOUS
 62
     6
 10
277.888837
 20
146.414680
 11
277.943236
 21
146.345208
  0
LINE
  8
CSLAYER1
  6
CONTINUOUS
 62
     6
 10
277.943236
 20
146.345208
 11
277.995309
 21
146.279165
  0
LINE
  8
CSLAYER1
  6
CONTINUOUS
 62
     6
 10
277.995309
 20
146.279165
 11
278.122656
 21
146.388466
  0
LINE
  8
CSLAYER1
  6
CONTINUOUS
 62
     6
 10
278.122656
 20
146.388466
 11
278.259372
 21
146.506499
  0
LINE
  8
CSLAYER1
  6
CONTINUOUS
 62
     6
 10
278.259372
 20
146.506499
 11
278.395259
 21
146.625203
  0
LINE
  8
CSLAYER1
  6
CONTINUOUS
 62
     6
 10
278.395259
 20
146.625203
 11
278.529905
 21
146.744914
  0
LINE
  8
CSLAYER1
  6
CONTINUOUS
 62
     6
 10
278.529905
 20
146.744914
 11
278.662897
 21
146.865969
  0
LINE
  8
CSLAYER1
  6
CONTINUOUS
 62
     6
 10
278.662897
 20
146.865969
 11
278.793819
 21
146.988702
  0
LINE
  8
CSLAYER1
  6
CONTINUOUS
 62
     6
 10
278.793819
 20
146.988702
 11
278.922259
 21
147.113450
  0
LINE
  8
CSLAYER1
  6
CONTINUOUS
 62
     6
 10
278.922259
 20
147.113450
 11
279.047802
 21
147.240547
  0
LINE
  8
CSLAYER1
  6
CONTINUOUS
 62
     6
 10
279.047802
 20
147.240547
 11
279.170036
 21
147.370331
  0
LINE
  8
CSLAYER1
  6
CONTINUOUS
 62
     6
 10
279.170036
 20
147.370331
 11
279.288545
 21
147.503137
  0
LINE
  8
CSLAYER1
  6
CONTINUOUS
 62
     6
 10
279.288545
 20
147.503137
 11
279.402917
 21
147.639300
  0
LINE
  8
CSLAYER1
  6
CONTINUOUS
 62
     6
 10
279.402917
 20
147.639300
 11
279.539413
 21
147.813526
  0
LINE
  8
CSLAYER1
  6
CONTINUOUS
 62
     6
 10
279.539413
 20
147.813526
 11
279.671756
 21
147.994202
  0
LINE
  8
CSLAYER1
  6
CONTINUOUS
 62
     6
 10
279.671756
 20
147.994202
 11
279.800227
 21
148.179972
  0
LINE
  8
CSLAYER1
  6
CONTINUOUS
 62
     6
 10
279.800227
 20
148.179972
 11
279.925109
 21
148.369480
  0
LINE
  8
CSLAYER1
  6
CONTINUOUS
 62
     6
 10
277.502541
 20
146.978410
 11
275.251611
 21
144.539904
  0
LINE
  8
CSLAYER1
  6
CONTINUOUS
 62
     6
 10
274.779076
 20
145.107012
 11
277.222071
 21
147.501647
  0
LINE
  8
CSLAYER1
  6
CONTINUOUS
 62
     6
 10
276.910574
 20
147.822497
 11
274.164727
 21
145.319659
  0
LINE
  8
CSLAYER1
  6
CONTINUOUS
 62
     6
 10
268.824731
 20
147.398943
 11
271.050853
 21
150.375181
  0
LINE
  8
CSLAYER1
  6
CONTINUOUS
 62
     6
 10
271.060514
 20
150.372890
 11
271.134250
 21
150.354865
  0
LINE
  8
CSLAYER1
  6
CONTINUOUS
 62
     6
 10
271.134250
 20
150.354865
 11
271.207546
 21
150.336459
  0
LINE
  8
CSLAYER1
  6
CONTINUOUS
 62
     6
 10
271.207546
 20
150.336459
 11
271.280452
 21
150.317713
  0
LINE
  8
CSLAYER1
  6
CONTINUOUS
 62
     6
 10
271.280452
 20
150.317713
 11
271.353016
 21
150.298671
  0
LINE
  8
CSLAYER1
  6
CONTINUOUS
 62
     6
 10
271.353016
 20
150.298671
 11
271.425287
 21
150.279375
  0
LINE
  8
CSLAYER1
  6
CONTINUOUS
 62
     6
 10
271.425287
 20
150.279375
 11
271.497314
 21
150.259866
  0
LINE
  8
CSLAYER1
  6
CONTINUOUS
 62
     6
 10
271.497314
 20
150.259866
 11
271.569146
 21
150.240188
  0
LINE
  8
CSLAYER1
  6
CONTINUOUS
 62
     6
 10
271.569146
 20
150.240188
 11
271.640832
 21
150.220382
  0
LINE
  8
CSLAYER1
  6
CONTINUOUS
 62
     6
 10
271.640832
 20
150.220382
 11
271.712420
 21
150.200492
  0
LINE
  8
CSLAYER1
  6
CONTINUOUS
 62
     6
 10
271.712420
 20
150.200492
 11
271.793039
 21
150.178029
  0
LINE
  8
CSLAYER1
  6
CONTINUOUS
 62
     6
 10
271.793039
 20
150.178029
 11
271.920294
 21
150.350179
  0
LINE
  8
CSLAYER1
  6
CONTINUOUS
 62
     6
 10
271.920294
 20
150.350179
 11
272.015074
 21
150.477341
  0
LINE
  8
CSLAYER1
  6
CONTINUOUS
 62
     6
 10
272.015074
 20
150.477341
 11
272.110725
 21
150.603573
  0
LINE
  8
CSLAYER1
  6
CONTINUOUS
 62
     6
 10
272.110725
 20
150.603573
 11
272.207684
 21
150.728409
  0
LINE
  8
CSLAYER1
  6
CONTINUOUS
 62
     6
 10
272.207684
 20
150.728409
 11
272.306386
 21
150.851384
  0
LINE
  8
CSLAYER1
  6
CONTINUOUS
 62
     6
 10
272.306386
 20
150.851384
 11
272.407268
 21
150.972032
  0
LINE
  8
CSLAYER1
  6
CONTINUOUS
 62
     6
 10
272.407268
 20
150.972032
 11
272.510764
 21
151.089889
  0
LINE
  8
CSLAYER1
  6
CONTINUOUS
 62
     6
 10
272.510764
 20
151.089889
 11
272.617311
 21
151.204489
  0
LINE
  8
CSLAYER1
  6
CONTINUOUS
 62
     6
 10
272.617311
 20
151.204489
 11
272.727346
 21
151.315367
  0
LINE
  8
CSLAYER1
  6
CONTINUOUS
 62
     6
 10
272.727346
 20
151.315367
 11
272.841302
 21
151.422058
  0
LINE
  8
CSLAYER1
  6
CONTINUOUS
 62
     6
 10
272.841302
 20
151.422058
 11
272.959618
 21
151.524096
  0
LINE
  8
CSLAYER1
  6
CONTINUOUS
 62
     6
 10
272.959618
 20
151.524096
 11
273.111042
 21
151.643134
  0
LINE
  8
CSLAYER1
  6
CONTINUOUS
 62
     6
 10
273.111042
 20
151.643134
 11
273.269282
 21
151.757646
  0
LINE
  8
CSLAYER1
  6
CONTINUOUS
 62
     6
 10
273.269282
 20
151.757646
 11
273.432403
 21
151.868586
  0
LINE
  8
CSLAYER1
  6
CONTINUOUS
 62
     6
 10
273.432403
 20
151.868586
 11
273.598471
 21
151.976904
  0
LINE
  8
CSLAYER1
  6
CONTINUOUS
 62
     6
 10
273.598471
 20
151.976904
 11
273.765553
 21
152.083554
  0
LINE
  8
CSLAYER1
  6
CONTINUOUS
 62
     6
 10
273.765553
 20
152.083554
 11
273.931714
 21
152.189487
  0
LINE
  8
CSLAYER1
  6
CONTINUOUS
 62
     6
 10
273.931714
 20
152.189487
 11
274.095020
 21
152.295654
  0
LINE
  8
CSLAYER1
  6
CONTINUOUS
 62
     6
 10
274.095020
 20
152.295654
 11
274.253538
 21
152.403009
  0
LINE
  8
CSLAYER1
  6
CONTINUOUS
 62
     6
 10
274.253538
 20
152.403009
 11
274.405334
 21
152.512503
  0
LINE
  8
CSLAYER1
  6
CONTINUOUS
 62
     6
 10
274.405334
 20
152.512503
 11
274.548473
 21
152.625089
  0
LINE
  8
CSLAYER1
  6
CONTINUOUS
 62
     6
 10
274.548473
 20
152.625089
 11
274.681023
 21
152.741717
  0
LINE
  8
CSLAYER1
  6
CONTINUOUS
 62
     6
 10
274.681023
 20
152.741717
 11
274.784028
 21
152.844732
  0
LINE
  8
CSLAYER1
  6
CONTINUOUS
 62
     6
 10
274.784028
 20
152.844732
 11
274.885691
 21
152.958167
  0
LINE
  8
CSLAYER1
  6
CONTINUOUS
 62
     6
 10
274.885691
 20
152.958167
 11
274.985446
 21
153.080335
  0
LINE
  8
CSLAYER1
  6
CONTINUOUS
 62
     6
 10
274.985446
 20
153.080335
 11
275.082724
 21
153.209544
  0
LINE
  8
CSLAYER1
  6
CONTINUOUS
 62
     6
 10
275.082724
 20
153.209544
 11
275.176959
 21
153.344104
  0
LINE
  8
CSLAYER1
  6
CONTINUOUS
 62
     6
 10
275.176959
 20
153.344104
 11
275.267583
 21
153.482325
  0
LINE
  8
CSLAYER1
  6
CONTINUOUS
 62
     6
 10
275.267583
 20
153.482325
 11
275.354029
 21
153.622519
  0
LINE
  8
CSLAYER1
  6
CONTINUOUS
 62
     6
 10
275.354029
 20
153.622519
 11
275.435730
 21
153.762993
  0
LINE
  8
CSLAYER1
  6
CONTINUOUS
 62
     6
 10
275.435730
 20
153.762993
 11
275.512119
 21
153.902060
  0
LINE
  8
CSLAYER1
  6
CONTINUOUS
 62
     6
 10
275.512119
 20
153.902060
 11
275.582628
 21
154.038028
  0
LINE
  8
CSLAYER1
  6
CONTINUOUS
 62
     6
 10
275.582628
 20
154.038028
 11
275.687889
 21
154.253568
  0
ARC
  8
CSLAYER1
  6
CONTINUOUS
 62
     6
 10
274.761778
 20
153.697490
 40
1.080690
 50
30.945197
 51
90.945197
  0
ARC
  8
CSLAYER1
  6
CONTINUOUS
 62
     6
 10
273.817087
 20
154.222323
 40
1.080690
 50
30.945197
 51
90.945197
  0
ARC
  8
CSLAYER1
  6
CONTINUOUS
 62
     6
 10
274.726123
 20
155.858576
 40
1.080690
 50
210.945197
 51
270.945197
  0
LINE
  8
CSLAYER1
  6
CONTINUOUS
 62
     6
 10
273.799279
 20
155.302843
 11
273.654576
 21
155.163497
  0
LINE
  8
CSLAYER1
  6
CONTINUOUS
 62
     6
 10
273.654576
 20
155.163497
 11
273.500661
 21
155.013747
  0
LINE
  8
CSLAYER1
  6
CONTINUOUS
 62
     6
 10
273.500661
 20
155.013747
 11
273.339311
 21
154.855919
  0
LINE
  8
CSLAYER1
  6
CONTINUOUS
 62
     6
 10
273.339311
 20
154.855919
 11
273.172300
 21
154.692337
  0
LINE
  8
CSLAYER1
  6
CONTINUOUS
 62
     6
 10
273.172300
 20
154.692337
 11
273.001405
 21
154.525326
  0
LINE
  8
CSLAYER1
  6
CONTINUOUS
 62
     6
 10
273.001405
 20
154.525326
 11
272.828402
 21
154.357210
  0
LINE
  8
CSLAYER1
  6
CONTINUOUS
 62
     6
 10
272.828402
 20
154.357210
 11
272.655067
 21
154.190315
  0
LINE
  8
CSLAYER1
  6
CONTINUOUS
 62
     6
 10
272.655067
 20
154.190315
 11
272.483175
 21
154.026966
  0
LINE
  8
CSLAYER1
  6
CONTINUOUS
 62
     6
 10
272.483175
 20
154.026966
 11
272.314503
 21
153.869487
  0
LINE
  8
CSLAYER1
  6
CONTINUOUS
 62
     6
 10
272.314503
 20
153.869487
 11
272.150826
 21
153.720202
  0
LINE
  8
CSLAYER1
  6
CONTINUOUS
 62
     6
 10
272.150826
 20
153.720202
 11
271.993920
 21
153.581438
  0
LINE
  8
CSLAYER1
  6
CONTINUOUS
 62
     6
 10
271.993920
 20
153.581438
 11
271.852689
 21
153.458640
  0
LINE
  8
CSLAYER1
  6
CONTINUOUS
 62
     6
 10
271.852689
 20
153.458640
 11
271.706505
 21
153.330755
  0
LINE
  8
CSLAYER1
  6
CONTINUOUS
 62
     6
 10
271.706505
 20
153.330755
 11
271.556512
 21
153.198248
  0
LINE
  8
CSLAYER1
  6
CONTINUOUS
 62
     6
 10
271.556512
 20
153.198248
 11
271.403851
 21
153.061589
  0
LINE
  8
CSLAYER1
  6
CONTINUOUS
 62
     6
 10
271.403851
 20
153.061589
 11
271.249664
 21
152.921244
  0
LINE
  8
CSLAYER1
  6
CONTINUOUS
 62
     6
 10
271.249664
 20
152.921244
 11
271.095093
 21
152.777681
  0
LINE
  8
CSLAYER1
  6
CONTINUOUS
 62
     6
 10
271.095093
 20
152.777681
 11
270.941282
 21
152.631369
  0
LINE
  8
CSLAYER1
  6
CONTINUOUS
 62
     6
 10
270.941282
 20
152.631369
 11
270.789371
 21
152.482774
  0
LINE
  8
CSLAYER1
  6
CONTINUOUS
 62
     6
 10
270.789371
 20
152.482774
 11
270.640504
 21
152.332364
  0
LINE
  8
CSLAYER1
  6
CONTINUOUS
 62
     6
 10
270.640504
 20
152.332364
 11
270.495822
 21
152.180608
  0
LINE
  8
CSLAYER1
  6
CONTINUOUS
 62
     6
 10
270.495822
 20
152.180608
 11
270.356469
 21
152.027972
  0
LINE
  8
CSLAYER1
  6
CONTINUOUS
 62
     6
 10
270.356469
 20
152.027972
 11
270.300944
 21
151.965028
  0
LINE
  8
CSLAYER1
  6
CONTINUOUS
 62
     6
 10
270.300944
 20
151.965028
 11
270.246017
 21
151.901528
  0
LINE
  8
CSLAYER1
  6
CONTINUOUS
 62
     6
 10
270.246017
 20
151.901528
 11
270.191626
 21
151.837526
  0
LINE
  8
CSLAYER1
  6
CONTINUOUS
 62
     6
 10
270.191626
 20
151.837526
 11
270.137712
 21
151.773080
  0
LINE
  8
CSLAYER1
  6
CONTINUOUS
 62
     6
 10
270.137712
 20
151.773080
 11
270.084216
 21
151.708244
  0
LINE
  8
CSLAYER1
  6
CONTINUOUS
 62
     6
 10
270.084216
 20
151.708244
 11
270.031078
 21
151.643074
  0
LINE
  8
CSLAYER1
  6
CONTINUOUS
 62
     6
 10
270.031078
 20
151.643074
 11
269.978239
 21
151.577626
  0
LINE
  8
CSLAYER1
  6
CONTINUOUS
 62
     6
 10
269.978239
 20
151.577626
 11
269.925638
 21
151.511956
  0
LINE
  8
CSLAYER1
  6
CONTINUOUS
 62
     6
 10
269.925638
 20
151.511956
 11
269.873215
 21
151.446118
  0
LINE
  8
CSLAYER1
  6
CONTINUOUS
 62
     6
 10
269.873215
 20
151.446118
 11
269.820913
 21
151.380169
  0
LINE
  8
CSLAYER1
  6
CONTINUOUS
 62
     6
 10
269.820913
 20
151.380169
 11
269.692358
 21
151.217752
  0
LINE
  8
CSLAYER1
  6
CONTINUOUS
 62
     6
 10
269.692358
 20
151.217752
 11
269.721095
 21
151.170897
  0
LINE
  8
CSLAYER1
  6
CONTINUOUS
 62
     6
 10
269.721095
 20
151.170897
 11
269.761687
 21
151.111016
  0
LINE
  8
CSLAYER1
  6
CONTINUOUS
 62
     6
 10
269.761687
 20
151.111016
 11
269.805969
 21
151.051148
  0
LINE
  8
CSLAYER1
  6
CONTINUOUS
 62
     6
 10
269.805969
 20
151.051148
 11
269.853421
 21
150.991875
  0
LINE
  8
CSLAYER1
  6
CONTINUOUS
 62
     6
 10
269.853421
 20
150.991875
 11
269.903519
 21
150.933777
  0
LINE
  8
CSLAYER1
  6
CONTINUOUS
 62
     6
 10
269.903519
 20
150.933777
 11
269.955744
 21
150.877436
  0
LINE
  8
CSLAYER1
  6
CONTINUOUS
 62
     6
 10
269.955744
 20
150.877436
 11
270.009572
 21
150.823433
  0
LINE
  8
CSLAYER1
  6
CONTINUOUS
 62
     6
 10
270.009572
 20
150.823433
 11
270.064483
 21
150.772348
  0
LINE
  8
CSLAYER1
  6
CONTINUOUS
 62
     6
 10
270.064483
 20
150.772348
 11
270.119954
 21
150.724762
  0
LINE
  8
CSLAYER1
  6
CONTINUOUS
 62
     6
 10
270.119954
 20
150.724762
 11
270.175464
 21
150.681257
  0
LINE
  8
CSLAYER1
  6
CONTINUOUS
 62
     6
 10
270.175464
 20
150.681257
 11
270.230492
 21
150.642412
  0
LINE
  8
CSLAYER1
  6
CONTINUOUS
 62
     6
 10
270.230492
 20
150.642412
 11
270.286978
 21
150.608118
  0
LINE
  8
CSLAYER1
  6
CONTINUOUS
 62
     6
 10
270.286978
 20
150.608118
 11
270.347579
 21
150.577151
  0
LINE
  8
CSLAYER1
  6
CONTINUOUS
 62
     6
 10
270.347579
 20
150.577151
 11
270.411740
 21
150.549162
  0
LINE
  8
CSLAYER1
  6
CONTINUOUS
 62
     6
 10
270.411740
 20
150.549162
 11
270.478902
 21
150.523801
  0
LINE
  8
CSLAYER1
  6
CONTINUOUS
 62
     6
 10
270.478902
 20
150.523801
 11
270.548509
 21
150.500719
  0
LINE
  8
CSLAYER1
  6
CONTINUOUS
 62
     6
 10
270.548509
 20
150.500719
 11
270.620003
 21
150.479565
  0
LINE
  8
CSLAYER1
  6
CONTINUOUS
 62
     6
 10
270.620003
 20
150.479565
 11
270.692827
 21
150.459991
  0
LINE
  8
CSLAYER1
  6
CONTINUOUS
 62
     6
 10
270.692827
 20
150.459991
 11
270.766426
 21
150.441646
  0
LINE
  8
CSLAYER1
  6
CONTINUOUS
 62
     6
 10
270.766426
 20
150.441646
 11
270.840240
 21
150.424180
  0
LINE
  8
CSLAYER1
  6
CONTINUOUS
 62
     6
 10
270.840240
 20
150.424180
 11
270.913714
 21
150.407245
  0
LINE
  8
CSLAYER1
  6
CONTINUOUS
 62
     6
 10
270.913714
 20
150.407245
 11
270.986291
 21
150.390490
  0
LINE
  8
CSLAYER1
  6
CONTINUOUS
 62
     6
 10
270.986291
 20
150.390490
 11
271.060514
 21
150.372890
  0
LINE
  8
CSLAYER1
  6
CONTINUOUS
 62
     6
 10
270.485019
 20
150.521773
 11
268.139489
 21
147.847887
  0
LINE
  8
CSLAYER1
  6
CONTINUOUS
 62
     6
 10
267.596032
 20
148.367693
 11
270.067801
 21
150.769501
  0
ARC
  8
CSLAYER1
  6
CONTINUOUS
 62
     6
 10
276.273219
 20
156.706691
 40
1.095863
 50
203.568976
 51
263.568976
  0
ARC
  8
CSLAYER1
  6
CONTINUOUS
 62
     6
 10
277.154920
 20
156.055908
 40
1.095863
 50
203.568976
 51
263.568976
  0
ARC
  8
CSLAYER1
  6
CONTINUOUS
 62
     6
 10
276.027730
 20
154.528757
 40
1.095863
 50
23.568976
 51
83.568976
  0
LINE
  8
CSLAYER1
  6
CONTINUOUS
 62
     6
 10
275.521903
 20
156.448478
 11
275.268792
 21
156.268511
  0
LINE
  8
CSLAYER1
  6
CONTINUOUS
 62
     6
 10
275.521903
 20
156.448478
 11
275.774764
 21
156.628798
  0
LINE
  8
CSLAYER1
  6
CONTINUOUS
 62
     6
 10
275.774764
 20
156.628798
 11
276.027124
 21
156.809824
  0
LINE
  8
CSLAYER1
  6
CONTINUOUS
 62
     6
 10
276.027124
 20
156.809824
 11
276.278732
 21
156.991908
  0
LINE
  8
CSLAYER1
  6
CONTINUOUS
 62
     6
 10
276.278732
 20
156.991908
 11
276.529338
 21
157.175403
  0
LINE
  8
CSLAYER1
  6
CONTINUOUS
 62
     6
 10
276.529338
 20
157.175403
 11
276.778690
 21
157.360662
  0
LINE
  8
CSLAYER1
  6
CONTINUOUS
 62
     6
 10
276.778690
 20
157.360662
 11
277.026539
 21
157.548037
  0
LINE
  8
CSLAYER1
  6
CONTINUOUS
 62
     6
 10
277.026539
 20
157.548037
 11
277.272634
 21
157.737882
  0
LINE
  8
CSLAYER1
  6
CONTINUOUS
 62
     6
 10
277.272634
 20
157.737882
 11
277.516724
 21
157.930550
  0
LINE
  8
CSLAYER1
  6
CONTINUOUS
 62
     6
 10
277.516724
 20
157.930550
 11
277.758558
 21
158.126392
  0
LINE
  8
CSLAYER1
  6
CONTINUOUS
 62
     6
 10
277.758558
 20
158.126392
 11
277.997887
 21
158.325762
  0
LINE
  8
CSLAYER1
  6
CONTINUOUS
 62
     6
 10
277.997887
 20
158.325762
 11
278.155151
 21
158.460059
  0
LINE
  8
CSLAYER1
  6
CONTINUOUS
 62
     6
 10
278.155151
 20
158.460059
 11
278.312201
 21
158.597083
  0
LINE
  8
CSLAYER1
  6
CONTINUOUS
 62
     6
 10
278.312201
 20
158.597083
 11
278.468292
 21
158.736643
  0
LINE
  8
CSLAYER1
  6
CONTINUOUS
 62
     6
 10
278.468292
 20
158.736643
 11
278.622681
 21
158.878545
  0
LINE
  8
CSLAYER1
  6
CONTINUOUS
 62
     6
 10
278.622681
 20
158.878545
 11
278.774626
 21
159.022598
  0
LINE
  8
CSLAYER1
  6
CONTINUOUS
 62
     6
 10
278.774626
 20
159.022598
 11
278.923382
 21
159.168608
  0
LINE
  8
CSLAYER1
  6
CONTINUOUS
 62
     6
 10
278.923382
 20
159.168608
 11
279.068209
 21
159.316383
  0
LINE
  8
CSLAYER1
  6
CONTINUOUS
 62
     6
 10
279.068209
 20
159.316383
 11
279.208361
 21
159.465730
  0
LINE
  8
CSLAYER1
  6
CONTINUOUS
 62
     6
 10
279.208361
 20
159.465730
 11
279.343097
 21
159.616458
  0
LINE
  8
CSLAYER1
  6
CONTINUOUS
 62
     6
 10
279.343097
 20
159.616458
 11
279.471673
 21
159.768372
  0
LINE
  8
CSLAYER1
  6
CONTINUOUS
 62
     6
 10
279.471673
 20
159.768372
 11
279.593346
 21
159.921282
  0
LINE
  8
CSLAYER1
  6
CONTINUOUS
 62
     6
 10
279.593346
 20
159.921282
 11
279.707800
 21
160.072608
  0
LINE
  8
CSLAYER1
  6
CONTINUOUS
 62
     6
 10
279.707800
 20
160.072608
 11
279.823101
 21
160.229862
  0
LINE
  8
CSLAYER1
  6
CONTINUOUS
 62
     6
 10
279.823101
 20
160.229862
 11
279.938714
 21
160.391920
  0
LINE
  8
CSLAYER1
  6
CONTINUOUS
 62
     6
 10
279.938714
 20
160.391920
 11
280.054107
 21
160.557660
  0
LINE
  8
CSLAYER1
  6
CONTINUOUS
 62
     6
 10
280.054107
 20
160.557660
 11
280.168747
 21
160.725959
  0
LINE
  8
CSLAYER1
  6
CONTINUOUS
 62
     6
 10
280.168747
 20
160.725959
 11
280.282101
 21
160.895695
  0
LINE
  8
CSLAYER1
  6
CONTINUOUS
 62
     6
 10
280.282101
 20
160.895695
 11
280.393637
 21
161.065746
  0
LINE
  8
CSLAYER1
  6
CONTINUOUS
 62
     6
 10
280.393637
 20
161.065746
 11
280.502821
 21
161.234988
  0
LINE
  8
CSLAYER1
  6
CONTINUOUS
 62
     6
 10
280.502821
 20
161.234988
 11
280.609121
 21
161.402300
  0
LINE
  8
CSLAYER1
  6
CONTINUOUS
 62
     6
 10
280.609121
 20
161.402300
 11
280.712004
 21
161.566558
  0
LINE
  8
CSLAYER1
  6
CONTINUOUS
 62
     6
 10
280.712004
 20
161.566558
 11
280.810937
 21
161.726641
  0
LINE
  8
CSLAYER1
  6
CONTINUOUS
 62
     6
 10
280.810937
 20
161.726641
 11
280.897410
 21
161.864867
  0
LINE
  8
CSLAYER1
  6
CONTINUOUS
 62
     6
 10
280.897410
 20
161.864867
 11
280.989362
 21
162.007325
  0
LINE
  8
CSLAYER1
  6
CONTINUOUS
 62
     6
 10
280.989362
 20
162.007325
 11
281.085562
 21
162.152805
  0
LINE
  8
CSLAYER1
  6
CONTINUOUS
 62
     6
 10
281.085562
 20
162.152805
 11
281.184781
 21
162.300095
  0
LINE
  8
CSLAYER1
  6
CONTINUOUS
 62
     6
 10
281.184781
 20
162.300095
 11
281.285789
 21
162.447985
  0
LINE
  8
CSLAYER1
  6
CONTINUOUS
 62
     6
 10
281.285789
 20
162.447985
 11
281.387357
 21
162.595264
  0
LINE
  8
CSLAYER1
  6
CONTINUOUS
 62
     6
 10
281.387357
 20
162.595264
 11
281.488255
 21
162.740720
  0
LINE
  8
CSLAYER1
  6
CONTINUOUS
 62
     6
 10
281.488255
 20
162.740720
 11
281.587254
 21
162.883144
  0
LINE
  8
CSLAYER1
  6
CONTINUOUS
 62
     6
 10
281.587254
 20
162.883144
 11
281.683124
 21
163.021324
  0
LINE
  8
CSLAYER1
  6
CONTINUOUS
 62
     6
 10
281.683124
 20
163.021324
 11
281.803665
 21
163.196154
  0
ARC
  8
CSLAYER1
  6
CONTINUOUS
 62
     6
 10
279.538462
 20
165.196154
 40
2.000000
 50
180.000000
 51
270.000000
  0
LINE
  8
CSLAYER1
  6
CONTINUOUS
 62
     6
 10
277.538462
 20
165.196154
 11
277.538462
 21
165.696154
  0
LINE
  8
CSLAYER1
  6
CONTINUOUS
 62
     6
 10
277.288462
 20
165.696154
 11
303.288462
 21
165.696154
  0
LINE
  8
CSLAYER1
  6
CONTINUOUS
 62
     6
 10
303.288462
 20
167.696154
 11
277.288462
 21
167.696154
  0
LINE
  8
CSLAYER1
  6
CONTINUOUS
 62
     6
 10
277.288462
 20
167.696154
 11
277.288462
 21
163.696154
  0
LINE
  8
CSLAYER1
  6
CONTINUOUS
 62
     6
 10
277.288462
 20
163.696154
 11
264.288462
 21
163.696154
  0
LINE
  8
CSLAYER1
  6
CONTINUOUS
 62
     6
 10
279.538462
 20
163.196154
 11
288.627087
 21
163.196154
  0
ARC
  8
CSLAYER1
  6
CONTINUOUS
 62
     6
 10
290.288462
 20
169.996142
 40
7.000000
 50
253.743003
 51
286.257026
  0
ARC
  8
CSLAYER1
  6
CONTINUOUS
 62
     6
 10
291.968119
 20
164.236071
 40
1.000000
 50
286.257408
 51
354.999902
  0
LINE
  8
CSLAYER1
  6
CONTINUOUS
 62
     6
 10
292.964304
 20
164.148913
 11
293.019419
 21
164.778734
  0
ARC
  8
CSLAYER1
  6
CONTINUOUS
 62
     6
 10
292.820200
 20
164.796160
 40
0.200000
 50
-5.000126
 51
90.000019
  0
LINE
  8
CSLAYER1
  6
CONTINUOUS
 62
     6
 10
293.088449
 20
164.996172
 11
290.288462
 21
164.996142
  0
LINE
  8
CSLAYER1
  6
CONTINUOUS
 62
     6
 10
290.288462
 20
164.996142
 11
287.488474
 21
164.996142
  0
ARC
  8
CSLAYER1
  6
CONTINUOUS
 62
     6
 10
287.488474
 20
165.096148
 40
0.100000
 50
180.000005
 51
270.000001
  0
LINE
  8
CSLAYER1
  6
CONTINUOUS
 62
     6
 10
287.388437
 20
165.096148
 11
287.388437
 21
165.596148
  0
ARC
  8
CSLAYER1
  6
CONTINUOUS
 62
     6
 10
287.488474
 20
165.596148
 40
0.100000
 50
90.000003
 51
180.000005
  0
ARC
  8
CSLAYER1
  6
CONTINUOUS
 62
     6
 10
287.756723
 20
164.796160
 40
0.200000
 50
90.000003
 51
185.000154
  0
LINE
  8
CSLAYER1
  6
CONTINUOUS
 62
     6
 10
287.557474
 20
164.778734
 11
287.612558
 21
164.148913
  0
ARC
  8
CSLAYER1
  6
CONTINUOUS
 62
     6
 10
288.608774
 20
164.236071
 40
1.000000
 50
185.000113
 51
253.742620
  0
LINE
  8
CSLAYER1
  6
CONTINUOUS
 62
     6
 10
286.717084
 20
163.196154
 11
286.551966
 21
162.178110
  0
LINE
  8
CSLAYER1
  6
CONTINUOUS
 62
     6
 10
286.551966
 20
162.178110
 11
286.493831
 21
161.855683
  0
LINE
  8
CSLAYER1
  6
CONTINUOUS
 62
     6
 10
286.493831
 20
161.855683
 11
286.428978
 21
161.523873
  0
LINE
  8
CSLAYER1
  6
CONTINUOUS
 62
     6
 10
286.428978
 20
161.523873
 11
286.358603
 21
161.186077
  0
LINE
  8
CSLAYER1
  6
CONTINUOUS
 62
     6
 10
286.358603
 20
161.186077
 11
286.283900
 21
160.845689
  0
LINE
  8
CSLAYER1
  6
CONTINUOUS
 62
     6
 10
286.283900
 20
160.845689
 11
286.206063
 21
160.506105
  0
LINE
  8
CSLAYER1
  6
CONTINUOUS
 62
     6
 10
286.206063
 20
160.506105
 11
286.126290
 21
160.170720
  0
LINE
  8
CSLAYER1
  6
CONTINUOUS
 62
     6
 10
286.126290
 20
160.170720
 11
286.045773
 21
159.842929
  0
LINE
  8
CSLAYER1
  6
CONTINUOUS
 62
     6
 10
286.045773
 20
159.842929
 11
285.965709
 21
159.526128
  0
LINE
  8
CSLAYER1
  6
CONTINUOUS
 62
     6
 10
285.965709
 20
159.526128
 11
285.887292
 21
159.223711
  0
LINE
  8
CSLAYER1
  6
CONTINUOUS
 62
     6
 10
285.887292
 20
159.223711
 11
285.803919
 21
158.923961
  0
LINE
  8
CSLAYER1
  6
CONTINUOUS
 62
     6
 10
285.803919
 20
158.923961
 11
285.710006
 21
158.618437
  0
LINE
  8
CSLAYER1
  6
CONTINUOUS
 62
     6
 10
285.710006
 20
158.618437
 11
285.606421
 21
158.308397
  0
LINE
  8
CSLAYER1
  6
CONTINUOUS
 62
     6
 10
285.606421
 20
158.308397
 11
285.494032
 21
157.995102
  0
LINE
  8
CSLAYER1
  6
CONTINUOUS
 62
     6
 10
285.494032
 20
157.995102
 11
285.373710
 21
157.679811
  0
LINE
  8
CSLAYER1
  6
CONTINUOUS
 62
     6
 10
285.373710
 20
157.679811
 11
285.246324
 21
157.363782
  0
LINE
  8
CSLAYER1
  6
CONTINUOUS
 62
     6
 10
285.246324
 20
157.363782
 11
285.112741
 21
157.048277
  0
LINE
  8
CSLAYER1
  6
CONTINUOUS
 62
     6
 10
285.112741
 20
157.048277
 11
284.973832
 21
156.734553
  0
LINE
  8
CSLAYER1
  6
CONTINUOUS
 62
     6
 10
284.973832
 20
156.734553
 11
284.830466
 21
156.423871
  0
LINE
  8
CSLAYER1
  6
CONTINUOUS
 62
     6
 10
284.830466
 20
156.423871
 11
284.683511
 21
156.117489
  0
LINE
  8
CSLAYER1
  6
CONTINUOUS
 62
     6
 10
284.683511
 20
156.117489
 11
284.533837
 21
155.816668
  0
LINE
  8
CSLAYER1
  6
CONTINUOUS
 62
     6
 10
284.533837
 20
155.816668
 11
284.406492
 21
155.569048
  0
LINE
  8
CSLAYER1
  6
CONTINUOUS
 62
     6
 10
284.406492
 20
155.569048
 11
284.276340
 21
155.323014
  0
LINE
  8
CSLAYER1
  6
CONTINUOUS
 62
     6
 10
284.276340
 20
155.323014
 11
284.143661
 21
155.078408
  0
LINE
  8
CSLAYER1
  6
CONTINUOUS
 62
     6
 10
284.143661
 20
155.078408
 11
284.008736
 21
154.835071
  0
LINE
  8
CSLAYER1
  6
CONTINUOUS
 62
     6
 10
284.008736
 20
154.835071
 11
283.871846
 21
154.592844
  0
LINE
  8
CSLAYER1
  6
CONTINUOUS
 62
     6
 10
283.871846
 20
154.592844
 11
283.733271
 21
154.351569
  0
LINE
  8
CSLAYER1
  6
CONTINUOUS
 62
     6
 10
283.733271
 20
154.351569
 11
283.593293
 21
154.111087
  0
LINE
  8
CSLAYER1
  6
CONTINUOUS
 62
     6
 10
283.593293
 20
154.111087
 11
283.452191
 21
153.871240
  0
LINE
  8
CSLAYER1
  6
CONTINUOUS
 62
     6
 10
283.452191
 20
153.871240
 11
283.310248
 21
153.631868
  0
LINE
  8
CSLAYER1
  6
CONTINUOUS
 62
     6
 10
283.310248
 20
153.631868
 11
283.167743
 21
153.392814
  0
LINE
  8
CSLAYER1
  6
CONTINUOUS
 62
     6
 10
283.167743
 20
153.392814
 11
283.024957
 21
153.153918
  0
ARC
  8
CSLAYER1
  6
CONTINUOUS
 62
     6
 10
283.015291
 20
154.353886
 40
1.200008
 50
210.461486
 51
270.461486
  0
ARC
  8
CSLAYER1
  6
CONTINUOUS
 62
     6
 10
281.971254
 20
154.945500
 40
1.200008
 50
210.461486
 51
270.461486
  0
LINE
  8
CSLAYER1
  6
CONTINUOUS
 62
     6
 10
280.936852
 20
154.337145
 11
281.072133
 21
154.563067
  0
LINE
  8
CSLAYER1
  6
CONTINUOUS
 62
     6
 10
281.072133
 20
154.563067
 11
281.207140
 21
154.789143
  0
LINE
  8
CSLAYER1
  6
CONTINUOUS
 62
     6
 10
281.207140
 20
154.789143
 11
281.341596
 21
155.015529
  0
LINE
  8
CSLAYER1
  6
CONTINUOUS
 62
     6
 10
281.341596
 20
155.015529
 11
281.475226
 21
155.242379
  0
LINE
  8
CSLAYER1
  6
CONTINUOUS
 62
     6
 10
281.475226
 20
155.242379
 11
281.607756
 21
155.469847
  0
LINE
  8
CSLAYER1
  6
CONTINUOUS
 62
     6
 10
281.607756
 20
155.469847
 11
281.738909
 21
155.698089
  0
LINE
  8
CSLAYER1
  6
CONTINUOUS
 62
     6
 10
281.738909
 20
155.698089
 11
281.868412
 21
155.927259
  0
LINE
  8
CSLAYER1
  6
CONTINUOUS
 62
     6
 10
281.868412
 20
155.927259
 11
281.995987
 21
156.157511
  0
LINE
  8
CSLAYER1
  6
CONTINUOUS
 62
     6
 10
281.995987
 20
156.157511
 11
282.121361
 21
156.389000
  0
LINE
  8
CSLAYER1
  6
CONTINUOUS
 62
     6
 10
282.121361
 20
156.389000
 11
282.244259
 21
156.621882
  0
LINE
  8
CSLAYER1
  6
CONTINUOUS
 62
     6
 10
282.244259
 20
156.621882
 11
282.364404
 21
156.856310
  0
LINE
  8
CSLAYER1
  6
CONTINUOUS
 62
     6
 10
282.364404
 20
156.856310
 11
282.498645
 21
157.127115
  0
LINE
  8
CSLAYER1
  6
CONTINUOUS
 62
     6
 10
282.498645
 20
157.127115
 11
282.630508
 21
157.402880
  0
LINE
  8
CSLAYER1
  6
CONTINUOUS
 62
     6
 10
282.630508
 20
157.402880
 11
282.759215
 21
157.682474
  0
LINE
  8
CSLAYER1
  6
CONTINUOUS
 62
     6
 10
282.759215
 20
157.682474
 11
282.883989
 21
157.964764
  0
LINE
  8
CSLAYER1
  6
CONTINUOUS
 62
     6
 10
282.883989
 20
157.964764
 11
283.004052
 21
158.248620
  0
LINE
  8
CSLAYER1
  6
CONTINUOUS
 62
     6
 10
283.004052
 20
158.248620
 11
283.118627
 21
158.532910
  0
LINE
  8
CSLAYER1
  6
CONTINUOUS
 62
     6
 10
283.118627
 20
158.532910
 11
283.226936
 21
158.816503
  0
LINE
  8
CSLAYER1
  6
CONTINUOUS
 62
     6
 10
283.226936
 20
158.816503
 11
283.328202
 21
159.098268
  0
LINE
  8
CSLAYER1
  6
CONTINUOUS
 62
     6
 10
283.328202
 20
159.098268
 11
283.421646
 21
159.377074
  0
LINE
  8
CSLAYER1
  6
CONTINUOUS
 62
     6
 10
283.421646
 20
159.377074
 11
283.506493
 21
159.651789
  0
LINE
  8
CSLAYER1
  6
CONTINUOUS
 62
     6
 10
283.506493
 20
159.651789
 11
283.581963
 21
159.921282
  0
LINE
  8
CSLAYER1
  6
CONTINUOUS
 62
     6
 10
283.581963
 20
159.921282
 11
283.656503
 21
160.206721
  0
LINE
  8
CSLAYER1
  6
CONTINUOUS
 62
     6
 10
283.656503
 20
160.206721
 11
283.732511
 21
160.505900
  0
LINE
  8
CSLAYER1
  6
CONTINUOUS
 62
     6
 10
283.732511
 20
160.505900
 11
283.808854
 21
160.815565
  0
LINE
  8
CSLAYER1
  6
CONTINUOUS
 62
     6
 10
283.808854
 20
160.815565
 11
283.884400
 21
161.132465
  0
LINE
  8
CSLAYER1
  6
CONTINUOUS
 62
     6
 10
283.884400
 20
161.132465
 11
283.958016
 21
161.453347
  0
LINE
  8
CSLAYER1
  6
CONTINUOUS
 62
     6
 10
283.958016
 20
161.453347
 11
284.028569
 21
161.774958
  0
LINE
  8
CSLAYER1
  6
CONTINUOUS
 62
     6
 10
284.028569
 20
161.774958
 11
284.094926
 21
162.094046
  0
LINE
  8
CSLAYER1
  6
CONTINUOUS
 62
     6
 10
284.094926
 20
162.094046
 11
284.155954
 21
162.407357
  0
LINE
  8
CSLAYER1
  6
CONTINUOUS
 62
     6
 10
284.155954
 20
162.407357
 11
284.210521
 21
162.711640
  0
LINE
  8
CSLAYER1
  6
CONTINUOUS
 62
     6
 10
284.210521
 20
162.711640
 11
284.288462
 21
163.196154
  0
LINE
  8
CSLAYER1
  6
CONTINUOUS
 62
     6
 10
284.160061
 20
162.430260
 11
284.111815
 21
162.342426
  0
LINE
  8
CSLAYER1
  6
CONTINUOUS
 62
     6
 10
284.111815
 20
162.342426
 11
284.001927
 21
162.150617
  0
LINE
  8
CSLAYER1
  6
CONTINUOUS
 62
     6
 10
284.001927
 20
162.150617
 11
283.883673
 21
161.951130
  0
LINE
  8
CSLAYER1
  6
CONTINUOUS
 62
     6
 10
283.883673
 20
161.951130
 11
283.758635
 21
161.746150
  0
LINE
  8
CSLAYER1
  6
CONTINUOUS
 62
     6
 10
283.758635
 20
161.746150
 11
283.628394
 21
161.537864
  0
LINE
  8
CSLAYER1
  6
CONTINUOUS
 62
     6
 10
283.628394
 20
161.537864
 11
283.494531
 21
161.328459
  0
LINE
  8
CSLAYER1
  6
CONTINUOUS
 62
     6
 10
283.494531
 20
161.328459
 11
283.358629
 21
161.120119
  0
LINE
  8
CSLAYER1
  6
CONTINUOUS
 62
     6
 10
283.358629
 20
161.120119
 11
283.222269
 21
160.915032
  0
LINE
  8
CSLAYER1
  6
CONTINUOUS
 62
     6
 10
283.222269
 20
160.915032
 11
283.087032
 21
160.715382
  0
LINE
  8
CSLAYER1
  6
CONTINUOUS
 62
     6
 10
283.087032
 20
160.715382
 11
282.954501
 21
160.523357
  0
LINE
  8
CSLAYER1
  6
CONTINUOUS
 62
     6
 10
282.954501
 20
160.523357
 11
282.826257
 21
160.341143
  0
LINE
  8
CSLAYER1
  6
CONTINUOUS
 62
     6
 10
282.826257
 20
160.341143
 11
282.721176
 21
160.196964
  0
LINE
  8
CSLAYER1
  6
CONTINUOUS
 62
     6
 10
282.721176
 20
160.196964
 11
282.609285
 21
160.049914
  0
LINE
  8
CSLAYER1
  6
CONTINUOUS
 62
     6
 10
282.609285
 20
160.049914
 11
282.491717
 21
159.900892
  0
LINE
  8
CSLAYER1
  6
CONTINUOUS
 62
     6
 10
282.491717
 20
159.900892
 11
282.369604
 21
159.750798
  0
LINE
  8
CSLAYER1
  6
CONTINUOUS
 62
     6
 10
282.369604
 20
159.750798
 11
282.244078
 21
159.600530
  0
LINE
  8
CSLAYER1
  6
CONTINUOUS
 62
     6
 10
282.244078
 20
159.600530
 11
282.116272
 21
159.450987
  0
LINE
  8
CSLAYER1
  6
CONTINUOUS
 62
     6
 10
282.116272
 20
159.450987
 11
281.987319
 21
159.303069
  0
LINE
  8
CSLAYER1
  6
CONTINUOUS
 62
     6
 10
281.987319
 20
159.303069
 11
281.858352
 21
159.157674
  0
LINE
  8
CSLAYER1
  6
CONTINUOUS
 62
     6
 10
281.858352
 20
159.157674
 11
281.730503
 21
159.015702
  0
LINE
  8
CSLAYER1
  6
CONTINUOUS
 62
     6
 10
281.730503
 20
159.015702
 11
281.604905
 21
158.878052
  0
LINE
  8
CSLAYER1
  6
CONTINUOUS
 62
     6
 10
281.604905
 20
158.878052
 11
281.482690
 21
158.745623
  0
LINE
  8
CSLAYER1
  6
CONTINUOUS
 62
     6
 10
281.482690
 20
158.745623
 11
281.337713
 21
158.593463
  0
LINE
  8
CSLAYER1
  6
CONTINUOUS
 62
     6
 10
281.337713
 20
158.593463
 11
281.184538
 21
158.439512
  0
LINE
  8
CSLAYER1
  6
CONTINUOUS
 62
     6
 10
281.184538
 20
158.439512
 11
281.025129
 21
158.284079
  0
LINE
  8
CSLAYER1
  6
CONTINUOUS
 62
     6
 10
281.025129
 20
158.284079
 11
280.861453
 21
158.127471
  0
LINE
  8
CSLAYER1
  6
CONTINUOUS
 62
     6
 10
280.861453
 20
158.127471
 11
280.695473
 21
157.969997
  0
LINE
  8
CSLAYER1
  6
CONTINUOUS
 62
     6
 10
280.695473
 20
157.969997
 11
280.529155
 21
157.811966
  0
LINE
  8
CSLAYER1
  6
CONTINUOUS
 62
     6
 10
280.529155
 20
157.811966
 11
280.364465
 21
157.653686
  0
LINE
  8
CSLAYER1
  6
CONTINUOUS
 62
     6
 10
280.364465
 20
157.653686
 11
280.203367
 21
157.495466
  0
LINE
  8
CSLAYER1
  6
CONTINUOUS
 62
     6
 10
280.203367
 20
157.495466
 11
280.047828
 21
157.337614
  0
LINE
  8
CSLAYER1
  6
CONTINUOUS
 62
     6
 10
280.047828
 20
157.337614
 11
279.899812
 21
157.180438
  0
LINE
  8
CSLAYER1
  6
CONTINUOUS
 62
     6
 10
279.899812
 20
157.180438
 11
279.761285
 21
157.024248
  0
LINE
  8
CSLAYER1
  6
CONTINUOUS
 62
     6
 10
279.761285
 20
157.024248
 11
279.635370
 21
156.877666
  0
LINE
  8
CSLAYER1
  6
CONTINUOUS
 62
     6
 10
279.635370
 20
156.877666
 11
279.504560
 21
156.727487
  0
LINE
  8
CSLAYER1
  6
CONTINUOUS
 62
     6
 10
279.504560
 20
156.727487
 11
279.368958
 21
156.575268
  0
LINE
  8
CSLAYER1
  6
CONTINUOUS
 62
     6
 10
279.368958
 20
156.575268
 11
279.228664
 21
156.422563
  0
LINE
  8
CSLAYER1
  6
CONTINUOUS
 62
     6
 10
279.228664
 20
156.422563
 11
279.083781
 21
156.270930
  0
LINE
  8
CSLAYER1
  6
CONTINUOUS
 62
     6
 10
279.083781
 20
156.270930
 11
278.934410
 21
156.121923
  0
LINE
  8
CSLAYER1
  6
CONTINUOUS
 62
     6
 10
278.934410
 20
156.121923
 11
278.780654
 21
155.977099
  0
LINE
  8
CSLAYER1
  6
CONTINUOUS
 62
     6
 10
278.780654
 20
155.977099
 11
278.622613
 21
155.838014
  0
LINE
  8
CSLAYER1
  6
CONTINUOUS
 62
     6
 10
278.622613
 20
155.838014
 11
278.460390
 21
155.706224
  0
LINE
  8
CSLAYER1
  6
CONTINUOUS
 62
     6
 10
278.460390
 20
155.706224
 11
278.294086
 21
155.583284
  0
LINE
  8
CSLAYER1
  6
CONTINUOUS
 62
     6
 10
278.294086
 20
155.583284
 11
278.123803
 21
155.470751
  0
LINE
  8
CSLAYER1
  6
CONTINUOUS
 62
     6
 10
278.123803
 20
155.470751
 11
278.031069
 21
155.415325
  0
LINE
  8
CSLAYER1
  6
CONTINUOUS
 62
     6
 10
278.031069
 20
155.415325
 11
277.936476
 21
155.362648
  0
LINE
  8
CSLAYER1
  6
CONTINUOUS
 62
     6
 10
277.936476
 20
155.362648
 11
277.840212
 21
155.312447
  0
LINE
  8
CSLAYER1
  6
CONTINUOUS
 62
     6
 10
277.840212
 20
155.312447
 11
277.742461
 21
155.264446
  0
LINE
  8
CSLAYER1
  6
CONTINUOUS
 62
     6
 10
277.742461
 20
155.264446
 11
277.643409
 21
155.218369
  0
LINE
  8
CSLAYER1
  6
CONTINUOUS
 62
     6
 10
277.643409
 20
155.218369
 11
277.543242
 21
155.173943
  0
LINE
  8
CSLAYER1
  6
CONTINUOUS
 62
     6
 10
277.543242
 20
155.173943
 11
277.442146
 21
155.130891
  0
LINE
  8
CSLAYER1
  6
CONTINUOUS
 62
     6
 10
277.442146
 20
155.130891
 11
277.340307
 21
155.088940
  0
LINE
  8
CSLAYER1
  6
CONTINUOUS
 62
     6
 10
277.340307
 20
155.088940
 11
277.237911
 21
155.047814
  0
LINE
  8
CSLAYER1
  6
CONTINUOUS
 62
     6
 10
277.237911
 20
155.047814
 11
277.135143
 21
155.007237
  0
LINE
  8
CSLAYER1
  6
CONTINUOUS
 62
     6
 10
277.135143
 20
155.007237
 11
277.032189
 21
154.966936
  0
ARC
  8
CSLAYER1
  6
CONTINUOUS
 62
     6
 10
281.990585
 20
152.545562
 40
1.200008
 50
30.461486
 51
90.461486
  0
LINE
  8
CSLAYER1
  6
CONTINUOUS
 62
     6
 10
290.384378
 20
164.996172
 11
289.940500
 21
165.696154
  0
LINE
  8
CSLAYER1
  6
CONTINUOUS
 62
     6
 10
290.440500
 20
165.696154
 11
290.884378
 21
164.996172
  0
ARC
  8
CSLAYER1
  6
CONTINUOUS
 62
     6
 10
293.088449
 20
165.096148
 40
0.100000
 50
270.000001
 51
359.942691
  0
LINE
  8
CSLAYER1
  6
CONTINUOUS
 62
     6
 10
293.188425
 20
165.096148
 11
293.188425
 21
165.596148
  0
ARC
  8
CSLAYER1
  6
CONTINUOUS
 62
     6
 10
293.088449
 20
165.596148
 40
0.100000
 50
0.000010
 51
90.000016
  0
LINE
  8
CSLAYER1
  6
CONTINUOUS
 62
     6
 10
303.288462
 20
163.696154
 11
303.288462
 21
167.696154
  0
LINE
  8
CSLAYER1
  6
CONTINUOUS
 62
     6
 10
303.288462
 20
163.696154
 11
316.288462
 21
163.696154
  0
LINE
  8
CSLAYER1
  6
CONTINUOUS
 62
     6
 10
316.288462
 20
162.696154
 11
316.288462
 21
252.696154
  0
LINE
  8
CSLAYER1
  6
CONTINUOUS
 62
     6
 10
313.288462
 20
233.696154
 11
277.288462
 21
233.696154
  0
ARC
  8
CSLAYER1
  6
CONTINUOUS
 62
     6
 10
277.288462
 20
232.696154
 40
1.000000
 50
90.000016
 51
180.000005
  0
LINE
  8
CSLAYER1
  6
CONTINUOUS
 62
     6
 10
276.288462
 20
232.696154
 11
276.288462
 21
231.696154
  0
ARC
  8
CSLAYER1
  6
CONTINUOUS
 62
     6
 10
277.288462
 20
231.696154
 40
1.000000
 50
180.000019
 51
270.000001
  0
LINE
  8
CSLAYER1
  6
CONTINUOUS
 62
     6
 10
277.288462
 20
230.696154
 11
313.288462
 21
230.696154
  0
ARC
  8
CSLAYER1
  6
CONTINUOUS
 62
     6
 10
313.288462
 20
231.696154
 40
1.000000
 50
270.000001
 51
359.942691
  0
LINE
  8
CSLAYER1
  6
CONTINUOUS
 62
     6
 10
314.288462
 20
231.696154
 11
314.288462
 21
232.696154
  0
ARC
  8
CSLAYER1
  6
CONTINUOUS
 62
     6
 10
313.288462
 20
232.696154
 40
1.000000
 50
0.000000
 51
90.000003
  0
ARC
  8
CSLAYER1
  6
CONTINUOUS
 62
     6
 10
313.288462
 20
225.696154
 40
1.000000
 50
0.000000
 51
90.000003
  0
LINE
  8
CSLAYER1
  6
CONTINUOUS
 62
     6
 10
314.288462
 20
225.696154
 11
314.288462
 21
224.696154
  0
ARC
  8
CSLAYER1
  6
CONTINUOUS
 62
     6
 10
313.288462
 20
224.696154
 40
1.000000
 50
270.000001
 51
359.942691
  0
LINE
  8
CSLAYER1
  6
CONTINUOUS
 62
     6
 10
313.288462
 20
223.696154
 11
308.517221
 21
223.696154
  0
ARC
  8
CSLAYER1
  6
CONTINUOUS
 62
     6
 10
308.517221
 20
222.696154
 40
1.000000
 50
90.000003
 51
228.590367
  0
ARC
  8
CSLAYER1
  6
CONTINUOUS
 62
     6
 10
295.288462
 20
207.696154
 40
19.000000
 50
-48.590366
 51
48.590386
  0
ARC
  8
CSLAYER1
  6
CONTINUOUS
 62
     6
 10
308.517221
 20
192.696154
 40
1.000000
 50
131.409643
 51
270.000001
  0
LINE
  8
CSLAYER1
  6
CONTINUOUS
 62
     6
 10
308.517221
 20
191.696154
 11
313.288462
 21
191.696154
  0
ARC
  8
CSLAYER1
  6
CONTINUOUS
 62
     6
 10
313.288462
 20
190.696154
 40
1.000000
 50
0.057309
 51
89.999999
  0
LINE
  8
CSLAYER1
  6
CONTINUOUS
 62
     6
 10
314.288462
 20
190.696154
 11
314.288462
 21
189.696154
  0
ARC
  8
CSLAYER1
  6
CONTINUOUS
 62
     6
 10
313.288462
 20
189.696154
 40
1.000000
 50
269.999997
 51
360.000000
  0
LINE
  8
CSLAYER1
  6
CONTINUOUS
 62
     6
 10
313.288462
 20
188.696154
 11
277.288462
 21
188.696154
  0
ARC
  8
CSLAYER1
  6
CONTINUOUS
 62
     6
 10
277.288462
 20
189.696154
 40
1.000000
 50
179.999995
 51
269.999984
  0
LINE
  8
CSLAYER1
  6
CONTINUOUS
 62
     6
 10
276.288462
 20
189.696154
 11
276.288462
 21
190.696154
  0
ARC
  8
CSLAYER1
  6
CONTINUOUS
 62
     6
 10
277.288462
 20
190.696154
 40
1.000000
 50
89.999999
 51
179.999981
  0
LINE
  8
CSLAYER1
  6
CONTINUOUS
 62
     6
 10
277.288462
 20
191.696154
 11
282.059702
 21
191.696154
  0
ARC
  8
CSLAYER1
  6
CONTINUOUS
 62
     6
 10
282.059702
 20
192.696154
 40
1.000000
 50
-89.999999
 51
48.590386
  0
ARC
  8
CSLAYER1
  6
CONTINUOUS
 62
     6
 10
295.288462
 20
207.696154
 40
19.000000
 50
131.409657
 51
228.590367
  0
ARC
  8
CSLAYER1
  6
CONTINUOUS
 62
     6
 10
282.059702
 20
222.696154
 40
1.000000
 50
-48.590366
 51
90.000019
  0
LINE
  8
CSLAYER1
  6
CONTINUOUS
 62
     6
 10
282.059702
 20
223.696154
 11
277.288462
 21
223.696154
  0
ARC
  8
CSLAYER1
  6
CONTINUOUS
 62
     6
 10
277.288462
 20
224.696154
 40
1.000000
 50
180.000019
 51
270.000001
  0
LINE
  8
CSLAYER1
  6
CONTINUOUS
 62
     6
 10
276.288462
 20
224.696154
 11
276.288462
 21
225.696154
  0
ARC
  8
CSLAYER1
  6
CONTINUOUS
 62
     6
 10
277.288462
 20
225.696154
 40
1.000000
 50
90.000016
 51
180.000005
  0
LINE
  8
CSLAYER1
  6
CONTINUOUS
 62
     6
 10
277.288462
 20
226.696154
 11
313.288462
 21
226.696154
  0
LINE
  8
CSLAYER1
  6
CONTINUOUS
 62
     6
 10
301.288462
 20
208.596148
 11
289.288462
 21
208.596148
  0
LINE
  8
CSLAYER1
  6
CONTINUOUS
 62
     6
 10
289.288462
 20
208.596148
 11
289.288462
 21
206.796160
  0
LINE
  8
CSLAYER1
  6
CONTINUOUS
 62
     6
 10
289.288462
 20
206.796160
 11
301.288462
 21
206.796160
  0
LINE
  8
CSLAYER1
  6
CONTINUOUS
 62
     6
 10
301.288462
 20
206.796160
 11
301.288462
 21
208.596148
  0
CIRCLE
  8
CSLAYER1
  6
CONTINUOUS
 62
     6
 10
295.288462
 20
207.696154
 40
12.000000
  0
CIRCLE
  8
CSLAYER1
  6
CONTINUOUS
 62
     6
 10
295.288462
 20
207.696154
 40
15.000000
  0
CIRCLE
  8
CSLAYER1
  6
CONTINUOUS
 62
     6
 10
295.288462
 20
207.696154
 40
16.000000
  0
ARC
  8
CSLAYER1
  6
CONTINUOUS
 62
     6
 10
277.288462
 20
183.696154
 40
1.000000
 50
89.999999
 51
179.999981
  0
LINE
  8
CSLAYER1
  6
CONTINUOUS
 62
     6
 10
276.288462
 20
183.696154
 11
276.288462
 21
182.696154
  0
ARC
  8
CSLAYER1
  6
CONTINUOUS
 62
     6
 10
277.288462
 20
182.696154
 40
1.000000
 50
179.999995
 51
269.999984
  0
LINE
  8
CSLAYER1
  6
CONTINUOUS
 62
     6
 10
277.288462
 20
181.696154
 11
313.288462
 21
181.696154
  0
ARC
  8
CSLAYER1
  6
CONTINUOUS
 62
     6
 10
313.288462
 20
182.696154
 40
1.000000
 50
269.999997
 51
360.000000
  0
LINE
  8
CSLAYER1
  6
CONTINUOUS
 62
     6
 10
314.288462
 20
182.696154
 11
314.288462
 21
183.696154
  0
ARC
  8
CSLAYER1
  6
CONTINUOUS
 62
     6
 10
313.288462
 20
183.696154
 40
1.000000
 50
0.057309
 51
89.999999
  0
LINE
  8
CSLAYER1
  6
CONTINUOUS
 62
     6
 10
313.288462
 20
184.696154
 11
277.288462
 21
184.696154
  0
LINE
  8
CSLAYER1
  6
CONTINUOUS
 62
     6
 10
316.288462
 20
162.696154
 11
393.988462
 21
162.696154
  0
LINE
  8
CSLAYER1
  6
CONTINUOUS
 62
     6
 10
394.491238
 20
165.476991
 11
399.288462
 21
165.476991
  0
LINE
  8
CSLAYER1
  6
CONTINUOUS
 62
     6
 10
399.288462
 20
162.340214
 11
401.288462
 21
162.956214
  0
LINE
  8
CSLAYER1
  6
CONTINUOUS
 62
     6
 10
401.288462
 20
161.108214
 11
399.288462
 21
160.492214
  0
LINE
  8
CSLAYER1
  6
CONTINUOUS
 62
     6
 10
399.288462
 20
157.971437
 11
394.491238
 21
157.971437
  0
ARC
  8
CSLAYER1
  6
CONTINUOUS
 62
     6
 10
408.245403
 20
161.724214
 40
14.256942
 50
164.738520
 51
195.261480
  0
ARC
  8
CSLAYER1
  6
CONTINUOUS
 62
     6
 10
397.741238
 20
167.353379
 40
3.752777
 50
164.553352
 51
210.000000
  0
LINE
  8
CSLAYER1
  6
CONTINUOUS
 62
     6
 10
393.988462
 20
168.029214
 11
393.988462
 21
155.419214
  0
LINE
  8
CSLAYER1
  6
CONTINUOUS
 62
     6
 10
393.988462
 20
155.419214
 11
394.491238
 21
154.218661
  0
LINE
  8
CSLAYER1
  6
CONTINUOUS
 62
     6
 10
394.491238
 20
154.218661
 11
399.288462
 21
154.218661
  0
LINE
  8
CSLAYER1
  6
CONTINUOUS
 62
     6
 10
399.288462
 20
154.024214
 11
399.288462
 21
169.424214
  0
LINE
  8
CSLAYER1
  6
CONTINUOUS
 62
     6
 10
399.288462
 20
169.424214
 11
401.288462
 21
169.424214
  0
LINE
  8
CSLAYER1
  6
CONTINUOUS
 62
     6
 10
399.288462
 20
169.229768
 11
394.491238
 21
169.229768
  0
LINE
  8
CSLAYER1
  6
CONTINUOUS
 62
     6
 10
394.491238
 20
169.229768
 11
393.988462
 21
168.029214
  0
ARC
  8
CSLAYER1
  6
CONTINUOUS
 62
     6
 10
397.741238
 20
156.095049
 40
3.752777
 50
150.000000
 51
195.446648
  0
LINE
  8
CSLAYER1
  6
CONTINUOUS
 62
     6
 10
399.288462
 20
154.024214
 11
401.288462
 21
154.024214
  0
ARC
  8
CSLAYER1
  6
CONTINUOUS
 62
     6
 10
424.288462
 20
152.236154
 40
2.000000
 50
104.470000
 51
180.000000
  0
ARC
  8
CSLAYER1
  6
CONTINUOUS
 62
     6
 10
423.288462
 20
156.096154
 40
2.000000
 50
284.470000
 51
360.000000
  0
LINE
  8
CSLAYER1
  6
CONTINUOUS
 62
     6
 10
425.288462
 20
156.096154
 11
425.288462
 21
167.356154
  0
ARC
  8
CSLAYER1
  6
CONTINUOUS
 62
     6
 10
423.288462
 20
167.356154
 40
2.000000
 50
0.000000
 51
75.520000
  0
ARC
  8
CSLAYER1
  6
CONTINUOUS
 62
     6
 10
424.288462
 20
171.236154
 40
2.000000
 50
180.000000
 51
255.520000
  0
LINE
  8
CSLAYER1
  6
CONTINUOUS
 62
     6
 10
428.288462
 20
167.196154
 11
429.388462
 21
167.196154
  0
ARC
  8
CSLAYER1
  6
CONTINUOUS
 62
     6
 10
429.388462
 20
170.196154
 40
3.000000
 50
270.000000
 51
360.000000
  0
LINE
  8
CSLAYER1
  6
CONTINUOUS
 62
     6
 10
432.388462
 20
170.196154
 11
432.388462
 21
194.176154
  0
ARC
  8
CSLAYER1
  6
CONTINUOUS
 62
     6
 10
429.388462
 20
194.176154
 40
3.000000
 50
0.000000
 51
90.000000
  0
LINE
  8
CSLAYER1
  6
CONTINUOUS
 62
     6
 10
429.388462
 20
197.196154
 11
427.288462
 21
197.196154
  0
ARC
  8
CSLAYER1
  6
CONTINUOUS
 62
     6
 10
427.288462
 20
202.176154
 40
5.000000
 50
180.000000
 51
270.000000
  0
ARC
  8
CSLAYER1
  6
CONTINUOUS
 62
     6
 10
435.148462
 20
195.876154
 40
3.000000
 50
196.430000
 51
268.500000
  0
LINE
  8
CSLAYER1
  6
CONTINUOUS
 62
     6
 10
435.068462
 20
192.876154
 11
458.868462
 21
192.256154
  0
ARC
  8
CSLAYER1
  6
CONTINUOUS
 62
     6
 10
458.788462
 20
189.256154
 40
3.000000
 50
0.000000
 51
88.500000
  0
LINE
  8
CSLAYER1
  6
CONTINUOUS
 62
     6
 10
461.788462
 20
189.256154
 11
461.788462
 21
175.116154
  0
ARC
  8
CSLAYER1
  6
CONTINUOUS
 62
     6
 10
458.788462
 20
175.116154
 40
3.000000
 50
271.500000
 51
360.000000
  0
LINE
  8
CSLAYER1
  6
CONTINUOUS
 62
     6
 10
458.868462
 20
172.116154
 11
435.068462
 21
171.496154
  0
ARC
  8
CSLAYER1
  6
CONTINUOUS
 62
     6
 10
435.148462
 20
168.496154
 40
3.000000
 50
91.500000
 51
163.560000
  0
ARC
  8
CSLAYER1
  6
CONTINUOUS
 62
     6
 10
428.288462
 20
164.196154
 40
3.000000
 50
90.000000
 51
180.000000
  0
LINE
  8
CSLAYER1
  6
CONTINUOUS
 62
     6
 10
427.168462
 20
149.096154
 11
468.788462
 21
150.196154
  0
LINE
  8
CSLAYER1
  6
CONTINUOUS
 62
     6
 10
468.788462
 20
150.196154
 11
468.788462
 21
265.196154
  0
LINE
  8
CSLAYER1
  6
CONTINUOUS
 62
     6
 10
468.788462
 20
265.196154
 11
463.848462
 21
265.316154
  0
ARC
  8
CSLAYER1
  6
CONTINUOUS
 62
     6
 10
464.728462
 20
268.196154
 40
3.000000
 50
188.840000
 51
253.090000
  0
ARC
  8
CSLAYER1
  6
CONTINUOUS
 62
     6
 10
458.788462
 20
267.256154
 40
3.000000
 50
8.840000
 51
88.500000
  0
LINE
  8
CSLAYER1
  6
CONTINUOUS
 62
     6
 10
458.868462
 20
270.256154
 11
434.828462
 21
270.896154
  0
ARC
  8
CSLAYER1
  6
CONTINUOUS
 62
     6
 10
434.908462
 20
273.896154
 40
3.000000
 50
211.410000
 51
268.500000
  0
ARC
  8
CSLAYER1
  6
CONTINUOUS
 62
     6
 10
429.788462
 20
270.756154
 40
3.000000
 50
31.400000
 51
88.500000
  0
LINE
  8
CSLAYER1
  6
CONTINUOUS
 62
     6
 10
429.868462
 20
273.756154
 11
427.168462
 21
273.836154
  0
ARC
  8
CSLAYER1
  6
CONTINUOUS
 62
     6
 10
427.288462
 20
278.836154
 40
5.000000
 50
180.000000
 51
268.500000
  0
LINE
  8
CSLAYER1
  6
CONTINUOUS
 62
     6
 10
432.388462
 20
270.936154
 11
432.388462
 21
264.596154
  0
ARC
  8
CSLAYER1
  6
CONTINUOUS
 62
     6
 10
434.428462
 20
257.876154
 40
6.000000
 50
90.000000
 51
112.330000
  0
LINE
  8
CSLAYER1
  6
CONTINUOUS
 62
     6
 10
434.428462
 20
263.876154
 11
459.288462
 21
263.876154
  0
ARC
  8
CSLAYER1
  6
CONTINUOUS
 62
     6
 10
459.368462
 20
271.896154
 40
8.000000
 50
269.500000
 51
304.720000
  0
LINE
  8
CSLAYER1
  6
CONTINUOUS
 62
     6
 10
468.788462
 20
264.936154
 11
486.668462
 21
264.936154
  0
ARC
  8
CSLAYER1
  6
CONTINUOUS
 62
     6
 10
486.668462
 20
267.936154
 40
3.000000
 50
270.000000
 51
304.870000
  0
ARC
  8
CSLAYER1
  6
CONTINUOUS
 62
     6
 10
485.788462
 20
257.576154
 40
5.000000
 50
124.870000
 51
180.000000
  0
LINE
  8
CSLAYER1
  6
CONTINUOUS
 62
     6
 10
480.788462
 20
257.576154
 11
480.788462
 21
257.196154
  0
ARC
  8
CSLAYER1
  6
CONTINUOUS
 62
     6
 10
478.788462
 20
257.196154
 40
2.000000
 50
270.000000
 51
360.000000
  0
LINE
  8
CSLAYER1
  6
CONTINUOUS
 62
     6
 10
478.788462
 20
255.196154
 11
468.788462
 21
255.196154
  0
ARC
  8
CSLAYER1
  6
CONTINUOUS
 62
     6
 10
475.048462
 20
253.196154
 40
2.000000
 50
0.000000
 51
90.000000
  0
LINE
  8
CSLAYER1
  6
CONTINUOUS
 62
     6
 10
477.048462
 20
253.196154
 11
477.048462
 21
162.196154
  0
ARC
  8
CSLAYER1
  6
CONTINUOUS
 62
     6
 10
475.048462
 20
162.196154
 40
2.000000
 50
270.000000
 51
360.000000
  0
LINE
  8
CSLAYER1
  6
CONTINUOUS
 62
     6
 10
478.788462
 20
160.196154
 11
468.788462
 21
160.196154
  0
LINE
  8
CSLAYER1
  6
CONTINUOUS
 62
     6
 10
468.788462
 20
150.436154
 11
475.788462
 21
150.436154
  0
ARC
  8
CSLAYER1
  6
CONTINUOUS
 62
     6
 10
475.788462
 20
145.436154
 40
5.000000
 50
0.000000
 51
90.000000
  0
LINE
  8
CSLAYER1
  6
CONTINUOUS
 62
     6
 10
480.788462
 20
145.196154
 11
586.788462
 21
145.196154
  0
LINE
  8
CSLAYER1
  6
CONTINUOUS
 62
     6
 10
580.788462
 20
144.116154
 11
580.788462
 21
133.196154
  0
LINE
  8
CSLAYER1
  6
CONTINUOUS
 62
     6
 10
586.788462
 20
133.196154
 11
480.788462
 21
133.196154
  0
LINE
  8
CSLAYER1
  6
CONTINUOUS
 62
     6
 10
480.788462
 20
133.196154
 11
480.788462
 21
158.196154
  0
ARC
  8
CSLAYER1
  6
CONTINUOUS
 62
     6
 10
478.788462
 20
158.196154
 40
2.000000
 50
0.000000
 51
90.000000
  0
LINE
  8
CSLAYER1
  6
CONTINUOUS
 62
     6
 10
476.048462
 20
175.736154
 11
468.788462
 21
175.736154
  0
LINE
  8
CSLAYER1
  6
CONTINUOUS
 62
     6
 10
496.628462
 20
199.396154
 11
502.308462
 21
242.356154
  0
ARC
  8
CSLAYER1
  6
CONTINUOUS
 62
     6
 10
533.788462
 20
238.196154
 40
31.740000
 50
7.550000
 51
172.440000
  0
LINE
  8
CSLAYER1
  6
CONTINUOUS
 62
     6
 10
565.268462
 20
242.356154
 11
570.968462
 21
199.396154
  0
ARC
  8
CSLAYER1
  6
CONTINUOUS
 62
     6
 10
550.548462
 20
196.696154
 40
20.600000
 50
-90.000000
 51
7.550000
  0
LINE
  8
CSLAYER1
  6
CONTINUOUS
 62
     6
 10
550.548462
 20
176.096154
 11
517.048462
 21
176.096154
  0
ARC
  8
CSLAYER1
  6
CONTINUOUS
 62
     6
 10
517.048462
 20
196.696154
 40
20.600000
 50
172.440000
 51
270.000000
  0
LINE
  8
CSLAYER1
  6
CONTINUOUS
 62
     6
 10
498.208462
 20
199.176154
 11
503.908462
 21
242.156154
  0
ARC
  8
CSLAYER1
  6
CONTINUOUS
 62
     6
 10
533.788462
 20
238.196154
 40
30.140000
 50
-187.560000
 51
7.550000
  0
LINE
  8
CSLAYER1
  6
CONTINUOUS
 62
     6
 10
563.688462
 20
242.156154
 11
569.368462
 21
199.176154
  0
ARC
  8
CSLAYER1
  6
CONTINUOUS
 62
     6
 10
550.548462
 20
196.696154
 40
19.000000
 50
-90.000000
 51
7.550000
  0
LINE
  8
CSLAYER1
  6
CONTINUOUS
 62
     6
 10
550.548462
 20
177.696154
 11
517.048462
 21
177.696154
  0
ARC
  8
CSLAYER1
  6
CONTINUOUS
 62
     6
 10
517.048462
 20
196.696154
 40
19.000000
 50
172.440000
 51
270.000000
  0
LINE
  8
CSLAYER1
  6
CONTINUOUS
 62
     6
 10
475.908462
 20
239.636154
 11
468.788462
 21
239.636154
  0
LINE
  8
CSLAYER1
  6
CONTINUOUS
 62
     6
 10
482.928462
 20
261.676154
 11
512.508462
 21
282.296154
  0
ARC
  8
CSLAYER1
  6
CONTINUOUS
 62
     6
 10
515.368462
 20
278.196154
 40
5.000000
 50
90.000000
 51
124.870000
  0
LINE
  8
CSLAYER1
  6
CONTINUOUS
 62
     6
 10
515.368462
 20
283.196154
 11
552.228462
 21
283.196154
  0
ARC
  8
CSLAYER1
  6
CONTINUOUS
 62
     6
 10
552.228462
 20
278.196154
 40
5.000000
 50
55.120000
 51
90.000000
  0
LINE
  8
CSLAYER1
  6
CONTINUOUS
 62
     6
 10
555.088462
 20
282.296154
 11
584.648462
 21
261.676154
  0
ARC
  8
CSLAYER1
  6
CONTINUOUS
 62
     6
 10
581.788462
 20
257.576154
 40
5.000000
 50
0.000000
 51
55.120000
  0
LINE
  8
CSLAYER1
  6
CONTINUOUS
 62
     6
 10
586.788462
 20
257.576154
 11
586.788462
 21
133.196154
  0
LINE
  8
CSLAYER1
  6
DASHED
 62
     6
 10
574.288462
 20
133.196154
 11
574.288462
 21
145.196154
  0
LINE
  8
CSLAYER1
  6
DASHED
 62
     6
 10
563.288462
 20
145.196154
 11
563.288462
 21
133.196154
  0
ARC
  8
CSLAYER1
  6
CONTINUOUS
 62
     6
 10
552.848462
 20
147.196154
 40
2.000000
 50
194.030000
 51
270.000000
  0
LINE
  8
CSLAYER1
  6
CONTINUOUS
 62
     6
 10
550.908462
 20
146.696154
 11
549.168462
 21
153.676154
  0
ARC
  8
CSLAYER1
  6
CONTINUOUS
 62
     6
 10
547.228462
 20
153.196154
 40
2.000000
 50
14.030000
 51
90.000000
  0
LINE
  8
CSLAYER1
  6
CONTINUOUS
 62
     6
 10
547.228462
 20
155.196154
 11
520.348462
 21
155.196154
  0
ARC
  8
CSLAYER1
  6
CONTINUOUS
 62
     6
 10
520.348462
 20
153.196154
 40
2.000000
 50
90.000000
 51
165.960000
  0
LINE
  8
CSLAYER1
  6
CONTINUOUS
 62
     6
 10
518.408462
 20
153.676154
 11
516.668462
 21
146.696154
  0
ARC
  8
CSLAYER1
  6
CONTINUOUS
 62
     6
 10
514.728462
 20
147.196154
 40
2.000000
 50
270.000000
 51
345.960000
  0
ARC
  8
CSLAYER1
  6
CONTINUOUS
 62
     6
 10
517.788462
 20
146.196154
 40
1.000000
 50
270.000000
 51
360.000000
  0
LINE
  8
CSLAYER1
  6
CONTINUOUS
 62
     6
 10
518.788462
 20
146.196154
 11
518.788462
 21
153.556154
  0
LINE
  8
CSLAYER1
  6
CONTINUOUS
 62
     6
 10
548.788462
 20
153.756154
 11
548.788462
 21
146.196154
  0
ARC
  8
CSLAYER1
  6
CONTINUOUS
 62
     6
 10
549.788462
 20
146.196154
 40
1.000000
 50
180.000000
 51
270.000000
  0
LINE
  8
CSLAYER1
  6
DASHED
 62
     6
 10
504.288462
 20
145.196154
 11
504.288462
 21
133.196154
  0
LINE
  8
CSLAYER1
  6
DASHED
 62
     6
 10
493.288462
 20
133.196154
 11
493.288462
 21
145.196154
  0
LINE
  8
CSLAYER1
  6
CONTINUOUS
 62
     6
 10
486.788462
 20
144.116154
 11
486.788462
 21
133.196154
  0
ARC
  8
CSLAYER1
  6
CONTINUOUS
 62
     6
 10
427.288462
 20
144.096154
 40
5.000000
 50
91.500000
 51
180.000000
  0
ARC
  8
CSLAYER1
  6
CONTINUOUS
 62
     6
 10
424.288462
 20
244.136154
 40
2.000000
 50
104.470000
 51
180.000000
  0
ARC
  8
CSLAYER1
  6
CONTINUOUS
 62
     6
 10
423.288462
 20
248.016154
 40
2.000000
 50
284.470000
 51
360.000000
  0
LINE
  8
CSLAYER1
  6
CONTINUOUS
 62
     6
 10
425.288462
 20
248.016154
 11
425.288462
 21
259.276154
  0
ARC
  8
CSLAYER1
  6
CONTINUOUS
 62
     6
 10
423.288462
 20
259.276154
 40
2.000000
 50
0.000000
 51
75.520000
  0
ARC
  8
CSLAYER1
  6
CONTINUOUS
 62
     6
 10
424.288462
 20
263.136154
 40
2.000000
 50
180.000000
 51
255.520000
  0
LINE
  8
CSLAYER1
  6
CONTINUOUS
 62
     6
 10
422.288462
 20
262.976154
 11
429.868462
 21
262.976154
  0
ARC
  8
CSLAYER1
  6
CONTINUOUS
 62
     6
 10
429.868462
 20
268.976154
 40
6.000000
 50
270.000000
 51
292.330000
  0
CIRCLE
  8
CSLAYER1
  6
CONTINUOUS
 62
     6
 10
533.788462
 20
238.196154
 40
27.500000
  0
LINE
  8
CSLAYER1
  6
CONTINUOUS
 62
     6
 10
541.288462
 20
241.196154
 11
547.288462
 21
241.196154
  0
LINE
  8
CSLAYER1
  6
CONTINUOUS
 62
     6
 10
547.288462
 20
241.196154
 11
547.288462
 21
235.196154
  0
LINE
  8
CSLAYER1
  6
CONTINUOUS
 62
     6
 10
547.288462
 20
235.196154
 11
541.288462
 21
235.196154
  0
LINE
  8
CSLAYER1
  6
CONTINUOUS
 62
     6
 10
541.288462
 20
235.196154
 11
541.288462
 21
241.196154
  0
ARC
  8
CSLAYER1
  6
CONTINUOUS
 62
     6
 10
533.788462
 20
238.196154
 40
11.000000
 50
15.820000
 51
344.170000
  0
LINE
  8
CSLAYER1
  6
CONTINUOUS
 62
     6
 10
625.832295
 20
235.196154
 11
657.832295
 21
235.196154
  0
ARC
  8
CSLAYER1
  6
CONTINUOUS
 62
     6
 10
657.832295
 20
238.196154
 40
3.000000
 50
-90.000000
 51
90.000000
  0
LINE
  8
CSLAYER1
  6
CONTINUOUS
 62
     6
 10
657.832295
 20
241.196154
 11
625.832295
 21
241.196154
  0
LINE
  8
CSLAYER1
  6
CONTINUOUS
 62
     6
 10
625.832295
 20
249.196154
 11
625.832295
 21
227.196154
  0
LINE
  8
CSLAYER1
  6
CONTINUOUS
 62
     6
 10
625.832295
 20
227.196154
 11
665.832295
 21
227.196154
  0
LINE
  8
CSLAYER1
  6
CONTINUOUS
 62
     6
 10
665.832295
 20
225.696154
 11
665.832295
 21
250.696154
  0
LINE
  8
CSLAYER1
  6
CONTINUOUS
 62
     6
 10
665.832295
 20
250.696154
 11
667.832295
 21
250.696154
  0
ARC
  8
CSLAYER1
  6
CONTINUOUS
 62
     6
 10
669.872295
 20
253.656154
 40
3.500000
 50
125.651751
 51
234.380000
  0
LINE
  8
CSLAYER1
  6
CONTINUOUS
 62
     6
 10
667.832295
 20
263.376154
 11
667.832295
 21
212.996154
  0
ARC
  8
CSLAYER1
  6
CONTINUOUS
 62
     6
 10
670.832295
 20
212.996154
 40
3.000000
 50
180.000000
 51
255.120000
  0
LINE
  8
CSLAYER1
  6
CONTINUOUS
 62
     6
 10
670.072295
 20
210.096154
 11
675.612295
 21
208.616154
  0
ARC
  8
CSLAYER1
  6
CONTINUOUS
 62
     6
 10
674.832295
 20
205.716154
 40
3.000000
 50
0.000000
 51
75.120000
  0
ARC
  8
CSLAYER1
  6
CONTINUOUS
 62
     6
 10
657.172295
 20
192.876154
 40
3.000000
 50
-36.400000
 51
14.170000
  0
ARC
  8
CSLAYER1
  6
CONTINUOUS
 62
     6
 10
671.672295
 20
182.196154
 40
15.000000
 50
143.600000
 51
257.160000
  0
LINE
  8
CSLAYER1
  6
CONTINUOUS
 62
     6
 10
668.332295
 20
165.196154
 11
668.332295
 21
173.784504
  0
ARC
  8
CSLAYER1
  6
CONTINUOUS
 62
     6
 10
663.332295
 20
173.784504
 40
5.000000
 50
0.000000
 51
32.859880
  0
ARC
  8
CSLAYER1
  6
CONTINUOUS
 62
     6
 10
715.832295
 20
207.696154
 40
57.500000
 50
160.170000
 51
212.859880
  0
LINE
  8
CSLAYER1
  6
CONTINUOUS
 62
     6
 10
665.832295
 20
225.696154
 11
667.832295
 21
225.696154
  0
LINE
  8
CSLAYER1
  6
CONTINUOUS
 62
     6
 10
677.832295
 20
240.256154
 11
677.832295
 21
179.996154
  0
ARC
  8
CSLAYER1
  6
CONTINUOUS
 62
     6
 10
680.832295
 20
179.996154
 40
3.000000
 50
180.000000
 51
255.060000
  0
LINE
  8
CSLAYER1
  6
CONTINUOUS
 62
     6
 10
680.072295
 20
177.096154
 11
681.612295
 21
176.676154
  0
ARC
  8
CSLAYER1
  6
CONTINUOUS
 62
     6
 10
680.832295
 20
173.776154
 40
3.000000
 50
0.000000
 51
75.060000
  0
LINE
  8
CSLAYER1
  6
CONTINUOUS
 62
     6
 10
682.372295
 20
160.196154
 11
673.332295
 21
160.196154
  0
ARC
  8
CSLAYER1
  6
CONTINUOUS
 62
     6
 10
673.332295
 20
165.196154
 40
5.000000
 50
180.000000
 51
270.000000
  0
ARC
  8
CSLAYER1
  6
CONTINUOUS
 62
     6
 10
669.872295
 20
161.716154
 40
3.500000
 50
115.880000
 51
224.990000
  0
ARC
  8
CSLAYER1
  6
CONTINUOUS
 62
     6
 10
669.872295
 20
161.716154
 40
3.500000
 50
225.000000
 51
334.100000
  0
ARC
  8
CSLAYER1
  6
CONTINUOUS
 62
     6
 10
669.872295
 20
161.716154
 40
10.000000
 50
161.120000
 51
316.510000
  0
ARC
  8
CSLAYER1
  6
CONTINUOUS
 62
     6
 10
650.952295
 20
168.196154
 40
10.000000
 50
-18.880000
 51
34.030000
  0
ARC
  8
CSLAYER1
  6
CONTINUOUS
 62
     6
 10
671.672295
 20
182.196154
 40
11.500000
 50
157.860000
 51
253.150000
  0
ARC
  8
CSLAYER1
  6
CONTINUOUS
 62
     6
 10
656.392295
 20
188.396154
 40
5.000000
 50
-22.140000
 51
17.960000
  0
ARC
  8
CSLAYER1
  6
CONTINUOUS
 62
     6
 10
682.392295
 20
155.196154
 40
5.000000
 50
73.150000
 51
90.230000
  0
ARC
  8
CSLAYER1
  6
CONTINUOUS
 62
     6
 10
715.832295
 20
207.696154
 40
57.500000
 50
236.000000
 51
236.180000
  0
ARC
  8
CSLAYER1
  6
CONTINUOUS
 62
     6
 10
684.392295
 20
147.956154
 40
10.000000
 50
93.140000
 51
136.510000
  0
ARC
  8
CSLAYER1
  6
CONTINUOUS
 62
     6
 10
681.832295
 20
156.556154
 40
2.000000
 50
291.030000
 51
360.000000
  0
LINE
  8
CSLAYER1
  6
CONTINUOUS
 62
     6
 10
682.552295
 20
154.696154
 11
659.112295
 21
145.676154
  0
ARC
  8
CSLAYER1
  6
CONTINUOUS
 62
     6
 10
659.832295
 20
143.816154
 40
2.000000
 50
111.030000
 51
180.000000
  0
LINE
  8
CSLAYER1
  6
CONTINUOUS
 62
     6
 10
657.832295
 20
143.816154
 11
657.832295
 21
133.196154
  0
LINE
  8
CSLAYER1
  6
CONTINUOUS
 62
     6
 10
657.832295
 20
133.196154
 11
690.832295
 21
133.196154
  0
LINE
  8
CSLAYER1
  6
CONTINUOUS
 62
     6
 10
690.832295
 20
133.196154
 11
691.832295
 21
134.196154
  0
LINE
  8
CSLAYER1
  6
CONTINUOUS
 62
     6
 10
691.832295
 20
134.196154
 11
739.832295
 21
134.196154
  0
LINE
  8
CSLAYER1
  6
CONTINUOUS
 62
     6
 10
739.832295
 20
134.196154
 11
740.832295
 21
133.196154
  0
LINE
  8
CSLAYER1
  6
CONTINUOUS
 62
     6
 10
740.832295
 20
133.196154
 11
773.832295
 21
133.196154
  0
LINE
  8
CSLAYER1
  6
CONTINUOUS
 62
     6
 10
773.832295
 20
133.196154
 11
773.832295
 21
143.816154
  0
ARC
  8
CSLAYER1
  6
CONTINUOUS
 62
     6
 10
771.832295
 20
143.816154
 40
2.000000
 50
0.000000
 51
68.960000
  0
LINE
  8
CSLAYER1
  6
CONTINUOUS
 62
     6
 10
772.552295
 20
145.676154
 11
749.112295
 21
154.696154
  0
ARC
  8
CSLAYER1
  6
CONTINUOUS
 62
     6
 10
749.832295
 20
156.556154
 40
2.000000
 50
180.000000
 51
248.960000
  0
ARC
  8
CSLAYER1
  6
CONTINUOUS
 62
     6
 10
747.292295
 20
147.956154
 40
10.000000
 50
43.480000
 51
86.850000
  0
ARC
  8
CSLAYER1
  6
CONTINUOUS
 62
     6
 10
761.792295
 20
161.716154
 40
10.000000
 50
-136.520000
 51
18.870000
  0
ARC
  8
CSLAYER1
  6
CONTINUOUS
 62
     6
 10
780.732295
 20
168.196154
 40
10.000000
 50
145.960000
 51
198.870000
  0
ARC
  8
CSLAYER1
  6
CONTINUOUS
 62
     6
 10
768.332295
 20
173.784504
 40
5.000000
 50
147.140120
 51
180.000000
  0
LINE
  8
CSLAYER1
  6
CONTINUOUS
 62
     6
 10
763.332295
 20
173.784504
 11
763.332295
 21
165.196154
  0
ARC
  8
CSLAYER1
  6
CONTINUOUS
 62
     6
 10
758.332295
 20
165.196154
 40
5.000000
 50
270.000000
 51
360.000000
  0
LINE
  8
CSLAYER1
  6
CONTINUOUS
 62
     6
 10
758.332295
 20
160.196154
 11
749.292295
 21
160.196154
  0
ARC
  8
CSLAYER1
  6
CONTINUOUS
 62
     6
 10
749.292295
 20
155.196154
 40
5.000000
 50
90.000000
 51
106.840000
  0
ARC
  8
CSLAYER1
  6
CONTINUOUS
 62
     6
 10
761.792295
 20
161.716154
 40
3.500000
 50
205.890000
 51
314.990000
  0
ARC
  8
CSLAYER1
  6
CONTINUOUS
 62
     6
 10
761.792295
 20
161.716154
 40
3.500000
 50
-45.000000
 51
64.110000
  0
ARC
  8
CSLAYER1
  6
CONTINUOUS
 62
     6
 10
760.012295
 20
182.196154
 40
15.000000
 50
-77.170000
 51
36.390000
  0
ARC
  8
CSLAYER1
  6
CONTINUOUS
 62
     6
 10
774.492295
 20
192.876154
 40
3.000000
 50
165.820000
 51
216.390000
  0
ARC
  8
CSLAYER1
  6
CONTINUOUS
 62
     6
 10
775.292295
 20
188.396154
 40
5.000000
 50
162.030000
 51
202.130000
  0
ARC
  8
CSLAYER1
  6
CONTINUOUS
 62
     6
 10
760.012295
 20
182.196154
 40
11.500000
 50
-73.160000
 51
22.130000
  0
ARC
  8
CSLAYER1
  6
CONTINUOUS
 62
     6
 10
715.832295
 20
207.696154
 40
57.500000
 50
-32.859880
 51
32.034836
  0
ARC
  8
CSLAYER1
  6
CONTINUOUS
 62
     6
 10
761.792295
 20
253.656154
 40
10.000000
 50
-78.229034
 51
78.240000
  0
LINE
  8
CSLAYER1
  6
CONTINUOUS
 62
     6
 10
763.832295
 20
263.376154
 11
763.832295
 21
212.996154
  0
ARC
  8
CSLAYER1
  6
CONTINUOUS
 62
     6
 10
760.832295
 20
212.996154
 40
3.000000
 50
284.870000
 51
360.000000
  0
LINE
  8
CSLAYER1
  6
CONTINUOUS
 62
     6
 10
761.612295
 20
210.096154
 11
756.072295
 21
208.616154
  0
ARC
  8
CSLAYER1
  6
CONTINUOUS
 62
     6
 10
756.832295
 20
205.716154
 40
3.000000
 50
104.870000
 51
180.000000
  0
LINE
  8
CSLAYER1
  6
CONTINUOUS
 62
     6
 10
753.832295
 20
179.996154
 11
753.832295
 21
240.256154
  0
ARC
  8
CSLAYER1
  6
CONTINUOUS
 62
     6
 10
761.792295
 20
253.656154
 40
3.500000
 50
-54.390000
 51
54.380000
  0
ARC
  8
CSLAYER1
  6
CONTINUOUS
 62
     6
 10
760.832295
 20
263.376154
 40
3.000000
 50
0.000000
 51
75.120000
  0
LINE
  8
CSLAYER1
  6
CONTINUOUS
 62
     6
 10
761.612295
 20
266.276154
 11
750.072295
 21
269.336154
  0
ARC
  8
CSLAYER1
  6
CONTINUOUS
 62
     6
 10
750.832295
 20
272.236154
 40
3.000000
 50
180.000000
 51
255.120000
  0
ARC
  8
CSLAYER1
  6
CONTINUOUS
 62
     6
 10
745.832295
 20
280.656154
 40
2.000000
 50
0.000000
 51
89.000000
  0
LINE
  8
CSLAYER1
  6
CONTINUOUS
 62
     6
 10
745.872295
 20
282.656154
 11
715.832295
 21
283.196154
  0
LINE
  8
CSLAYER1
  6
CONTINUOUS
 62
     6
 10
715.832295
 20
283.196154
 11
685.792295
 21
282.656154
  0
ARC
  8
CSLAYER1
  6
CONTINUOUS
 62
     6
 10
685.832295
 20
280.656154
 40
2.000000
 50
91.000000
 51
180.000000
  0
LINE
  8
CSLAYER1
  6
CONTINUOUS
 62
     6
 10
683.832295
 20
280.656154
 11
683.832295
 21
133.196154
  0
LINE
  8
CSLAYER1
  6
DASHED
 62
     6
 10
676.332295
 20
133.196154
 11
676.332295
 21
145.196154
  0
LINE
  8
CSLAYER1
  6
CONTINUOUS
 62
     6
 10
680.832295
 20
145.196154
 11
659.832295
 21
145.196154
  0
ARC
  8
CSLAYER1
  6
CONTINUOUS
 62
     6
 10
659.832295
 20
143.196154
 40
2.000000
 50
90.000000
 51
180.000000
  0
ARC
  8
CSLAYER1
  6
CONTINUOUS
 62
     6
 10
715.832295
 20
207.696154
 40
80.000000
 50
165.892025
 51
229.000000
  0
ARC
  8
CSLAYER1
  6
CONTINUOUS
 62
     6
 10
715.832295
 20
207.696154
 40
80.000000
 50
113.550000
 51
148.750000
  0
ARC
  8
CSLAYER1
  6
CONTINUOUS
 62
     6
 10
715.832295
 20
207.696154
 40
80.000000
 50
69.634932
 51
110.365068
  0
ARC
  8
CSLAYER1
  6
CONTINUOUS
 62
     6
 10
715.832295
 20
207.696154
 40
80.000000
 50
-49.010000
 51
66.449811
  0
LINE
  8
CSLAYER1
  6
DASHED
 62
     6
 10
766.332295
 20
145.196154
 11
766.332295
 21
133.196154
  0
LINE
  8
CSLAYER1
  6
DASHED
 62
     6
 10
755.332295
 20
133.196154
 11
755.332295
 21
145.196154
  0
ARC
  8
CSLAYER1
  6
CONTINUOUS
 62
     6
 10
750.832295
 20
148.196154
 40
3.000000
 50
180.000000
 51
270.000000
  0
LINE
  8
CSLAYER1
  6
CONTINUOUS
 62
     6
 10
750.832295
 20
145.196154
 11
771.832295
 21
145.196154
  0
ARC
  8
CSLAYER1
  6
CONTINUOUS
 62
     6
 10
771.832295
 20
143.196154
 40
2.000000
 50
0.000000
 51
90.000000
  0
LINE
  8
CSLAYER1
  6
CONTINUOUS
 62
     6
 10
747.832295
 20
133.196154
 11
747.832295
 21
280.656154
  0
LINE
  8
CSLAYER1
  6
CONTINUOUS
 62
     6
 10
745.732295
 20
260.196154
 11
686.072295
 21
260.196154
  0
LINE
  8
CSLAYER1
  6
CONTINUOUS
 62
     6
 10
681.612295
 20
269.336154
 11
670.072295
 21
266.276154
  0
ARC
  8
CSLAYER1
  6
CONTINUOUS
 62
     6
 10
670.832295
 20
263.376154
 40
3.000000
 50
104.870000
 51
180.000000
  0
ARC
  8
CSLAYER1
  6
CONTINUOUS
 62
     6
 10
669.872295
 20
253.656154
 40
10.000000
 50
101.750000
 51
206.500000
  0
LINE
  8
CSLAYER1
  6
CONTINUOUS
 62
     6
 10
665.832295
 20
249.196154
 11
625.832295
 21
249.196154
  0
ARC
  8
CSLAYER1
  6
CONTINUOUS
 62
     6
 10
680.832295
 20
272.236154
 40
3.000000
 50
284.870000
 51
360.000000
  0
ARC
  8
CSLAYER1
  6
CONTINUOUS
 62
     6
 10
750.832295
 20
179.996154
 40
3.000000
 50
284.930000
 51
360.000000
  0
LINE
  8
CSLAYER1
  6
CONTINUOUS
 62
     6
 10
751.612295
 20
177.096154
 11
750.072295
 21
176.676154
  0
ARC
  8
CSLAYER1
  6
CONTINUOUS
 62
     6
 10
750.832295
 20
173.776154
 40
3.000000
 50
104.930000
 51
180.000000
  0
ARC
  8
CSLAYER1
  6
CONTINUOUS
 62
     6
 10
680.832295
 20
148.176154
 40
3.000000
 50
270.000000
 51
360.000000
  0
LINE
  8
CSLAYER1
  6
DASHED
 62
     6
 10
665.332295
 20
145.196154
 11
665.332295
 21
133.196154
  0
LINE
  8
CSLAYER1
  6
CONTINUOUS
 62
     6
 10
547.288462
 20
341.750000
 11
522.788462
 21
341.750000
  0
LINE
  8
CSLAYER1
  6
CONTINUOUS
 62
     6
 10
522.788462
 20
341.750000
 11
522.788462
 21
381.750000
  0
LINE
  8
CSLAYER1
  6
CONTINUOUS
 62
     6
 10
521.288462
 20
381.750000
 11
546.288462
 21
381.750000
  0
LINE
  8
CSLAYER1
  6
CONTINUOUS
 62
     6
 10
546.288462
 20
381.750000
 11
546.288462
 21
383.750000
  0
LINE
  8
CSLAYER1
  6
CONTINUOUS
 62
     6
 10
544.788462
 20
381.750000
 11
544.788462
 21
341.750000
  0
LINE
  8
CSLAYER1
  6
CONTINUOUS
 62
     6
 10
547.288462
 20
341.750000
 11
547.288462
 21
376.750000
  0
LINE
  8
CSLAYER1
  6
CONTINUOUS
 62
     6
 10
547.288462
 20
376.750000
 11
544.788462
 21
376.750000
  0
LINE
  8
CSLAYER1
  6
DOT
 62
     6
 10
544.788462
 20
376.750000
 11
541.288462
 21
376.750000
  0
LINE
  8
CSLAYER1
  6
DOT
 62
     6
 10
541.288462
 20
376.750000
 11
541.288462
 21
341.750000
  0
LINE
  8
CSLAYER1
  6
CONTINUOUS
 62
     6
 10
547.288462
 20
373.750000
 11
579.197436
 21
373.750000
  0
ARC
  8
CSLAYER1
  6
CONTINUOUS
 62
     6
 10
579.197436
 20
375.750000
 40
2.000000
 50
270.000000
 51
347.005383
  0
LINE
  8
CSLAYER1
  6
CONTINUOUS
 62
     6
 10
581.146219
 20
375.300281
 11
586.737244
 21
399.528057
  0
ARC
  8
CSLAYER1
  6
CONTINUOUS
 62
     6
 10
584.788462
 20
399.977776
 40
2.000000
 50
347.005383
 51
360.000000
  0
LINE
  8
CSLAYER1
  6
CONTINUOUS
 62
     6
 10
586.788462
 20
399.977776
 11
586.788462
 21
463.522224
  0
ARC
  8
CSLAYER1
  6
CONTINUOUS
 62
     6
 10
584.788462
 20
463.522224
 40
2.000000
 50
0.000000
 51
12.994617
  0
LINE
  8
CSLAYER1
  6
CONTINUOUS
 62
     6
 10
586.737244
 20
463.971943
 11
581.146219
 21
488.199719
  0
ARC
  8
CSLAYER1
  6
CONTINUOUS
 62
     6
 10
579.197436
 20
487.750000
 40
2.000000
 50
12.994617
 51
90.000000
  0
LINE
  8
CSLAYER1
  6
CONTINUOUS
 62
     6
 10
579.197436
 20
489.750000
 11
488.379487
 21
489.750000
  0
ARC
  8
CSLAYER1
  6
CONTINUOUS
 62
     6
 10
488.379487
 20
487.750000
 40
2.000000
 50
90.000000
 51
167.005383
  0
LINE
  8
CSLAYER1
  6
CONTINUOUS
 62
     6
 10
486.430704
 20
488.199719
 11
480.839679
 21
463.971943
  0
LINE
  8
CSLAYER1
  6
CONTINUOUS
 62
     6
 10
479.048462
 20
463.750000
 11
584.788462
 21
463.750000
  0
ARC
  8
CSLAYER1
  6
CONTINUOUS
 62
     6
 10
584.788462
 20
461.750000
 40
2.000000
 50
0.000000
 51
90.000000
  0
ARC
  8
CSLAYER1
  6
CONTINUOUS
 62
     6
 10
573.468668
 20
466.750000
 40
3.000000
 50
194.940000
 51
270.000000
  0
LINE
  8
CSLAYER1
  6
CONTINUOUS
 62
     6
 10
570.568668
 20
465.970000
 11
570.148668
 21
467.510000
  0
ARC
  8
CSLAYER1
  6
CONTINUOUS
 62
     6
 10
567.248668
 20
466.750000
 40
3.000000
 50
14.940000
 51
90.000000
  0
LINE
  8
CSLAYER1
  6
CONTINUOUS
 62
     6
 10
567.248668
 20
469.750000
 11
563.926139
 21
469.750000
  0
ARC
  8
CSLAYER1
  6
CONTINUOUS
 62
     6
 10
567.828462
 20
466.750000
 40
3.000000
 50
194.870000
 51
270.000000
  0
LINE
  8
CSLAYER1
  6
CONTINUOUS
 62
     6
 10
564.928462
 20
465.970000
 11
561.868462
 21
477.510000
  0
ARC
  8
CSLAYER1
  6
CONTINUOUS
 62
     6
 10
558.968462
 20
476.750000
 40
3.000000
 50
14.870000
 51
90.000000
  0
LINE
  8
CSLAYER1
  6
CONTINUOUS
 62
     6
 10
558.988462
 20
479.750000
 11
508.608462
 21
479.750000
  0
ARC
  8
CSLAYER1
  6
CONTINUOUS
 62
     6
 10
508.608462
 20
476.750000
 40
3.000000
 50
90.000000
 51
165.130000
  0
LINE
  8
CSLAYER1
  6
CONTINUOUS
 62
     6
 10
505.708462
 20
477.510000
 11
502.648462
 21
465.970000
  0
ARC
  8
CSLAYER1
  6
CONTINUOUS
 62
     6
 10
499.748462
 20
466.750000
 40
3.000000
 50
270.000000
 51
345.130000
  0
LINE
  8
CSLAYER1
  6
CONTINUOUS
 62
     6
 10
497.008255
 20
465.970000
 11
497.428255
 21
467.510000
  0
ARC
  8
CSLAYER1
  6
CONTINUOUS
 62
     6
 10
500.328255
 20
466.750000
 40
3.000000
 50
90.000000
 51
165.060000
  0
LINE
  8
CSLAYER1
  6
CONTINUOUS
 62
     6
 10
500.328255
 20
469.750000
 11
503.650784
 21
469.750000
  0
ARC
  8
CSLAYER1
  6
CONTINUOUS
 62
     6
 10
494.108255
 20
466.750000
 40
3.000000
 50
270.000000
 51
345.060000
  0
ARC
  8
CSLAYER1
  6
CONTINUOUS
 62
     6
 10
482.788462
 20
461.750000
 40
2.000000
 50
90.000000
 51
180.000000
  0
LINE
  8
CSLAYER1
  6
CONTINUOUS
 62
     6
 10
480.788462
 20
461.750000
 11
480.788462
 21
401.750000
  0
ARC
  8
CSLAYER1
  6
CONTINUOUS
 62
     6
 10
482.788462
 20
401.750000
 40
2.000000
 50
180.000000
 51
270.000000
  0
LINE
  8
CSLAYER1
  6
CONTINUOUS
 62
     6
 10
480.839679
 20
399.528057
 11
486.430704
 21
375.300281
  0
ARC
  8
CSLAYER1
  6
CONTINUOUS
 62
     6
 10
488.379487
 20
375.750000
 40
2.000000
 50
192.994617
 51
270.000000
  0
LINE
  8
CSLAYER1
  6
CONTINUOUS
 62
     6
 10
488.379487
 20
373.750000
 11
522.788462
 21
373.750000
  0
LINE
  8
CSLAYER1
  6
CONTINUOUS
 62
     6
 10
518.788462
 20
375.300281
 11
518.788462
 21
383.750000
  0
LINE
  8
CSLAYER1
  6
CONTINUOUS
 62
     6
 10
521.288462
 20
383.750000
 11
521.288462
 21
381.750000
  0
LINE
  8
CSLAYER1
  6
CONTINUOUS
 62
     6
 10
508.608462
 20
383.750000
 11
558.988462
 21
383.750000
  0
ARC
  8
CSLAYER1
  6
CONTINUOUS
 62
     6
 10
558.968462
 20
386.750000
 40
3.000000
 50
270.000000
 51
345.130000
  0
LINE
  8
CSLAYER1
  6
CONTINUOUS
 62
     6
 10
561.868462
 20
385.990000
 11
564.928462
 21
397.530000
  0
ARC
  8
CSLAYER1
  6
CONTINUOUS
 62
     6
 10
567.828462
 20
396.750000
 40
3.000000
 50
90.000000
 51
165.130000
  0
LINE
  8
CSLAYER1
  6
CONTINUOUS
 62
     6
 10
570.568668
 20
397.530000
 11
570.148668
 21
395.990000
  0
ARC
  8
CSLAYER1
  6
CONTINUOUS
 62
     6
 10
567.248668
 20
396.750000
 40
3.000000
 50
270.000000
 51
345.060000
  0
LINE
  8
CSLAYER1
  6
CONTINUOUS
 62
     6
 10
567.248668
 20
393.750000
 11
563.926139
 21
393.750000
  0
ARC
  8
CSLAYER1
  6
CONTINUOUS
 62
     6
 10
573.468668
 20
396.750000
 40
3.000000
 50
90.000000
 51
165.060000
  0
LINE
  8
CSLAYER1
  6
CONTINUOUS
 62
     6
 10
584.788462
 20
399.750000
 11
479.048462
 21
399.750000
  0
ARC
  8
CSLAYER1
  6
CONTINUOUS
 62
     6
 10
479.048462
 20
397.750000
 40
2.000000
 50
90.000000
 51
180.000000
  0
LINE
  8
CSLAYER1
  6
CONTINUOUS
 62
     6
 10
476.048462
 20
399.790000
 11
468.788462
 21
399.790000
  0
LINE
  8
CSLAYER1
  6
CONTINUOUS
 62
     6
 10
468.788462
 20
384.250000
 11
476.048462
 21
384.250000
  0
LINE
  8
CSLAYER1
  6
CONTINUOUS
 62
     6
 10
477.048462
 20
376.250000
 11
477.048462
 21
487.250000
  0
ARC
  8
CSLAYER1
  6
CONTINUOUS
 62
     6
 10
475.048462
 20
487.250000
 40
2.000000
 50
0.000000
 51
90.000000
  0
LINE
  8
CSLAYER1
  6
CONTINUOUS
 62
     6
 10
475.048462
 20
489.250000
 11
468.788462
 21
489.250000
  0
LINE
  8
CSLAYER1
  6
CONTINUOUS
 62
     6
 10
468.788462
 20
489.250000
 11
468.788462
 21
374.250000
  0
LINE
  8
CSLAYER1
  6
CONTINUOUS
 62
     6
 10
468.788462
 20
374.250000
 11
427.168462
 21
373.150000
  0
ARC
  8
CSLAYER1
  6
CONTINUOUS
 62
     6
 10
427.288462
 20
368.150000
 40
5.000000
 50
91.500000
 51
180.000000
  0
ARC
  8
CSLAYER1
  6
CONTINUOUS
 62
     6
 10
427.288462
 20
367.510000
 40
5.000000
 50
91.500000
 51
180.000000
  0
LINE
  8
CSLAYER1
  6
CONTINUOUS
 62
     6
 10
427.168462
 20
372.510000
 11
429.868462
 21
372.590000
  0
ARC
  8
CSLAYER1
  6
CONTINUOUS
 62
     6
 10
429.788462
 20
375.590000
 40
3.000000
 50
271.500000
 51
309.330719
  0
ARC
  8
CSLAYER1
  6
CONTINUOUS
 62
     6
 10
423.288462
 20
380.170000
 40
2.000000
 50
284.480000
 51
360.000000
  0
LINE
  8
CSLAYER1
  6
CONTINUOUS
 62
     6
 10
425.288462
 20
380.170000
 11
425.288462
 21
391.430000
  0
ARC
  8
CSLAYER1
  6
CONTINUOUS
 62
     6
 10
423.288462
 20
391.430000
 40
2.000000
 50
0.000000
 51
75.530000
  0
ARC
  8
CSLAYER1
  6
CONTINUOUS
 62
     6
 10
424.288462
 20
395.310000
 40
2.000000
 50
180.000000
 51
255.530000
  0
ARC
  8
CSLAYER1
  6
CONTINUOUS
 62
     6
 10
427.288462
 20
411.760000
 40
5.000000
 50
90.000000
 51
180.000000
  0
LINE
  8
CSLAYER1
  6
CONTINUOUS
 62
     6
 10
427.288462
 20
416.740000
 11
429.388462
 21
416.740000
  0
ARC
  8
CSLAYER1
  6
CONTINUOUS
 62
     6
 10
429.388462
 20
419.760000
 40
3.000000
 50
270.000000
 51
360.000000
  0
LINE
  8
CSLAYER1
  6
CONTINUOUS
 62
     6
 10
432.388462
 20
419.760000
 11
432.388462
 21
443.740000
  0
ARC
  8
CSLAYER1
  6
CONTINUOUS
 62
     6
 10
429.388462
 20
443.740000
 40
3.000000
 50
0.000000
 51
90.000000
  0
LINE
  8
CSLAYER1
  6
CONTINUOUS
 62
     6
 10
429.388462
 20
446.760000
 11
427.288462
 21
446.760000
  0
ARC
  8
CSLAYER1
  6
CONTINUOUS
 62
     6
 10
427.288462
 20
451.740000
 40
5.000000
 50
180.000000
 51
270.000000
  0
ARC
  8
CSLAYER1
  6
CONTINUOUS
 62
     6
 10
424.288462
 20
468.190000
 40
2.000000
 50
104.470000
 51
180.000000
  0
ARC
  8
CSLAYER1
  6
CONTINUOUS
 62
     6
 10
423.288462
 20
472.070000
 40
2.000000
 50
284.470000
 51
360.000000
  0
LINE
  8
CSLAYER1
  6
CONTINUOUS
 62
     6
 10
425.288462
 20
472.070000
 11
425.288462
 21
483.330000
  0
ARC
  8
CSLAYER1
  6
CONTINUOUS
 62
     6
 10
423.288462
 20
483.330000
 40
2.000000
 50
0.000000
 51
75.520000
  0
ARC
  8
CSLAYER1
  6
CONTINUOUS
 62
     6
 10
424.288462
 20
487.190000
 40
2.000000
 50
180.000000
 51
255.520000
  0
ARC
  8
CSLAYER1
  6
CONTINUOUS
 62
     6
 10
427.288462
 20
495.350000
 40
5.000000
 50
180.000000
 51
268.500000
  0
ARC
  8
CSLAYER1
  6
CONTINUOUS
 62
     6
 10
427.288462
 20
495.990000
 40
5.000000
 50
180.000000
 51
268.500000
  0
LINE
  8
CSLAYER1
  6
CONTINUOUS
 62
     6
 10
427.168462
 20
490.990000
 11
429.868462
 21
490.910000
  0
ARC
  8
CSLAYER1
  6
CONTINUOUS
 62
     6
 10
429.788462
 20
487.910000
 40
3.000000
 50
50.669281
 51
88.500000
  0
LINE
  8
CSLAYER1
  6
CONTINUOUS
 62
     6
 10
427.168462
 20
490.350000
 11
468.788462
 21
489.250000
  0
LINE
  8
CSLAYER1
  6
CONTINUOUS
 62
     6
 10
468.788462
 20
479.250000
 11
476.048462
 21
479.250000
  0
ARC
  8
CSLAYER1
  6
CONTINUOUS
 62
     6
 10
479.048462
 20
465.750000
 40
2.000000
 50
180.000000
 51
270.000000
  0
LINE
  8
CSLAYER1
  6
CONTINUOUS
 62
     6
 10
475.908462
 20
463.690000
 11
468.788462
 21
463.690000
  0
CIRCLE
  8
CSLAYER1
  6
CONTINUOUS
 62
     6
 10
498.788462
 20
476.750000
 40
5.500000
  0
LINE
  8
CSLAYER1
  6
CONTINUOUS
 62
     6
 10
518.788462
 20
479.750000
 11
518.788462
 21
488.199719
  0
LINE
  8
CSLAYER1
  6
CONTINUOUS
 62
     6
 10
513.713360
 20
461.750000
 11
513.713360
 21
401.750000
  0
LINE
  8
CSLAYER1
  6
CONTINUOUS
 62
     6
 10
502.648462
 20
397.530000
 11
505.708462
 21
385.990000
  0
ARC
  8
CSLAYER1
  6
CONTINUOUS
 62
     6
 10
508.608462
 20
386.750000
 40
3.000000
 50
194.870000
 51
270.000000
  0
CIRCLE
  8
CSLAYER1
  6
CONTINUOUS
 62
     6
 10
498.788462
 20
386.750000
 40
5.500000
  0
ARC
  8
CSLAYER1
  6
CONTINUOUS
 62
     6
 10
500.328255
 20
396.750000
 40
3.000000
 50
194.940000
 51
270.000000
  0
LINE
  8
CSLAYER1
  6
CONTINUOUS
 62
     6
 10
497.428255
 20
395.990000
 11
497.008255
 21
397.530000
  0
ARC
  8
CSLAYER1
  6
CONTINUOUS
 62
     6
 10
494.108255
 20
396.750000
 40
3.000000
 50
14.940000
 51
90.000000
  0
ARC
  8
CSLAYER1
  6
CONTINUOUS
 62
     6
 10
499.748462
 20
396.750000
 40
3.000000
 50
14.870000
 51
90.000000
  0
LINE
  8
CSLAYER1
  6
CONTINUOUS
 62
     6
 10
503.650784
 20
393.750000
 11
500.328255
 21
393.750000
  0
ARC
  8
CSLAYER1
  6
CONTINUOUS
 62
     6
 10
475.048462
 20
376.250000
 40
2.000000
 50
270.000000
 51
360.000000
  0
LINE
  8
CSLAYER1
  6
CONTINUOUS
 62
     6
 10
475.048462
 20
374.250000
 11
468.788462
 21
374.250000
  0
ARC
  8
CSLAYER1
  6
CONTINUOUS
 62
     6
 10
424.288462
 20
376.310000
 40
2.000000
 50
104.480000
 51
180.000000
  0
LINE
  8
CSLAYER1
  6
CONTINUOUS
 62
     6
 10
422.288462
 20
354.890000
 11
422.288462
 21
508.610000
  0
ARC
  8
CSLAYER1
  6
CONTINUOUS
 62
     6
 10
419.288462
 20
508.610000
 40
3.000000
 50
0.000000
 51
88.500000
  0
LINE
  8
CSLAYER1
  6
CONTINUOUS
 62
     6
 10
419.368462
 20
511.610000
 11
414.288462
 21
511.750000
  0
LINE
  8
CSLAYER1
  6
CONTINUOUS
 62
     6
 10
414.288462
 20
511.750000
 11
401.288462
 21
511.750000
  0
LINE
  8
CSLAYER1
  6
CONTINUOUS
 62
     6
 10
401.288462
 20
511.750000
 11
401.288462
 21
351.750000
  0
LINE
  8
CSLAYER1
  6
CONTINUOUS
 62
     6
 10
401.288462
 20
351.750000
 11
414.288462
 21
351.750000
  0
LINE
  8
CSLAYER1
  6
CONTINUOUS
 62
     6
 10
414.288462
 20
351.750000
 11
414.288462
 21
511.750000
  0
LINE
  8
CSLAYER1
  6
CONTINUOUS
 62
     6
 10
401.288462
 20
485.411941
 11
399.288462
 21
485.411941
  0
LINE
  8
CSLAYER1
  6
CONTINUOUS
 62
     6
 10
399.288462
 20
485.411941
 11
399.288462
 21
470.011941
  0
LINE
  8
CSLAYER1
  6
CONTINUOUS
 62
     6
 10
399.288462
 20
470.011941
 11
401.288462
 21
470.011941
  0
LINE
  8
CSLAYER1
  6
CONTINUOUS
 62
     6
 10
399.288462
 20
471.211941
 11
393.988462
 21
471.211941
  0
LINE
  8
CSLAYER1
  6
CONTINUOUS
 62
     6
 10
393.988462
 20
471.211941
 11
393.988462
 21
484.211941
  0
LINE
  8
CSLAYER1
  6
CONTINUOUS
 62
     6
 10
393.988462
 20
484.211941
 11
399.288462
 21
484.211941
  0
ARC
  8
CSLAYER1
  6
CONTINUOUS
 62
     6
 10
404.744015
 20
480.961941
 40
10.755553
 50
162.412046
 51
197.587954
  0
ARC
  8
CSLAYER1
  6
CONTINUOUS
 62
     6
 10
404.744015
 20
474.461941
 40
10.755553
 50
162.412046
 51
197.587954
  0
LINE
  8
CSLAYER1
  6
CONTINUOUS
 62
     6
 10
393.988462
 20
476.750000
 11
316.288462
 21
476.750000
  0
LINE
  8
CSLAYER1
  6
CONTINUOUS
 62
     6
 10
316.288462
 20
476.750000
 11
316.288462
 21
386.750000
  0
LINE
  8
CSLAYER1
  6
CONTINUOUS
 62
     6
 10
316.288462
 20
386.750000
 11
393.988462
 21
386.750000
  0
ARC
  8
CSLAYER1
  6
CONTINUOUS
 62
     6
 10
404.744015
 20
389.038059
 40
10.755553
 50
162.412046
 51
197.587954
  0
LINE
  8
CSLAYER1
  6
CONTINUOUS
 62
     6
 10
393.988462
 20
392.288059
 11
399.288462
 21
392.288059
  0
LINE
  8
CSLAYER1
  6
CONTINUOUS
 62
     6
 10
399.288462
 20
393.488059
 11
399.288462
 21
378.088059
  0
LINE
  8
CSLAYER1
  6
CONTINUOUS
 62
     6
 10
399.288462
 20
378.088059
 11
401.288462
 21
378.088059
  0
LINE
  8
CSLAYER1
  6
CONTINUOUS
 62
     6
 10
399.288462
 20
379.288059
 11
393.988462
 21
379.288059
  0
LINE
  8
CSLAYER1
  6
CONTINUOUS
 62
     6
 10
393.988462
 20
379.288059
 11
393.988462
 21
392.288059
  0
LINE
  8
CSLAYER1
  6
CONTINUOUS
 62
     6
 10
399.288462
 20
393.488059
 11
401.288462
 21
393.488059
  0
LINE
  8
CSLAYER1
  6
CONTINUOUS
 62
     6
 10
401.288462
 20
387.020059
 11
399.288462
 21
386.404059
  0
LINE
  8
CSLAYER1
  6
CONTINUOUS
 62
     6
 10
399.288462
 20
385.788059
 11
394.491238
 21
385.788059
  0
ARC
  8
CSLAYER1
  6
CONTINUOUS
 62
     6
 10
404.744015
 20
382.538059
 40
10.755553
 50
162.412046
 51
197.587954
  0
LINE
  8
CSLAYER1
  6
CONTINUOUS
 62
     6
 10
399.288462
 20
384.556059
 11
401.288462
 21
385.172059
  0
LINE
  8
CSLAYER1
  6
CONTINUOUS
 62
     6
 10
414.288462
 20
351.750000
 11
419.368462
 21
351.890000
  0
ARC
  8
CSLAYER1
  6
CONTINUOUS
 62
     6
 10
419.288462
 20
354.890000
 40
3.000000
 50
271.500000
 51
360.000000
  0
ARC
  8
CSLAYER1
  6
CONTINUOUS
 62
     6
 10
435.148462
 20
418.060000
 40
3.000000
 50
91.500000
 51
163.570000
  0
LINE
  8
CSLAYER1
  6
CONTINUOUS
 62
     6
 10
435.068462
 20
421.060000
 11
458.868462
 21
421.680000
  0
ARC
  8
CSLAYER1
  6
CONTINUOUS
 62
     6
 10
458.788462
 20
424.680000
 40
3.000000
 50
271.500000
 51
360.000000
  0
LINE
  8
CSLAYER1
  6
CONTINUOUS
 62
     6
 10
461.788462
 20
424.680000
 11
461.788462
 21
438.820000
  0
ARC
  8
CSLAYER1
  6
CONTINUOUS
 62
     6
 10
458.788462
 20
438.820000
 40
3.000000
 50
0.000000
 51
88.500000
  0
LINE
  8
CSLAYER1
  6
CONTINUOUS
 62
     6
 10
458.868462
 20
441.820000
 11
435.068462
 21
442.440000
  0
ARC
  8
CSLAYER1
  6
CONTINUOUS
 62
     6
 10
435.148462
 20
445.440000
 40
3.000000
 50
196.430000
 51
268.500000
  0
LINE
  8
CSLAYER1
  6
CONTINUOUS
 62
     6
 10
553.863563
 20
401.750000
 11
553.863563
 21
461.750000
  0
LINE
  8
CSLAYER1
  6
CONTINUOUS
 62
     6
 10
548.788462
 20
479.750000
 11
548.788462
 21
488.199719
  0
CIRCLE
  8
CSLAYER1
  6
CONTINUOUS
 62
     6
 10
568.788462
 20
476.750000
 40
5.500000
  0
ARC
  8
CSLAYER1
  6
CONTINUOUS
 62
     6
 10
584.788462
 20
401.750000
 40
2.000000
 50
270.000000
 51
360.000000
  0
CIRCLE
  8
CSLAYER1
  6
CONTINUOUS
 62
     6
 10
568.788462
 20
386.750000
 40
5.500000
  0
LINE
  8
CSLAYER1
  6
CONTINUOUS
 62
     6
 10
548.788462
 20
383.750000
 11
548.788462
 21
375.300281
  0
LINE
  8
CSLAYER1
  6
CONTINUOUS
 62
     6
 10
401.288462
 20
477.095941
 11
399.288462
 21
476.479941
  0
LINE
  8
CSLAYER1
  6
CONTINUOUS
 62
     6
 10
399.288462
 20
477.711941
 11
394.491238
 21
477.711941
  0
LINE
  8
CSLAYER1
  6
CONTINUOUS
 62
     6
 10
399.288462
 20
478.327941
 11
401.288462
 21
478.943941
  0
LINE
  8
CSLAYER1
  6
CONTINUOUS
 62
     6
 10
316.288462
 20
475.749969
 11
314.813425
 21
475.749969
  0
LINE
  8
CSLAYER1
  6
CONTINUOUS
 62
     6
 10
314.382578
 20
475.854462
 11
315.080210
 21
469.217010
  0
ARC
  8
CSLAYER1
  6
CONTINUOUS
 62
     6
 10
316.074716
 20
469.321503
 40
1.000000
 50
186.000026
 51
270.000001
  0
ARC
  8
CSLAYER1
  6
CONTINUOUS
 62
     6
 10
316.025095
 20
473.793793
 40
1.000000
 50
186.000026
 51
270.000001
  0
LINE
  8
CSLAYER1
  6
CONTINUOUS
 62
     6
 10
315.030527
 20
473.689240
 11
314.382578
 21
479.854462
  0
ARC
  8
CSLAYER1
  6
CONTINUOUS
 62
     6
 10
313.388010
 20
479.749969
 40
1.000000
 50
6.000003
 51
90.000016
  0
LINE
  8
CSLAYER1
  6
CONTINUOUS
 62
     6
 10
313.388010
 20
480.749969
 11
277.188852
 21
480.749969
  0
ARC
  8
CSLAYER1
  6
CONTINUOUS
 62
     6
 10
277.188852
 20
479.749969
 40
1.000000
 50
90.000003
 51
173.999998
  0
LINE
  8
CSLAYER1
  6
CONTINUOUS
 62
     6
 10
276.194345
 20
479.854462
 11
275.546335
 21
473.689240
  0
ARC
  8
CSLAYER1
  6
CONTINUOUS
 62
     6
 10
274.551828
 20
473.793793
 40
1.000000
 50
270.000001
 51
353.999989
  0
LINE
  8
CSLAYER1
  6
CONTINUOUS
 62
     6
 10
275.762888
 20
475.749969
 11
264.288462
 21
475.749969
  0
LINE
  8
CSLAYER1
  6
CONTINUOUS
 62
     6
 10
264.288462
 20
475.749969
 11
263.288462
 21
474.749969
  0
LINE
  8
CSLAYER1
  6
CONTINUOUS
 62
     6
 10
263.288462
 20
474.749969
 11
263.288462
 21
388.749969
  0
LINE
  8
CSLAYER1
  6
CONTINUOUS
 62
     6
 10
263.288462
 20
388.749969
 11
264.288462
 21
387.749969
  0
LINE
  8
CSLAYER1
  6
CONTINUOUS
 62
     6
 10
264.288462
 20
387.749969
 11
275.762888
 21
387.749969
  0
ARC
  8
CSLAYER1
  6
CONTINUOUS
 62
     6
 10
277.188852
 20
387.749969
 40
1.000000
 50
186.000012
 51
270.000001
  0
LINE
  8
CSLAYER1
  6
CONTINUOUS
 62
     6
 10
277.188852
 20
386.749969
 11
313.388010
 21
386.749969
  0
ARC
  8
CSLAYER1
  6
CONTINUOUS
 62
     6
 10
313.388010
 20
387.749969
 40
1.000000
 50
270.000001
 51
354.000017
  0
LINE
  8
CSLAYER1
  6
CONTINUOUS
 62
     6
 10
314.382578
 20
387.645416
 11
315.080210
 21
394.282928
  0
ARC
  8
CSLAYER1
  6
CONTINUOUS
 62
     6
 10
316.074716
 20
394.178375
 40
1.000000
 50
90.000009
 51
173.999984
  0
ARC
  8
CSLAYER1
  6
CONTINUOUS
 62
     6
 10
316.025095
 20
389.706146
 40
1.000000
 50
90.000009
 51
173.999984
  0
LINE
  8
CSLAYER1
  6
CONTINUOUS
 62
     6
 10
315.030527
 20
389.810699
 11
314.382578
 21
383.645416
  0
ARC
  8
CSLAYER1
  6
CONTINUOUS
 62
     6
 10
313.388010
 20
383.749969
 40
1.000000
 50
270.000001
 51
354.000017
  0
LINE
  8
CSLAYER1
  6
CONTINUOUS
 62
     6
 10
313.388010
 20
382.749969
 11
277.188852
 21
382.749969
  0
ARC
  8
CSLAYER1
  6
CONTINUOUS
 62
     6
 10
277.188852
 20
383.749969
 40
1.000000
 50
186.000012
 51
270.000001
  0
LINE
  8
CSLAYER1
  6
CONTINUOUS
 62
     6
 10
276.194345
 20
383.645416
 11
275.546335
 21
389.810699
  0
ARC
  8
CSLAYER1
  6
CONTINUOUS
 62
     6
 10
274.551828
 20
389.706146
 40
1.000000
 50
6.000021
 51
90.000009
  0
LINE
  8
CSLAYER1
  6
CONTINUOUS
 62
     6
 10
276.194345
 20
387.645416
 11
275.496713
 21
394.282928
  0
ARC
  8
CSLAYER1
  6
CONTINUOUS
 62
     6
 10
274.502146
 20
394.178375
 40
1.000000
 50
6.000021
 51
90.000009
  0
LINE
  8
CSLAYER1
  6
CONTINUOUS
 62
     6
 10
278.974436
 20
395.356781
 11
310.931528
 21
395.356781
  0
LINE
  8
CSLAYER1
  6
CONTINUOUS
 62
     6
 10
314.813425
 20
387.749969
 11
316.288462
 21
387.749969
  0
LINE
  8
CSLAYER1
  6
CONTINUOUS
 62
     6
 10
264.288462
 20
387.749969
 11
264.288462
 21
475.749969
  0
ARC
  8
CSLAYER1
  6
CONTINUOUS
 62
     6
 10
277.188852
 20
475.749969
 40
1.000000
 50
90.000003
 51
173.999998
  0
LINE
  8
CSLAYER1
  6
CONTINUOUS
 62
     6
 10
277.188852
 20
476.749969
 11
313.388010
 21
476.749969
  0
ARC
  8
CSLAYER1
  6
CONTINUOUS
 62
     6
 10
313.388010
 20
475.749969
 40
1.000000
 50
6.000003
 51
90.000016
  0
LINE
  8
CSLAYER1
  6
CONTINUOUS
 62
     6
 10
310.931528
 20
468.143158
 11
278.974436
 21
468.143158
  0
LINE
  8
CSLAYER1
  6
CONTINUOUS
 62
     6
 10
275.496713
 20
469.217010
 11
276.194345
 21
475.854462
  0
ARC
  8
CSLAYER1
  6
CONTINUOUS
 62
     6
 10
274.502146
 20
469.321503
 40
1.000000
 50
270.000001
 51
353.999989
  0
LINE
  8
CSLAYER1
  6
CONTINUOUS
 62
     6
 10
169.328462
 20
282.656154
 11
167.128505
 21
282.695700
  0
ARC
  8
CSLAYER1
  6
CONTINUOUS
 62
     6
 10
169.288462
 20
280.656154
 40
2.000000
 50
10.860436
 51
89.000000
  0
ARC
  8
CSLAYER1
  6
CONTINUOUS
 62
     6
 10
151.288462
 20
237.696154
 40
2.000000
 50
0.000000
 51
89.999981
  0
LINE
  8
CSLAYER1
  6
CONTINUOUS
 62
     6
 10
153.288462
 20
237.696154
 11
153.288462
 21
227.317584
  0
ARC
  8
CSLAYER1
  6
CONTINUOUS
 62
     6
 10
151.288462
 20
227.317584
 40
2.000000
 50
238.551150
 51
359.942687
  0
ARC
  8
CSLAYER1
  6
CONTINUOUS
 62
     6
 10
139.288462
 20
207.696185
 40
20.999992
 50
58.550958
 51
72.281032
  0
ARC
  8
CSLAYER1
  6
CONTINUOUS
 62
     6
 10
146.288462
 20
229.605090
 40
2.000000
 50
180.000020
 51
252.281281
  0
LINE
  8
CSLAYER1
  6
CONTINUOUS
 62
     6
 10
144.288462
 20
229.605090
 11
144.288462
 21
237.696154
  0
ARC
  8
CSLAYER1
  6
CONTINUOUS
 62
     6
 10
146.288462
 20
237.696154
 40
2.000000
 50
89.999981
 51
180.000020
  0
LINE
  8
CSLAYER1
  6
CONTINUOUS
 62
     6
 10
146.288462
 20
239.696154
 11
151.288462
 21
239.696154
  0
ARC
  8
CSLAYER1
  6
CONTINUOUS
 62
     6
 10
132.288462
 20
237.696154
 40
2.000000
 50
0.000000
 51
90.000039
  0
LINE
  8
CSLAYER1
  6
CONTINUOUS
 62
     6
 10
132.288462
 20
239.696154
 11
127.288462
 21
239.696154
  0
ARC
  8
CSLAYER1
  6
CONTINUOUS
 62
     6
 10
127.288462
 20
237.696154
 40
2.000000
 50
90.000039
 51
180.000020
  0
LINE
  8
CSLAYER1
  6
CONTINUOUS
 62
     6
 10
125.288462
 20
237.696154
 11
125.288462
 21
227.317584
  0
ARC
  8
CSLAYER1
  6
CONTINUOUS
 62
     6
 10
127.288462
 20
227.317584
 40
2.000000
 50
180.000020
 51
301.448852
  0
ARC
  8
CSLAYER1
  6
CONTINUOUS
 62
     6
 10
139.288462
 20
207.696185
 40
20.999992
 50
107.718930
 51
121.449062
  0
ARC
  8
CSLAYER1
  6
CONTINUOUS
 62
     6
 10
132.288462
 20
229.605090
 40
2.000000
 50
287.718778
 51
359.942687
  0
LINE
  8
CSLAYER1
  6
CONTINUOUS
 62
     6
 10
134.288462
 20
229.605090
 11
134.288462
 21
237.696154
  0
LINE
  8
CSLAYER1
  6
CONTINUOUS
 62
     6
 10
118.288462
 20
234.078021
 11
118.288477
 21
220.696154
  0
ARC
  8
CSLAYER1
  6
CONTINUOUS
 62
     6
 10
115.288477
 20
220.696154
 40
3.000000
 50
270.000001
 51
359.942687
  0
LINE
  8
CSLAYER1
  6
CONTINUOUS
 62
     6
 10
115.288477
 20
217.696154
 11
109.288477
 21
217.696154
  0
ARC
  8
CSLAYER1
  6
CONTINUOUS
 62
     6
 10
109.288477
 20
219.696154
 40
2.000000
 50
180.000134
 51
270.000001
  0
LINE
  8
CSLAYER1
  6
CONTINUOUS
 62
     6
 10
107.288477
 20
219.696154
 11
107.288462
 21
225.723956
  0
ARC
  8
CSLAYER1
  6
CONTINUOUS
 62
     6
 10
109.288462
 20
225.723956
 40
2.000000
 50
148.997331
 51
180.000020
  0
ARC
  8
CSLAYER1
  6
CONTINUOUS
 62
     6
 10
139.288462
 20
207.696185
 40
37.000008
 50
131.082316
 51
148.997274
  0
ARC
  8
CSLAYER1
  6
CONTINUOUS
 62
     6
 10
116.288462
 20
234.078021
 40
2.000000
 50
0.000000
 51
131.082258
  0
ARC
  8
CSLAYER1
  6
CONTINUOUS
 62
     6
 10
139.288462
 20
207.696185
 40
45.000000
 50
149.814348
 51
154.449374
  0
LINE
  8
CSLAYER1
  6
CONTINUOUS
 62
     6
 10
93.326521
 20
246.152541
 11
99.826521
 21
249.905318
  0
LINE
  8
CSLAYER1
  6
CONTINUOUS
 62
     6
 10
99.826521
 20
249.905318
 11
99.826521
 21
257.410871
  0
LINE
  8
CSLAYER1
  6
CONTINUOUS
 62
     6
 10
99.826521
 20
257.410871
 11
93.326521
 21
261.163648
  0
LINE
  8
CSLAYER1
  6
CONTINUOUS
 62
     6
 10
93.326521
 20
261.163648
 11
86.826521
 21
257.410871
  0
LINE
  8
CSLAYER1
  6
CONTINUOUS
 62
     6
 10
86.826521
 20
257.410871
 11
86.826521
 21
249.905318
  0
LINE
  8
CSLAYER1
  6
CONTINUOUS
 62
     6
 10
86.826521
 20
249.905318
 11
93.326521
 21
246.152541
  0
CIRCLE
  8
CSLAYER1
  6
CONTINUOUS
 62
     6
 10
93.326521
 20
253.658095
 40
7.700000
  0
CIRCLE
  8
CSLAYER1
  6
CONTINUOUS
 62
     6
 10
93.326521
 20
253.658095
 40
6.305000
  0
ARC
  8
CSLAYER1
  6
CONTINUOUS
 62
     6
 10
109.288462
 20
280.656154
 40
2.000000
 50
91.000000
 51
169.139564
  0
LINE
  8
CSLAYER1
  6
CONTINUOUS
 62
     6
 10
109.248462
 20
282.656154
 11
111.448418
 21
282.695700
  0
CIRCLE
  8
CSLAYER1
  6
CONTINUOUS
 62
     6
 10
139.288462
 20
207.696185
 40
15.000000
  0
CIRCLE
  8
CSLAYER1
  6
CONTINUOUS
 62
     6
 10
139.288462
 20
207.696185
 40
44.000000
  0
CIRCLE
  8
CSLAYER1
  6
CONTINUOUS
 62
     6
 10
132.796333
 20
196.419418
 40
1.363635
  0
LINE
  8
CSLAYER1
  6
CONTINUOUS
 62
     6
 10
171.288462
 20
133.196154
 11
171.288462
 21
139.696154
  0
LINE
  8
CSLAYER1
  6
CONTINUOUS
 62
     6
 10
107.288462
 20
133.196154
 11
107.288462
 21
139.696154
  0
ENDSEC
  0
EOF
