  0
SECTION
  2
HEADER
  9
$ACADVER
  1
AC1006
  9
$INSBASE
 10
0.000000
 20
0.000000
 30
0.0
  9
$EXTMIN
 10
0.000000
 20
0.000000
  9
$EXTMAX
 10
841.000000
 20
594.000000
  9
$LIMMIN
 10
0.000000
 20
0.000000
  9
$LIMMAX
 10
841.000000
 20
594.000000
  9
$VIEWCTR
 10
420.500000
 20
297.000000
  9
$VIEWSIZE
 40
594.000000
  9
$SNAPMODE
 70
     0
  9
$SNAPUNIT
 10
1.0
 20
1.0
  9
$SNAPBASE
 10
0.0
 20
0.0
  9
$SNAPANG
 50
0.0
  9
$SNAPSTYLE
 70
     0
  9
$SNAPISOPAIR
 70
     0
  9
$GRIDMODE
 70
     0
  9
$GRIDUNIT
 10
0.0
 20
0.0
  9
$ORTHOMODE
 70
     0
  9
$REGENMODE
 70
     1
  9
$FILLMODE
 70
     1
  9
$QTEXTMODE
 70
     0
  9
$DRAGMODE
 70
     2
  9
$LTSCALE
 40
15.000000
  9
$OSMODE
 70
     0
  9
$ATTMODE
 70
     1
  9
$TEXTSIZE
 40
0.2
  9
$TRACEWID
 40
0.05
  9
$TEXTSTYLE
  7
STANDARD
  9
$CLAYER
  8
CSLAYER1
  9
$CELTYPE
  6
BYLAYER
  9
$CECOLOR
 62
   256
  9
$DIMSCALE
 40
1.0
  9
$DIMASZ
 40
0.18
  9
$DIMEXO
 40
0.0625
  9
$DIMDLI
 40
0.38
  9
$DIMRND
 40
0.0
  9
$DIMDLE
 40
0.0
  9
$DIMEXE
 40
0.18
  9
$DIMTP
 40
0.0
  9
$DIMTM
 40
0.0
  9
$DIMTXT
 40
0.18
  9
$DIMCEN
 40
0.09
  9
$DIMTSZ
 40
0.0
  9
$DIMTOL
 70
     0
  9
$DIMLIM
 70
     0
  9
$DIMTIH
 70
     1
  9
$DIMTOH
 70
     1
  9
$DIMSE1
 70
     0
  9
$DIMSE2
 70
     0
  9
$DIMTAD
 70
     0
  9
$DIMZIN
 70
     0
  9
$DIMBLK
  1

  9
$LUNITS
 70
     2
  9
$LUPREC
 70
     4
  9
$AXISMODE
 70
     0
  9
$AXISUNIT
 10
0.0
 20
0.0
  9
$SKETCHINC
 40
0.1
  9
$FILLETRAD
 40
0.0
  9
$AUNITS
 70
     0
  9
$AUPREC
 70
     0
  9
$MENU
  1
ACAD
  9
$ELEVATION
 40
0.0
  9
$THICKNESS
 40
0.0
  9
$VIEWDIR
 10
0.0
 20
0.0
 30
1.0
  9
$LIMCHECK
 70
     0
  9
$BLIPMODE
 70
     1
  9
$CHAMFERA
 40
0.0
  9
$CHAMFERB
 40
0.0
  9
$FASTZOOM
 70
     1
  9
$SKPOLY
 70
     0
  9
$TDCREATE
 40
0.000000
  9
$TDUPDATE
 40
0.000000
  9
$TDINDWG
 40
0.0
  9
$TDUSRTIMER
 40
0.0
  9
$USRTIMER
 70
     1
  9
$ANGBASE
 50
0.0
  9
$ANGDIR
 70
     0
  9
$PDMODE
 70
     0
  9
$PDSIZE
 40
0.0
  9
$PLINEWID
 40
0.0
  9
$COORDS
 70
     0
  9
$USERI1
 70
     0
  9
$USERI2
 70
     0
  9
$USERI3
 70
     0
  9
$USERI4
 70
     0
  9
$USERI5
 70
     0
  9
$USERR1
 40
0.0
  9
$USERR2
 40
0.0
  9
$USERR3
 40
0.0
  9
$USERR4
 40
0.0
  9
$USERR5
 40
0.0
  0
ENDSEC
  0
SECTION
  2
TABLES
  0
TABLE
  2
LTYPE
 70
     9
  0
LTYPE
  2
CONTINUOUS
 70
    64
  3
Solid line
 72
    65
 73
     0
 40
0.0
  0
LTYPE
  2
DASHED
 70
    64
  3
__ __ __ __ __ __ __ __ __ __ __ __ __ __ __
 72
    65
 73
     2
 40
0.75
 49
0.5
 49
-0.25
  0
LTYPE
  2
HIDDEN
 70
    64
  3
_ _ _ _ _ _ _ _ _ _ _ _ _ _ _ _ _ _ _ _ _ _ _
 72
    65
 73
     2
 40
0.375
 49
0.25
 49
-0.125
  0
LTYPE
  2
DOT
 70
    64
  3
...............................................
 72
    65
 73
     2
 40
0.25
 49
0.0
 49
-0.25
  0
LTYPE
  2
DASHDOT
 70
    64
  3
__ . __ . __ . __ . __ . __ . __ . __ . __ . __
 72
    65
 73
     4
 40
1.0
 49
0.5
 49
-0.25
 49
0.0
 49
-0.25
  0
LTYPE
  2
DIVIDE
 70
    64
  3
__ . . __ . . __ . . __ . . __ . . __ . . __
 72
    65
 73
     6
 40
1.25
 49
0.5
 49
-0.25
 49
0.0
 49
-0.25
 49
0.0
 49
-0.25
  0
LTYPE
  2
CENTER
 70
    64
  3
____ _ ____ _ ____ _ ____ _ ____ _ ____ _ ____ 
 72
    65
 73
     4
 40
2.0
 49
1.25
 49
-0.25
 49
0.25
 49
-0.25
  0
LTYPE
  2
PHANTOM
 70
    64
  3
______  __  __  ______  __  __  ______  __  __ 
 72
    65
 73
     6
 40
2.5
 49
1.25
 49
-0.25
 49
0.25
 49
-0.25
 49
0.25
 49
-0.25
  0
LTYPE
  2
BORDER
 70
    64
  3
__ __ . __ __ . __ __ . __ __ . __ __ . __ __ .
 72
    65
 73
     6
 40
1.75
 49
0.5
 49
-0.25
 49
0.5
 49
-0.25
 49
0.0
 49
-0.25
  0
ENDTAB
  0
TABLE
  2
LAYER
 70
    16
  0
LAYER
  2
CSLAYER1
 70
    64
 62
     7
  6
CONTINUOUS
  0
LAYER
  2
CSLAYER2
 70
    64
 62
     7
  6
CONTINUOUS
  0
LAYER
  2
CSLAYER3
 70
    64
 62
     7
  6
CONTINUOUS
  0
LAYER
  2
CSLAYER4
 70
    64
 62
     7
  6
CONTINUOUS
  0
LAYER
  2
CSLAYER5
 70
    64
 62
     7
  6
CONTINUOUS
  0
LAYER
  2
CSLAYER6
 70
    64
 62
     7
  6
CONTINUOUS
  0
LAYER
  2
CSLAYER7
 70
    64
 62
     7
  6
CONTINUOUS
  0
LAYER
  2
CSLAYER8
 70
    64
 62
     7
  6
CONTINUOUS
  0
LAYER
  2
CSLAYER9
 70
    64
 62
     7
  6
CONTINUOUS
  0
LAYER
  2
CSLAYER10
 70
    64
 62
     7
  6
CONTINUOUS
  0
LAYER
  2
CSLAYER11
 70
    64
 62
     7
  6
CONTINUOUS
  0
LAYER
  2
CSLAYER12
 70
    64
 62
     7
  6
CONTINUOUS
  0
LAYER
  2
CSLAYER13
 70
    64
 62
     7
  6
CONTINUOUS
  0
LAYER
  2
CSLAYER14
 70
    64
 62
     7
  6
CONTINUOUS
  0
LAYER
  2
CSLAYER15
 70
    64
 62
     7
  6
CONTINUOUS
  0
LAYER
  2
CSLAYER16
 70
    64
 62
     7
  6
CONTINUOUS
  0
ENDTAB
  0
TABLE
  2
STYLE
 70
     1
  0
STYLE
  2
JX_FONT
 70
     0
 40
1.0
 41
1.0
 50
0.0
 71
     0
 42
1.0
  3
monotxt
  4
bigfont
  0
ENDTAB
  0
TABLE
  2
VIEW
 70
     0
  0
ENDTAB
  0
ENDSEC
  0
SECTION
  2
BLOCKS
  0
ENDSEC
  0
SECTION
  2
ENTITIES
  0
LINE
  8
CSLAYER1
  6
CENTER
 62
     3
 10
87.159883
 20
211.502757
 11
87.159883
 21
240.145614
  0
LINE
  8
CSLAYER1
  6
CENTER
 62
     3
 10
95.591341
 20
248.934215
 11
115.743884
 21
269.086758
  0
CIRCLE
  8
CSLAYER1
  6
CONTINUOUS
 62
     3
 10
105.490836
 20
258.833710
 40
4.000000
  0
ARC
  8
CSLAYER1
  6
CENTER
 62
     3
 10
152.159883
 20
305.502757
 40
66.000000
 50
213.709850
 51
236.290208
  0
LINE
  8
CSLAYER1
  6
CENTER
 62
     3
 10
152.159883
 20
225.502757
 11
152.159883
 21
384.502757
  0
ARC
  8
CSLAYER1
  6
CENTER
 62
     3
 10
152.159883
 20
305.502757
 40
66.000000
 50
123.709792
 51
146.290150
  0
CIRCLE
  8
CSLAYER1
  6
CONTINUOUS
 62
     3
 10
105.490836
 20
352.171805
 40
4.000000
  0
LINE
  8
CSLAYER1
  6
CENTER
 62
     3
 10
113.622564
 20
344.040077
 11
95.591341
 21
362.071300
  0
LINE
  8
CSLAYER1
  6
CENTER
 62
     3
 10
73.159883
 20
305.502757
 11
231.159883
 21
305.502757
  0
LINE
  8
CSLAYER1
  6
CENTER
 62
     3
 10
271.489862
 20
305.502757
 11
571.489923
 21
305.502757
  0
LINE
  8
CSLAYER1
  6
CENTER
 62
     3
 10
617.104499
 20
305.502757
 11
777.104499
 21
305.502757
  0
ARC
  8
CSLAYER1
  6
CENTER
 62
     3
 10
697.104499
 20
305.502757
 40
66.000000
 50
33.709850
 51
56.290208
  0
LINE
  8
CSLAYER1
  6
CENTER
 62
     3
 10
733.520498
 20
341.918757
 11
753.673041
 21
362.071300
  0
LINE
  8
CSLAYER1
  6
CENTER
 62
     3
 10
697.104499
 20
385.502757
 11
697.104499
 21
225.502757
  0
ARC
  8
CSLAYER1
  6
CENTER
 62
     3
 10
697.104499
 20
305.502757
 40
66.000000
 50
213.709850
 51
236.290208
  0
LINE
  8
CSLAYER1
  6
CENTER
 62
     3
 10
660.688499
 20
269.086758
 11
640.535956
 21
248.934215
  0
LINE
  8
CSLAYER1
  6
CENTER
 62
     3
 10
632.104499
 20
240.145614
 11
632.104499
 21
211.502757
  0
ARC
  8
CSLAYER1
  6
CENTER
 62
     3
 10
697.104499
 20
305.502757
 40
66.000000
 50
303.709792
 51
326.290150
  0
LINE
  8
CSLAYER1
  6
CENTER
 62
     3
 10
733.520498
 20
269.086758
 11
753.673041
 21
248.934215
  0
LINE
  8
CSLAYER1
  6
CENTER
 62
     3
 10
762.104499
 20
240.145614
 11
762.104499
 21
211.502757
  0
LINE
  8
CSLAYER1
  6
CENTER
 62
     3
 10
658.567179
 20
344.040077
 11
640.535956
 21
362.071300
  0
ARC
  8
CSLAYER1
  6
CENTER
 62
     3
 10
697.104499
 20
305.502757
 40
66.000000
 50
123.709792
 51
146.290150
  0
LINE
  8
CSLAYER1
  6
CENTER
 62
     3
 10
571.489862
 20
485.502757
 11
271.489862
 21
485.502757
  0
LINE
  8
CSLAYER1
  6
CENTER
 62
     3
 10
308.489831
 20
518.840190
 11
308.489831
 21
537.447002
  0
LINE
  8
CSLAYER1
  6
CENTER
 62
     3
 10
364.989862
 20
550.502757
 11
397.989862
 21
550.502757
  0
LINE
  8
CSLAYER1
  6
CENTER
 62
     3
 10
381.489862
 20
534.002757
 11
381.489862
 21
567.002757
  0
ARC
  8
CSLAYER1
  6
CONTINUOUS
 62
     3
 10
391.489862
 20
509.002757
 40
2.000000
 50
0.000000
 51
90.000000
  0
LINE
  8
CSLAYER1
  6
CONTINUOUS
 62
     3
 10
393.489862
 20
509.002757
 11
393.489862
 21
462.002757
  0
ARC
  8
CSLAYER1
  6
CONTINUOUS
 62
     3
 10
391.489862
 20
462.002757
 40
2.000000
 50
270.000000
 51
360.000000
  0
LINE
  8
CSLAYER1
  6
CONTINUOUS
 62
     3
 10
391.489862
 20
460.002757
 11
363.489862
 21
460.002757
  0
ARC
  8
CSLAYER1
  6
CONTINUOUS
 62
     3
 10
363.489862
 20
462.002757
 40
2.000000
 50
180.000000
 51
270.000000
  0
LINE
  8
CSLAYER1
  6
CONTINUOUS
 62
     3
 10
361.489862
 20
462.002757
 11
361.489862
 21
509.002757
  0
ARC
  8
CSLAYER1
  6
CONTINUOUS
 62
     3
 10
363.489862
 20
509.002757
 40
2.000000
 50
90.000000
 51
180.000000
  0
LINE
  8
CSLAYER1
  6
CONTINUOUS
 62
     3
 10
363.489862
 20
511.002757
 11
391.489862
 21
511.002757
  0
LINE
  8
CSLAYER1
  6
CENTER
 62
     3
 10
308.489831
 20
452.053813
 11
308.489831
 21
433.447002
  0
LINE
  8
CSLAYER1
  6
CENTER
 62
     3
 10
364.989862
 20
420.502757
 11
397.989862
 21
420.502757
  0
LINE
  8
CSLAYER1
  6
CENTER
 62
     3
 10
381.489862
 20
404.002757
 11
381.489862
 21
437.002757
  0
LINE
  8
CSLAYER1
  6
CONTINUOUS
 62
     3
 10
393.489831
 20
350.502757
 11
393.489831
 21
343.908492
  0
ARC
  8
CSLAYER1
  6
CONTINUOUS
 62
     3
 10
391.489831
 20
343.908492
 40
2.000000
 50
270.000001
 51
359.942691
  0
LINE
  8
CSLAYER1
  6
CONTINUOUS
 62
     3
 10
391.489831
 20
341.908492
 11
363.489831
 21
341.908522
  0
ARC
  8
CSLAYER1
  6
CONTINUOUS
 62
     3
 10
363.489831
 20
343.908522
 40
2.000000
 50
180.000005
 51
270.000001
  0
LINE
  8
CSLAYER1
  6
CONTINUOUS
 62
     3
 10
361.489831
 20
343.908522
 11
361.489831
 21
350.502757
  0
LINE
  8
CSLAYER1
  6
CENTER
 62
     3
 10
308.489862
 20
337.502757
 11
308.489862
 21
273.502757
  0
LINE
  8
CSLAYER1
  6
CENTER
 62
     3
 10
303.489862
 20
268.502757
 11
303.489862
 21
257.802745
  0
LINE
  8
CSLAYER1
  6
CENTER
 62
     3
 10
381.489862
 20
240.145614
 11
381.489862
 21
211.502757
  0
LINE
  8
CSLAYER1
  6
CENTER
 62
     3
 10
381.489862
 20
197.002757
 11
381.489862
 21
164.002757
  0
LINE
  8
CSLAYER1
  6
CENTER
 62
     3
 10
364.989862
 20
180.502757
 11
397.989862
 21
180.502757
  0
LINE
  8
CSLAYER1
  6
CONTINUOUS
 62
     3
 10
403.989862
 20
235.502757
 11
477.989862
 21
235.502757
  0
LINE
  8
CSLAYER1
  6
CENTER
 62
     3
 10
475.438535
 20
258.833710
 11
429.317344
 21
258.833710
  0
LINE
  8
CSLAYER1
  6
CENTER
 62
     3
 10
501.489862
 20
240.145614
 11
501.489862
 21
211.502757
  0
LINE
  8
CSLAYER1
  6
CENTER
 62
     3
 10
501.489862
 20
197.002757
 11
501.489862
 21
164.002757
  0
LINE
  8
CSLAYER1
  6
CENTER
 62
     3
 10
517.989862
 20
180.502757
 11
484.989862
 21
180.502757
  0
LINE
  8
CSLAYER1
  6
CENTER
 62
     3
 10
571.489862
 20
115.502757
 11
271.489862
 21
115.502757
  0
LINE
  8
CSLAYER1
  6
CENTER
 62
     3
 10
297.489862
 20
125.252720
 11
297.489862
 21
105.752720
  0
LINE
  8
CSLAYER1
  6
CENTER
 62
     3
 10
297.739868
 20
100.502757
 11
309.239868
 21
100.502757
  0
LINE
  8
CSLAYER1
  6
CENTER
 62
     3
 10
303.489862
 20
94.502757
 11
303.489862
 21
136.502757
  0
LINE
  8
CSLAYER1
  6
CENTER
 62
     3
 10
297.739868
 20
130.502757
 11
309.239868
 21
130.502757
  0
LINE
  8
CSLAYER1
  6
CENTER
 62
     3
 10
308.489862
 20
146.895931
 11
308.489862
 21
169.502742
  0
LINE
  8
CSLAYER1
  6
CENTER
 62
     3
 10
308.489862
 20
84.109554
 11
308.489862
 21
61.502742
  0
LINE
  8
CSLAYER1
  6
CENTER
 62
     3
 10
364.989862
 20
50.502757
 11
397.989862
 21
50.502757
  0
LINE
  8
CSLAYER1
  6
CENTER
 62
     3
 10
381.489862
 20
34.002757
 11
381.489862
 21
67.002757
  0
LINE
  8
CSLAYER1
  6
CENTER
 62
     3
 10
484.989862
 20
50.502757
 11
517.989862
 21
50.502757
  0
LINE
  8
CSLAYER1
  6
CENTER
 62
     3
 10
501.489862
 20
34.002757
 11
501.489862
 21
67.002757
  0
LINE
  8
CSLAYER1
  6
CENTER
 62
     3
 10
475.438535
 20
352.171805
 11
429.317344
 21
352.171805
  0
LINE
  8
CSLAYER1
  6
CENTER
 62
     3
 10
429.317344
 20
438.833710
 11
475.438535
 21
438.833710
  0
LINE
  8
CSLAYER1
  6
CENTER
 62
     3
 10
484.989862
 20
420.502757
 11
517.989862
 21
420.502757
  0
LINE
  8
CSLAYER1
  6
CENTER
 62
     3
 10
501.489862
 20
437.002757
 11
501.489862
 21
404.002757
  0
LINE
  8
CSLAYER1
  6
CENTER
 62
     3
 10
501.489862
 20
534.002757
 11
501.489862
 21
567.002757
  0
LINE
  8
CSLAYER1
  6
CENTER
 62
     3
 10
484.989862
 20
550.502757
 11
517.989862
 21
550.502757
  0
LINE
  8
CSLAYER1
  6
CENTER
 62
     3
 10
475.438535
 20
532.171805
 11
429.317344
 21
532.171805
  0
LINE
  8
CSLAYER1
  6
CENTER
 62
     3
 10
208.728426
 20
362.071300
 11
188.575883
 21
341.918757
  0
CIRCLE
  8
CSLAYER1
  6
CONTINUOUS
 62
     3
 10
198.828931
 20
352.171805
 40
4.000000
  0
ARC
  8
CSLAYER1
  6
CENTER
 62
     3
 10
152.159883
 20
305.502757
 40
66.000000
 50
33.709850
 51
56.290208
  0
LINE
  8
CSLAYER1
  6
CENTER
 62
     3
 10
188.575883
 20
269.086758
 11
208.728426
 21
248.934215
  0
CIRCLE
  8
CSLAYER1
  6
CONTINUOUS
 62
     3
 10
198.828931
 20
258.833710
 40
4.000000
  0
ARC
  8
CSLAYER1
  6
CENTER
 62
     3
 10
152.159883
 20
305.502757
 40
66.000000
 50
303.709792
 51
326.290150
  0
TEXT
  8
CSLAYER1
 62
     3
 10
375.546600
 20
490.752777
 40
3.500000
 41
1.125000
  1
N P
 50
-90.000000
 51
10.000000
  7
JX_FONT
 72
     5
 11
375.546600
 21
480.252777
  0
LINE
  8
CSLAYER1
  6
CONTINUOUS
 62
     6
 10
72.159883
 20
215.502757
 11
122.159883
 21
215.502757
  0
LINE
  8
CSLAYER1
  6
CONTINUOUS
 62
     6
 10
122.159883
 20
215.502757
 11
122.159883
 21
233.584802
  0
ARC
  8
CSLAYER1
  6
CONTINUOUS
 62
     6
 10
120.159883
 20
233.584802
 40
2.000000
 50
0.000000
 51
90.000000
  0
LINE
  8
CSLAYER1
  6
CONTINUOUS
 62
     6
 10
120.159883
 20
235.584802
 11
74.159883
 21
235.584802
  0
ARC
  8
CSLAYER1
  6
CONTINUOUS
 62
     6
 10
74.159883
 20
233.584802
 40
2.000000
 50
90.000000
 51
180.000000
  0
LINE
  8
CSLAYER1
  6
CONTINUOUS
 62
     6
 10
72.159883
 20
235.584802
 11
72.159883
 21
215.502757
  0
LINE
  8
CSLAYER1
  6
DASHED
 62
     6
 10
81.159883
 20
215.502757
 11
81.159883
 21
235.584802
  0
ARC
  8
CSLAYER1
  6
CONTINUOUS
 62
     6
 10
86.554598
 20
239.584802
 40
4.000000
 50
175.095187
 51
270.000000
  0
LINE
  8
CSLAYER1
  6
CONTINUOUS
 62
     6
 10
82.569245
 20
239.926804
 11
88.368267
 21
307.502757
  0
LINE
  8
CSLAYER1
  6
CONTINUOUS
 62
     6
 10
92.838724
 20
310.502757
 11
103.159883
 21
310.502757
  0
LINE
  8
CSLAYER1
  6
CONTINUOUS
 62
     6
 10
103.159883
 20
300.502757
 11
91.439004
 21
300.502757
  0
ARC
  8
CSLAYER1
  6
CONTINUOUS
 62
     6
 10
91.439004
 20
296.502757
 40
4.000000
 50
90.000000
 51
175.095187
  0
LINE
  8
CSLAYER1
  6
CONTINUOUS
 62
     6
 10
103.159883
 20
287.482554
 11
103.159883
 21
323.522960
  0
ARC
  8
CSLAYER1
  6
CONTINUOUS
 62
     6
 10
104.159883
 20
323.522960
 40
1.000000
 50
91.169216
 51
180.000020
  0
LINE
  8
CSLAYER1
  6
CONTINUOUS
 62
     6
 10
104.139467
 20
324.522716
 11
111.719132
 21
324.919909
  0
ARC
  8
CSLAYER1
  6
CONTINUOUS
 62
     6
 10
111.630166
 20
326.617654
 40
1.700075
 50
-87.000310
 51
86.999412
  0
LINE
  8
CSLAYER1
  6
CONTINUOUS
 62
     6
 10
111.719158
 20
328.315398
 11
108.144838
 21
328.502757
  0
ARC
  8
CSLAYER1
  6
CONTINUOUS
 62
     6
 10
108.144838
 20
329.502757
 40
1.000000
 50
180.000020
 51
270.000001
  0
LINE
  8
CSLAYER1
  6
CONTINUOUS
 62
     6
 10
107.159883
 20
329.502757
 11
107.159883
 21
330.502757
  0
ARC
  8
CSLAYER1
  6
CONTINUOUS
 62
     6
 10
108.159883
 20
330.502757
 40
1.000000
 50
90.000039
 51
180.000020
  0
LINE
  8
CSLAYER1
  6
CONTINUOUS
 62
     6
 10
108.159883
 20
331.502757
 11
117.007732
 21
331.966435
  0
ARC
  8
CSLAYER1
  6
CONTINUOUS
 62
     6
 10
152.159883
 20
305.502757
 40
45.000000
 50
35.914392
 51
144.085607
  0
ARC
  8
CSLAYER1
  6
CONTINUOUS
 62
     6
 10
192.582617
 20
333.197569
 40
4.000000
 50
135.000000
 51
199.106002
  0
LINE
  8
CSLAYER1
  6
CONTINUOUS
 62
     6
 10
189.754190
 20
336.025996
 11
195.731215
 21
342.003021
  0
ARC
  8
CSLAYER1
  6
CONTINUOUS
 62
     6
 10
198.559642
 20
339.174594
 40
4.000000
 50
88.813061
 51
135.000000
  0
ARC
  8
CSLAYER1
  6
CONTINUOUS
 62
     6
 10
198.828931
 20
352.171805
 40
9.000000
 50
268.813061
 51
282.381397
  0
ARC
  8
CSLAYER1
  6
CONTINUOUS
 62
     6
 10
201.616368
 20
339.474160
 40
4.000000
 50
34.484970
 51
102.381397
  0
ARC
  8
CSLAYER1
  6
CONTINUOUS
 62
     6
 10
152.159883
 20
305.502757
 40
64.000000
 50
8.626927
 51
34.484970
  0
ARC
  8
CSLAYER1
  6
CONTINUOUS
 62
     6
 10
211.481043
 20
314.502757
 40
4.000000
 50
-90.000000
 51
8.626927
  0
LINE
  8
CSLAYER1
  6
CONTINUOUS
 62
     6
 10
211.481043
 20
310.502757
 11
201.159883
 21
310.502757
  0
LINE
  8
CSLAYER1
  6
CONTINUOUS
 62
     6
 10
201.159883
 20
300.502757
 11
212.880762
 21
300.502757
  0
ARC
  8
CSLAYER1
  6
CONTINUOUS
 62
     6
 10
212.880762
 20
296.502757
 40
4.000000
 50
4.904813
 51
90.000000
  0
ARC
  8
CSLAYER1
  6
CONTINUOUS
 62
     6
 10
215.340993
 20
267.833710
 40
4.000000
 50
-90.000000
 51
4.904813
  0
LINE
  8
CSLAYER1
  6
CONTINUOUS
 62
     6
 10
215.340993
 20
263.833710
 11
208.209762
 21
263.833710
  0
ARC
  8
CSLAYER1
  6
CONTINUOUS
 62
     6
 10
208.209762
 20
267.833710
 40
4.000000
 50
223.813061
 51
270.000000
  0
ARC
  8
CSLAYER1
  6
CONTINUOUS
 62
     6
 10
198.828931
 20
258.833710
 40
9.000000
 50
43.813061
 51
101.420744
  0
ARC
  8
CSLAYER1
  6
CONTINUOUS
 62
     6
 10
196.159883
 20
271.556767
 40
4.000000
 50
180.000000
 51
281.847726
  0
LINE
  8
CSLAYER1
  6
CONTINUOUS
 62
     6
 10
192.159883
 20
279.293135
 11
192.159883
 21
239.584802
  0
ARC
  8
CSLAYER1
  6
CONTINUOUS
 62
     6
 10
196.159883
 20
239.584802
 40
4.000000
 50
180.000000
 51
270.000000
  0
ARC
  8
CSLAYER1
  6
CONTINUOUS
 62
     6
 10
188.777404
 20
236.502757
 40
4.000000
 50
22.659604
 51
90.000000
  0
LINE
  8
CSLAYER1
  6
CONTINUOUS
 62
     6
 10
188.777404
 20
240.502757
 11
115.542363
 21
240.502757
  0
ARC
  8
CSLAYER1
  6
CONTINUOUS
 62
     6
 10
115.542363
 20
236.502757
 40
4.000000
 50
90.000000
 51
157.340396
  0
LINE
  8
CSLAYER1
  6
CONTINUOUS
 62
     6
 10
112.159883
 20
239.584802
 11
112.159883
 21
279.293135
  0
ARC
  8
CSLAYER1
  6
CONTINUOUS
 62
     6
 10
111.630166
 20
284.387861
 40
1.700075
 50
-86.999412
 51
87.000310
  0
LINE
  8
CSLAYER1
  6
CONTINUOUS
 62
     6
 10
111.719132
 20
286.085606
 11
104.139467
 21
286.482798
  0
ARC
  8
CSLAYER1
  6
CONTINUOUS
 62
     6
 10
104.159883
 20
287.482554
 40
1.000000
 50
180.000020
 51
268.830766
  0
ARC
  8
CSLAYER1
  6
CONTINUOUS
 62
     6
 10
108.144838
 20
281.502757
 40
1.000000
 50
90.000039
 51
180.000020
  0
LINE
  8
CSLAYER1
  6
CONTINUOUS
 62
     6
 10
107.159883
 20
281.502757
 11
107.159883
 21
280.502757
  0
ARC
  8
CSLAYER1
  6
CONTINUOUS
 62
     6
 10
108.159883
 20
280.502757
 40
1.000000
 50
180.000020
 51
270.000001
  0
LINE
  8
CSLAYER1
  6
CONTINUOUS
 62
     6
 10
108.159883
 20
279.502757
 11
117.007732
 21
279.039080
  0
ARC
  8
CSLAYER1
  6
CONTINUOUS
 62
     6
 10
152.159883
 20
305.502757
 40
45.000000
 50
215.914393
 51
324.085608
  0
LINE
  8
CSLAYER1
  6
CONTINUOUS
 62
     6
 10
187.312036
 20
279.039080
 11
196.159883
 21
279.502757
  0
ARC
  8
CSLAYER1
  6
CONTINUOUS
 62
     6
 10
196.159883
 20
280.502757
 40
1.000000
 50
270.000019
 51
360.000000
  0
LINE
  8
CSLAYER1
  6
CONTINUOUS
 62
     6
 10
197.159883
 20
280.502757
 11
197.159883
 21
281.502757
  0
ARC
  8
CSLAYER1
  6
CONTINUOUS
 62
     6
 10
196.174928
 20
281.502757
 40
1.000000
 50
0.000018
 51
89.999999
  0
LINE
  8
CSLAYER1
  6
CONTINUOUS
 62
     6
 10
196.174928
 20
282.502757
 11
192.600608
 21
282.690116
  0
ARC
  8
CSLAYER1
  6
CONTINUOUS
 62
     6
 10
192.689601
 20
284.387861
 40
1.700075
 50
92.999690
 51
266.999412
  0
LINE
  8
CSLAYER1
  6
CONTINUOUS
 62
     6
 10
192.600635
 20
286.085606
 11
200.180299
 21
286.482798
  0
ARC
  8
CSLAYER1
  6
CONTINUOUS
 62
     6
 10
200.159883
 20
287.482554
 40
1.000000
 50
271.169236
 51
359.999982
  0
LINE
  8
CSLAYER1
  6
CONTINUOUS
 62
     6
 10
201.159883
 20
287.482554
 11
201.159883
 21
323.522960
  0
ARC
  8
CSLAYER1
  6
CONTINUOUS
 62
     6
 10
200.159883
 20
323.522960
 40
1.000000
 50
0.000000
 51
88.830746
  0
LINE
  8
CSLAYER1
  6
CONTINUOUS
 62
     6
 10
200.180299
 20
324.522716
 11
192.600635
 21
324.919909
  0
ARC
  8
CSLAYER1
  6
CONTINUOUS
 62
     6
 10
192.689601
 20
326.617654
 40
1.700075
 50
93.000588
 51
267.000310
  0
LINE
  8
CSLAYER1
  6
CONTINUOUS
 62
     6
 10
192.600608
 20
328.315398
 11
196.174928
 21
328.502757
  0
ARC
  8
CSLAYER1
  6
CONTINUOUS
 62
     6
 10
196.174928
 20
329.502757
 40
1.000000
 50
270.000001
 51
359.999982
  0
LINE
  8
CSLAYER1
  6
CONTINUOUS
 62
     6
 10
197.159883
 20
329.502757
 11
197.159883
 21
330.502757
  0
ARC
  8
CSLAYER1
  6
CONTINUOUS
 62
     6
 10
196.159883
 20
330.502757
 40
1.000000
 50
0.000000
 51
89.999981
  0
LINE
  8
CSLAYER1
  6
CONTINUOUS
 62
     6
 10
196.159883
 20
331.502757
 11
187.312036
 21
331.966434
  0
ARC
  8
CSLAYER1
  6
CONTINUOUS
 62
     6
 10
152.159883
 20
305.502757
 40
45.000000
 50
25.550580
 51
29.475790
  0
LINE
  8
CSLAYER1
  6
CONTINUOUS
 62
     6
 10
184.159883
 20
324.076933
 11
184.159883
 21
317.502757
  0
ARC
  8
CSLAYER1
  6
CONTINUOUS
 62
     6
 10
182.159883
 20
317.502757
 40
2.000000
 50
270.000000
 51
360.000000
  0
LINE
  8
CSLAYER1
  6
CONTINUOUS
 62
     6
 10
182.159883
 20
315.502757
 11
176.159883
 21
315.502757
  0
ARC
  8
CSLAYER1
  6
CONTINUOUS
 62
     6
 10
176.159883
 20
318.502757
 40
3.000000
 50
180.000000
 51
270.000000
  0
LINE
  8
CSLAYER1
  6
CONTINUOUS
 62
     6
 10
173.159883
 20
318.502757
 11
173.159883
 21
331.884569
  0
ARC
  8
CSLAYER1
  6
CONTINUOUS
 62
     6
 10
175.159883
 20
331.884569
 40
2.000000
 50
48.917667
 51
180.000000
  0
ARC
  8
CSLAYER1
  6
CONTINUOUS
 62
     6
 10
152.159883
 20
305.502757
 40
37.000000
 50
30.132722
 51
48.917667
  0
LINE
  8
CSLAYER1
  6
CONTINUOUS
 62
     6
 10
166.159883
 20
325.124174
 11
166.159883
 21
335.502757
  0
ARC
  8
CSLAYER1
  6
CONTINUOUS
 62
     6
 10
164.159883
 20
335.502757
 40
2.000000
 50
0.000000
 51
90.000000
  0
LINE
  8
CSLAYER1
  6
CONTINUOUS
 62
     6
 10
164.159883
 20
337.502757
 11
159.159883
 21
337.502757
  0
ARC
  8
CSLAYER1
  6
CONTINUOUS
 62
     6
 10
159.159883
 20
335.502757
 40
2.000000
 50
90.000000
 51
180.000000
  0
LINE
  8
CSLAYER1
  6
CONTINUOUS
 62
     6
 10
157.159883
 20
335.502757
 11
157.159883
 21
327.411660
  0
ARC
  8
CSLAYER1
  6
CONTINUOUS
 62
     6
 10
159.159883
 20
327.411660
 40
2.000000
 50
180.000000
 51
252.281068
  0
ARC
  8
CSLAYER1
  6
CONTINUOUS
 62
     6
 10
152.159883
 20
305.502757
 40
21.000000
 50
58.551019
 51
72.281068
  0
ARC
  8
CSLAYER1
  6
CONTINUOUS
 62
     6
 10
164.159883
 20
325.124174
 40
2.000000
 50
238.551019
 51
360.000000
  0
LINE
  8
CSLAYER1
  6
CONTINUOUS
 62
     6
 10
147.159883
 20
327.411660
 11
147.159883
 21
335.502757
  0
ARC
  8
CSLAYER1
  6
CONTINUOUS
 62
     6
 10
145.159883
 20
335.502757
 40
2.000000
 50
0.000000
 51
90.000000
  0
LINE
  8
CSLAYER1
  6
CONTINUOUS
 62
     6
 10
145.159883
 20
337.502757
 11
140.159883
 21
337.502757
  0
ARC
  8
CSLAYER1
  6
CONTINUOUS
 62
     6
 10
140.159883
 20
335.502757
 40
2.000000
 50
90.000000
 51
180.000000
  0
LINE
  8
CSLAYER1
  6
CONTINUOUS
 62
     6
 10
138.159883
 20
335.502757
 11
138.159883
 21
325.124174
  0
ARC
  8
CSLAYER1
  6
CONTINUOUS
 62
     6
 10
140.159883
 20
325.124174
 40
2.000000
 50
180.000000
 51
301.448981
  0
ARC
  8
CSLAYER1
  6
CONTINUOUS
 62
     6
 10
152.159883
 20
305.502757
 40
21.000000
 50
107.718932
 51
121.448981
  0
ARC
  8
CSLAYER1
  6
CONTINUOUS
 62
     6
 10
145.159883
 20
327.411660
 40
2.000000
 50
287.718932
 51
360.000000
  0
ARC
  8
CSLAYER1
  6
CONTINUOUS
 62
     6
 10
129.159883
 20
331.884569
 40
2.000000
 50
0.000000
 51
131.082333
  0
ARC
  8
CSLAYER1
  6
CONTINUOUS
 62
     6
 10
152.159883
 20
305.502757
 40
37.000000
 50
131.082333
 51
149.867278
  0
LINE
  8
CSLAYER1
  6
CONTINUOUS
 62
     6
 10
120.159883
 20
324.076933
 11
120.159883
 21
317.502757
  0
ARC
  8
CSLAYER1
  6
CONTINUOUS
 62
     6
 10
122.159883
 20
317.502757
 40
2.000000
 50
180.000000
 51
270.000000
  0
LINE
  8
CSLAYER1
  6
CONTINUOUS
 62
     6
 10
122.159883
 20
315.502757
 11
128.159883
 21
315.502757
  0
ARC
  8
CSLAYER1
  6
CONTINUOUS
 62
     6
 10
128.159883
 20
318.502757
 40
3.000000
 50
270.000000
 51
360.000000
  0
LINE
  8
CSLAYER1
  6
CONTINUOUS
 62
     6
 10
131.159883
 20
318.502757
 11
131.159883
 21
331.884569
  0
ARC
  8
CSLAYER1
  6
CONTINUOUS
 62
     6
 10
124.465072
 20
345.925491
 40
4.000000
 50
225.000000
 51
304.416197
  0
LINE
  8
CSLAYER1
  6
CONTINUOUS
 62
     6
 10
121.636645
 20
343.097064
 11
115.659619
 21
349.074089
  0
ARC
  8
CSLAYER1
  6
CONTINUOUS
 62
     6
 10
118.488046
 20
351.902516
 40
4.000000
 50
178.813061
 51
225.000000
  0
ARC
  8
CSLAYER1
  6
CONTINUOUS
 62
     6
 10
105.490836
 20
352.171805
 40
9.000000
 50
-1.186939
 51
12.381397
  0
ARC
  8
CSLAYER1
  6
CONTINUOUS
 62
     6
 10
118.188481
 20
354.959242
 40
4.000000
 50
124.484970
 51
192.381397
  0
ARC
  8
CSLAYER1
  6
CONTINUOUS
 62
     6
 10
152.159883
 20
305.502757
 40
64.000000
 50
98.626927
 51
124.484970
  0
ARC
  8
CSLAYER1
  6
CONTINUOUS
 62
     6
 10
143.159883
 20
364.823917
 40
4.000000
 50
0.000000
 51
98.626927
  0
LINE
  8
CSLAYER1
  6
CONTINUOUS
 62
     6
 10
147.159883
 20
364.823917
 11
147.159883
 21
353.669136
  0
ARC
  8
CSLAYER1
  6
CONTINUOUS
 62
     6
 10
143.159883
 20
353.669136
 40
4.000000
 50
280.583803
 51
360.000000
  0
LINE
  8
CSLAYER1
  6
CONTINUOUS
 62
     6
 10
157.159883
 20
353.669136
 11
157.159883
 21
364.823917
  0
ARC
  8
CSLAYER1
  6
CONTINUOUS
 62
     6
 10
161.159883
 20
364.823917
 40
4.000000
 50
81.373073
 51
180.000000
  0
ARC
  8
CSLAYER1
  6
CONTINUOUS
 62
     6
 10
152.159883
 20
305.502757
 40
64.000000
 50
55.515030
 51
81.373073
  0
ARC
  8
CSLAYER1
  6
CONTINUOUS
 62
     6
 10
186.131286
 20
354.959242
 40
4.000000
 50
-12.381397
 51
55.515030
  0
ARC
  8
CSLAYER1
  6
CONTINUOUS
 62
     6
 10
198.828931
 20
352.171805
 40
9.000000
 50
167.618603
 51
181.186939
  0
ARC
  8
CSLAYER1
  6
CONTINUOUS
 62
     6
 10
185.831720
 20
351.902516
 40
4.000000
 50
-45.000000
 51
1.186939
  0
LINE
  8
CSLAYER1
  6
CONTINUOUS
 62
     6
 10
188.660147
 20
349.074089
 11
182.683122
 21
343.097064
  0
ARC
  8
CSLAYER1
  6
CONTINUOUS
 62
     6
 10
179.854695
 20
345.925491
 40
4.000000
 50
235.583803
 51
315.000000
  0
ARC
  8
CSLAYER1
  6
CONTINUOUS
 62
     6
 10
161.159883
 20
353.669136
 40
4.000000
 50
180.000000
 51
259.416197
  0
LINE
  8
CSLAYER1
  6
CONTINUOUS
 62
     6
 10
153.409883
 20
373.252757
 11
153.409883
 21
374.502757
  0
LINE
  8
CSLAYER1
  6
CONTINUOUS
 62
     6
 10
153.409883
 20
374.502757
 11
154.659883
 21
374.502757
  0
LINE
  8
CSLAYER1
  6
CONTINUOUS
 62
     6
 10
154.659883
 20
374.502757
 11
150.909883
 21
375.752757
  0
LINE
  8
CSLAYER1
  6
CONTINUOUS
 62
     6
 10
150.909883
 20
375.752757
 11
150.909883
 21
374.502757
  0
LINE
  8
CSLAYER1
  6
CONTINUOUS
 62
     6
 10
150.909883
 20
374.502757
 11
149.659883
 21
374.502757
  0
LINE
  8
CSLAYER1
  6
CONTINUOUS
 62
     6
 10
149.659883
 20
374.502757
 11
153.409883
 21
373.252757
  0
LINE
  8
CSLAYER1
  6
CONTINUOUS
 62
     6
 10
153.409883
 20
373.352923
 11
153.109388
 21
373.352923
  0
LINE
  8
CSLAYER1
  6
CONTINUOUS
 62
     6
 10
153.409883
 20
373.552923
 11
152.509388
 21
373.552923
  0
LINE
  8
CSLAYER1
  6
CONTINUOUS
 62
     6
 10
151.909388
 20
373.752923
 11
153.409883
 21
373.752923
  0
LINE
  8
CSLAYER1
  6
CONTINUOUS
 62
     6
 10
153.409883
 20
373.952923
 11
151.309388
 21
373.952923
  0
LINE
  8
CSLAYER1
  6
CONTINUOUS
 62
     6
 10
150.709388
 20
374.152923
 11
153.409883
 21
374.152923
  0
LINE
  8
CSLAYER1
  6
CONTINUOUS
 62
     6
 10
153.409883
 20
374.352923
 11
150.109388
 21
374.352923
  0
LINE
  8
CSLAYER1
  6
CONTINUOUS
 62
     6
 10
150.909883
 20
374.552923
 11
154.509388
 21
374.552923
  0
LINE
  8
CSLAYER1
  6
CONTINUOUS
 62
     6
 10
153.909388
 20
374.752923
 11
150.909883
 21
374.752923
  0
LINE
  8
CSLAYER1
  6
CONTINUOUS
 62
     6
 10
150.909883
 20
374.952923
 11
153.309388
 21
374.952923
  0
LINE
  8
CSLAYER1
  6
CONTINUOUS
 62
     6
 10
152.709388
 20
375.152923
 11
150.909883
 21
375.152923
  0
LINE
  8
CSLAYER1
  6
CONTINUOUS
 62
     6
 10
150.909883
 20
375.352923
 11
152.109388
 21
375.352923
  0
LINE
  8
CSLAYER1
  6
CONTINUOUS
 62
     6
 10
151.509388
 20
375.552923
 11
150.909883
 21
375.552923
  0
CIRCLE
  8
CSLAYER1
  6
CONTINUOUS
 62
     6
 10
152.159883
 20
374.502757
 40
2.633333
  0
CIRCLE
  8
CSLAYER1
  6
CONTINUOUS
 62
     6
 10
152.159883
 20
374.502757
 40
2.766667
  0
CIRCLE
  8
CSLAYER1
  6
CONTINUOUS
 62
     6
 10
152.159883
 20
374.502757
 40
2.500000
  0
CIRCLE
  8
CSLAYER1
  6
CONTINUOUS
 62
     6
 10
152.159883
 20
374.502757
 40
2.900000
  0
CIRCLE
  8
CSLAYER1
  6
CONTINUOUS
 62
     6
 10
105.490836
 20
352.171805
 40
3.200000
  0
ARC
  8
CSLAYER1
  6
CONTINUOUS
 62
     6
 10
105.760124
 20
339.174594
 40
4.000000
 50
45.000000
 51
91.186939
  0
LINE
  8
CSLAYER1
  6
CONTINUOUS
 62
     6
 10
108.588551
 20
342.003021
 11
114.565577
 21
336.025996
  0
ARC
  8
CSLAYER1
  6
CONTINUOUS
 62
     6
 10
111.737150
 20
333.197569
 40
4.000000
 50
-19.106002
 51
45.000000
  0
ARC
  8
CSLAYER1
  6
CONTINUOUS
 62
     6
 10
152.159883
 20
305.502757
 40
45.000000
 50
150.524210
 51
154.449420
  0
ARC
  8
CSLAYER1
  6
CONTINUOUS
 62
     6
 10
105.490836
 20
352.171805
 40
9.000000
 50
257.618603
 51
271.186939
  0
ARC
  8
CSLAYER1
  6
CONTINUOUS
 62
     6
 10
102.703399
 20
339.474160
 40
4.000000
 50
77.618603
 51
145.515030
  0
ARC
  8
CSLAYER1
  6
CONTINUOUS
 62
     6
 10
152.159883
 20
305.502757
 40
64.000000
 50
145.515030
 51
171.373073
  0
ARC
  8
CSLAYER1
  6
CONTINUOUS
 62
     6
 10
92.838724
 20
314.502757
 40
4.000000
 50
171.373073
 51
270.000000
  0
LINE
  8
CSLAYER1
  6
CONTINUOUS
 62
     6
 10
78.159883
 20
305.502757
 11
72.159883
 21
235.584802
  0
ARC
  8
CSLAYER1
  6
CONTINUOUS
 62
     6
 10
87.434106
 20
249.833710
 40
4.000000
 50
90.000000
 51
175.095187
  0
LINE
  8
CSLAYER1
  6
CONTINUOUS
 62
     6
 10
87.434106
 20
253.833710
 11
96.110004
 21
253.833710
  0
ARC
  8
CSLAYER1
  6
CONTINUOUS
 62
     6
 10
96.110004
 20
249.833710
 40
4.000000
 50
43.813061
 51
90.000000
  0
ARC
  8
CSLAYER1
  6
CONTINUOUS
 62
     6
 10
105.490836
 20
258.833710
 40
9.000000
 50
223.813061
 51
281.847726
  0
ARC
  8
CSLAYER1
  6
CONTINUOUS
 62
     6
 10
108.159883
 20
246.110653
 40
4.000000
 50
0.000000
 51
101.847726
  0
ARC
  8
CSLAYER1
  6
CONTINUOUS
 62
     6
 10
108.159883
 20
239.584802
 40
4.000000
 50
270.000000
 51
360.000000
  0
LINE
  8
CSLAYER1
  6
DASHED
 62
     6
 10
93.159883
 20
235.584802
 11
93.159883
 21
215.502757
  0
ARC
  8
CSLAYER1
  6
CONTINUOUS
 62
     6
 10
132.159883
 20
220.502757
 40
10.000000
 50
90.000000
 51
180.000000
  0
LINE
  8
CSLAYER1
  6
CONTINUOUS
 62
     6
 10
132.159883
 20
230.502757
 11
172.159883
 21
230.502757
  0
ARC
  8
CSLAYER1
  6
CONTINUOUS
 62
     6
 10
172.159883
 20
220.502757
 40
10.000000
 50
0.000000
 51
90.000000
  0
LINE
  8
CSLAYER1
  6
CONTINUOUS
 62
     6
 10
182.159883
 20
215.502757
 11
232.159883
 21
215.502757
  0
LINE
  8
CSLAYER1
  6
CONTINUOUS
 62
     6
 10
232.159883
 20
215.502757
 11
232.159883
 21
235.584802
  0
LINE
  8
CSLAYER1
  6
CONTINUOUS
 62
     6
 10
232.159883
 20
235.584802
 11
226.159883
 21
305.502757
  0
ARC
  8
CSLAYER1
  6
CONTINUOUS
 62
     6
 10
152.159883
 20
305.502757
 40
74.000000
 50
-0.000000
 51
180.000000
  0
CIRCLE
  8
CSLAYER1
  6
CONTINUOUS
 62
     6
 10
152.159883
 20
305.502757
 40
44.000000
  0
CIRCLE
  8
CSLAYER1
  6
CONTINUOUS
 62
     6
 10
152.159883
 20
305.502757
 40
15.000000
  0
CIRCLE
  8
CSLAYER1
  6
CONTINUOUS
 62
     6
 10
198.828931
 20
352.171805
 40
3.200000
  0
LINE
  8
CSLAYER1
  6
CONTINUOUS
 62
     6
 10
215.951500
 20
307.502757
 11
221.750522
 21
239.926804
  0
ARC
  8
CSLAYER1
  6
CONTINUOUS
 62
     6
 10
217.765169
 20
239.584802
 40
4.000000
 50
-90.000000
 51
4.904813
  0
LINE
  8
CSLAYER1
  6
DASHED
 62
     6
 10
223.159883
 20
235.584802
 11
223.159883
 21
215.502757
  0
LINE
  8
CSLAYER1
  6
DASHED
 62
     6
 10
211.159883
 20
215.502757
 11
211.159883
 21
235.584802
  0
ARC
  8
CSLAYER1
  6
CONTINUOUS
 62
     6
 10
216.885660
 20
249.833710
 40
4.000000
 50
4.904813
 51
90.000000
  0
LINE
  8
CSLAYER1
  6
CONTINUOUS
 62
     6
 10
216.885660
 20
253.833710
 11
208.209762
 21
253.833710
  0
ARC
  8
CSLAYER1
  6
CONTINUOUS
 62
     6
 10
208.209762
 20
249.833710
 40
4.000000
 50
90.000000
 51
136.186939
  0
ARC
  8
CSLAYER1
  6
CONTINUOUS
 62
     6
 10
198.828931
 20
258.833710
 40
9.000000
 50
258.152274
 51
316.186939
  0
ARC
  8
CSLAYER1
  6
CONTINUOUS
 62
     6
 10
196.159883
 20
246.110653
 40
4.000000
 50
78.152274
 51
180.000000
  0
LINE
  8
CSLAYER1
  6
CONTINUOUS
 62
     6
 10
182.159883
 20
244.502757
 11
182.159883
 21
263.969638
  0
ARC
  8
CSLAYER1
  6
CONTINUOUS
 62
     6
 10
178.159883
 20
263.969638
 40
4.000000
 50
0.000000
 51
122.046831
  0
ARC
  8
CSLAYER1
  6
CONTINUOUS
 62
     6
 10
152.159883
 20
305.502757
 40
37.000000
 50
311.082333
 51
329.867278
  0
LINE
  8
CSLAYER1
  6
CONTINUOUS
 62
     6
 10
184.159883
 20
286.928582
 11
184.159883
 21
293.502757
  0
ARC
  8
CSLAYER1
  6
CONTINUOUS
 62
     6
 10
182.159883
 20
293.502757
 40
2.000000
 50
0.000000
 51
90.000000
  0
LINE
  8
CSLAYER1
  6
CONTINUOUS
 62
     6
 10
182.159883
 20
295.502757
 11
176.159883
 21
295.502757
  0
ARC
  8
CSLAYER1
  6
CONTINUOUS
 62
     6
 10
176.159883
 20
292.502757
 40
3.000000
 50
90.000000
 51
180.000000
  0
LINE
  8
CSLAYER1
  6
CONTINUOUS
 62
     6
 10
173.159883
 20
292.502757
 11
173.159883
 21
279.120945
  0
ARC
  8
CSLAYER1
  6
CONTINUOUS
 62
     6
 10
175.159883
 20
279.120945
 40
2.000000
 50
180.000000
 51
311.082333
  0
LINE
  8
CSLAYER1
  6
CONTINUOUS
 62
     6
 10
166.159883
 20
275.502757
 11
166.159883
 21
285.881340
  0
ARC
  8
CSLAYER1
  6
CONTINUOUS
 62
     6
 10
164.159883
 20
285.881340
 40
2.000000
 50
0.000000
 51
121.448981
  0
ARC
  8
CSLAYER1
  6
CONTINUOUS
 62
     6
 10
152.159883
 20
305.502757
 40
21.000000
 50
287.718932
 51
301.448981
  0
ARC
  8
CSLAYER1
  6
CONTINUOUS
 62
     6
 10
159.159883
 20
283.593855
 40
2.000000
 50
107.718932
 51
180.000000
  0
LINE
  8
CSLAYER1
  6
CONTINUOUS
 62
     6
 10
157.159883
 20
283.593855
 11
157.159883
 21
275.502757
  0
ARC
  8
CSLAYER1
  6
CONTINUOUS
 62
     6
 10
159.159883
 20
275.502757
 40
2.000000
 50
180.000000
 51
270.000000
  0
LINE
  8
CSLAYER1
  6
CONTINUOUS
 62
     6
 10
159.159883
 20
273.502757
 11
164.159883
 21
273.502757
  0
ARC
  8
CSLAYER1
  6
CONTINUOUS
 62
     6
 10
164.159883
 20
275.502757
 40
2.000000
 50
270.000000
 51
360.000000
  0
ARC
  8
CSLAYER1
  6
CONTINUOUS
 62
     6
 10
161.159883
 20
257.336379
 40
4.000000
 50
100.583803
 51
180.000000
  0
LINE
  8
CSLAYER1
  6
CONTINUOUS
 62
     6
 10
157.159883
 20
257.336379
 11
157.159883
 21
244.502757
  0
ARC
  8
CSLAYER1
  6
CONTINUOUS
 62
     6
 10
161.159883
 20
244.502757
 40
4.000000
 50
180.000000
 51
270.000000
  0
LINE
  8
CSLAYER1
  6
CONTINUOUS
 62
     6
 10
157.673792
 20
242.722811
 11
155.859596
 21
245.715019
  0
ARC
  8
CSLAYER1
  6
CONTINUOUS
 62
     6
 10
170.067769
 20
253.099930
 40
15.407880
 50
179.999963
 51
207.463892
  0
LINE
  8
CSLAYER1
  6
CONTINUOUS
 62
     6
 10
154.659897
 20
253.099988
 11
154.659897
 21
254.546802
  0
ARC
  8
CSLAYER1
  6
CONTINUOUS
 62
     6
 10
154.034890
 20
253.464267
 40
1.250008
 50
60.000345
 51
120.000345
  0
ARC
  8
CSLAYER1
  6
CONTINUOUS
 62
     6
 10
152.784881
 20
253.464259
 40
1.250008
 50
60.000345
 51
120.000345
  0
LINE
  8
CSLAYER1
  6
CONTINUOUS
 62
     6
 10
152.159871
 20
254.546794
 11
152.159841
 21
253.082017
  0
ARC
  8
CSLAYER1
  6
CONTINUOUS
 62
     6
 10
134.251971
 20
253.099930
 40
17.907879
 50
332.536225
 51
359.942687
  0
LINE
  8
CSLAYER1
  6
CONTINUOUS
 62
     6
 10
150.141676
 20
244.841049
 11
147.923399
 21
245.994042
  0
ARC
  8
CSLAYER1
  6
CONTINUOUS
 62
     6
 10
134.251971
 20
253.099930
 40
15.407880
 50
332.536225
 51
359.942687
  0
LINE
  8
CSLAYER1
  6
CONTINUOUS
 62
     6
 10
149.659843
 20
253.099988
 11
149.659843
 21
254.546802
  0
ARC
  8
CSLAYER1
  6
CONTINUOUS
 62
     6
 10
150.284845
 20
253.464259
 40
1.250008
 50
60.000345
 51
120.000345
  0
ARC
  8
CSLAYER1
  6
CONTINUOUS
 62
     6
 10
150.284832
 20
255.629337
 40
1.250008
 50
240.000345
 51
300.000345
  0
ARC
  8
CSLAYER1
  6
CONTINUOUS
 62
     6
 10
151.534853
 20
253.464267
 40
1.250008
 50
60.000345
 51
120.000345
  0
ARC
  8
CSLAYER1
  6
CONTINUOUS
 62
     6
 10
152.784868
 20
255.629337
 40
1.250008
 50
240.000345
 51
300.000345
  0
ARC
  8
CSLAYER1
  6
CONTINUOUS
 62
     6
 10
152.784908
 20
257.491837
 40
1.250017
 50
239.999981
 51
299.999981
  0
LINE
  8
CSLAYER1
  6
CONTINUOUS
 62
     6
 10
152.159897
 20
256.409290
 11
152.159883
 21
260.502757
  0
LINE
  8
CSLAYER1
  6
CONTINUOUS
 62
     6
 10
149.659866
 20
260.558396
 11
149.659862
 21
256.409291
  0
ARC
  8
CSLAYER1
  6
CONTINUOUS
 62
     6
 10
150.284872
 20
257.491837
 40
1.250017
 50
239.999981
 51
299.999981
  0
ARC
  8
CSLAYER1
  6
CONTINUOUS
 62
     6
 10
151.534889
 20
257.491837
 40
1.250017
 50
239.999981
 51
299.999981
  0
ARC
  8
CSLAYER1
  6
CONTINUOUS
 62
     6
 10
151.534888
 20
255.326744
 40
1.250017
 50
59.999981
 51
119.999981
  0
ARC
  8
CSLAYER1
  6
CONTINUOUS
 62
     6
 10
154.034925
 20
257.491837
 40
1.250017
 50
239.999981
 51
299.999981
  0
ARC
  8
CSLAYER1
  6
CONTINUOUS
 62
     6
 10
154.034925
 20
255.326744
 40
1.250017
 50
59.999981
 51
119.999981
  0
LINE
  8
CSLAYER1
  6
CONTINUOUS
 62
     6
 10
154.659897
 20
256.409291
 11
154.659901
 21
260.558396
  0
ARC
  8
CSLAYER1
  6
CONTINUOUS
 62
     6
 10
170.067769
 20
253.099988
 40
17.907879
 50
180.000020
 51
207.463892
  0
LINE
  8
CSLAYER1
  6
CONTINUOUS
 62
     6
 10
154.178083
 20
244.841049
 11
156.396360
 21
245.994003
  0
LINE
  8
CSLAYER1
  6
CONTINUOUS
 62
     6
 10
155.287221
 20
245.417526
 11
156.937023
 21
242.210819
  0
LINE
  8
CSLAYER1
  6
CONTINUOUS
 62
     6
 10
156.092097
 20
241.909053
 11
154.712394
 21
245.124801
  0
LINE
  8
CSLAYER1
  6
CONTINUOUS
 62
     6
 10
149.625124
 20
245.109537
 11
148.058335
 21
241.698827
  0
LINE
  8
CSLAYER1
  6
CONTINUOUS
 62
     6
 10
147.271616
 20
241.986042
 11
149.032538
 21
245.417545
  0
LINE
  8
CSLAYER1
  6
CONTINUOUS
 62
     6
 10
148.436772
 20
245.719356
 11
146.579541
 21
242.457690
  0
LINE
  8
CSLAYER1
  6
CONTINUOUS
 62
     6
 10
147.159883
 20
244.502757
 11
147.159883
 21
257.336379
  0
ARC
  8
CSLAYER1
  6
CONTINUOUS
 62
     6
 10
143.159883
 20
257.336379
 40
4.000000
 50
0.000000
 51
79.416197
  0
ARC
  8
CSLAYER1
  6
CONTINUOUS
 62
     6
 10
145.159883
 20
275.502757
 40
2.000000
 50
270.000000
 51
360.000000
  0
LINE
  8
CSLAYER1
  6
CONTINUOUS
 62
     6
 10
147.159883
 20
275.502757
 11
147.159883
 21
283.593855
  0
ARC
  8
CSLAYER1
  6
CONTINUOUS
 62
     6
 10
145.159883
 20
283.593855
 40
2.000000
 50
0.000000
 51
72.281068
  0
ARC
  8
CSLAYER1
  6
CONTINUOUS
 62
     6
 10
152.159883
 20
305.502757
 40
21.000000
 50
238.551019
 51
252.281068
  0
ARC
  8
CSLAYER1
  6
CONTINUOUS
 62
     6
 10
140.159883
 20
285.881340
 40
2.000000
 50
58.551019
 51
180.000000
  0
LINE
  8
CSLAYER1
  6
CONTINUOUS
 62
     6
 10
138.159883
 20
285.881340
 11
138.159883
 21
275.502757
  0
ARC
  8
CSLAYER1
  6
CONTINUOUS
 62
     6
 10
140.159883
 20
275.502757
 40
2.000000
 50
180.000000
 51
270.000000
  0
LINE
  8
CSLAYER1
  6
CONTINUOUS
 62
     6
 10
140.159883
 20
273.502757
 11
145.159883
 21
273.502757
  0
LINE
  8
CSLAYER1
  6
CONTINUOUS
 62
     6
 10
131.159883
 20
279.120945
 11
131.159883
 21
292.502757
  0
ARC
  8
CSLAYER1
  6
CONTINUOUS
 62
     6
 10
128.159883
 20
292.502757
 40
3.000000
 50
0.000000
 51
90.000000
  0
LINE
  8
CSLAYER1
  6
CONTINUOUS
 62
     6
 10
128.159883
 20
295.502757
 11
122.159883
 21
295.502757
  0
ARC
  8
CSLAYER1
  6
CONTINUOUS
 62
     6
 10
122.159883
 20
293.502757
 40
2.000000
 50
90.000000
 51
180.000000
  0
LINE
  8
CSLAYER1
  6
CONTINUOUS
 62
     6
 10
120.159883
 20
293.502757
 11
120.159883
 21
286.928582
  0
ARC
  8
CSLAYER1
  6
CONTINUOUS
 62
     6
 10
152.159883
 20
305.502757
 40
37.000000
 50
210.132722
 51
228.917667
  0
ARC
  8
CSLAYER1
  6
CONTINUOUS
 62
     6
 10
129.159883
 20
279.120945
 40
2.000000
 50
228.917667
 51
360.000000
  0
ARC
  8
CSLAYER1
  6
CONTINUOUS
 62
     6
 10
126.159883
 20
263.969638
 40
4.000000
 50
57.953169
 51
180.000000
  0
LINE
  8
CSLAYER1
  6
CONTINUOUS
 62
     6
 10
122.159883
 20
263.969638
 11
122.159883
 21
244.502757
  0
ARC
  8
CSLAYER1
  6
CONTINUOUS
 62
     6
 10
126.159883
 20
244.502757
 40
4.000000
 50
180.000000
 51
270.000000
  0
ARC
  8
CSLAYER1
  6
CONTINUOUS
 62
     6
 10
143.159883
 20
244.502757
 40
4.000000
 50
270.000000
 51
360.000000
  0
ARC
  8
CSLAYER1
  6
CONTINUOUS
 62
     6
 10
178.159883
 20
244.502757
 40
4.000000
 50
270.000000
 51
360.000000
  0
ARC
  8
CSLAYER1
  6
CONTINUOUS
 62
     6
 10
184.159883
 20
233.584802
 40
2.000000
 50
90.000000
 51
180.000000
  0
LINE
  8
CSLAYER1
  6
CONTINUOUS
 62
     6
 10
182.159883
 20
233.584802
 11
182.159883
 21
215.502757
  0
LINE
  8
CSLAYER1
  6
CONTINUOUS
 62
     6
 10
184.159883
 20
235.584802
 11
230.159883
 21
235.584802
  0
ARC
  8
CSLAYER1
  6
CONTINUOUS
 62
     6
 10
230.159883
 20
233.584802
 40
2.000000
 50
0.000000
 51
90.000000
  0
LINE
  8
CSLAYER1
  6
CONTINUOUS
 62
     6
 10
280.797432
 20
246.174297
 11
283.269202
 21
248.576105
  0
LINE
  8
CSLAYER1
  6
CONTINUOUS
 62
     6
 10
283.265883
 20
248.578952
 11
283.321354
 21
248.531366
  0
LINE
  8
CSLAYER1
  6
CONTINUOUS
 62
     6
 10
283.321354
 20
248.531366
 11
283.376864
 21
248.487860
  0
LINE
  8
CSLAYER1
  6
CONTINUOUS
 62
     6
 10
283.376864
 20
248.487860
 11
283.431892
 21
248.449016
  0
LINE
  8
CSLAYER1
  6
CONTINUOUS
 62
     6
 10
283.431892
 20
248.449016
 11
283.488378
 21
248.414721
  0
LINE
  8
CSLAYER1
  6
CONTINUOUS
 62
     6
 10
283.488378
 20
248.414721
 11
283.548980
 21
248.383755
  0
LINE
  8
CSLAYER1
  6
CONTINUOUS
 62
     6
 10
283.548980
 20
248.383755
 11
283.613140
 21
248.355766
  0
LINE
  8
CSLAYER1
  6
CONTINUOUS
 62
     6
 10
283.613140
 20
248.355766
 11
283.680302
 21
248.330405
  0
LINE
  8
CSLAYER1
  6
CONTINUOUS
 62
     6
 10
283.680302
 20
248.330405
 11
283.749909
 21
248.307322
  0
LINE
  8
CSLAYER1
  6
CONTINUOUS
 62
     6
 10
283.749909
 20
248.307322
 11
283.821403
 21
248.286169
  0
LINE
  8
CSLAYER1
  6
CONTINUOUS
 62
     6
 10
283.821403
 20
248.286169
 11
283.894228
 21
248.266594
  0
LINE
  8
CSLAYER1
  6
CONTINUOUS
 62
     6
 10
283.894228
 20
248.266594
 11
283.967826
 21
248.248249
  0
LINE
  8
CSLAYER1
  6
CONTINUOUS
 62
     6
 10
283.967826
 20
248.248249
 11
284.041641
 21
248.230784
  0
LINE
  8
CSLAYER1
  6
CONTINUOUS
 62
     6
 10
284.041641
 20
248.230784
 11
284.115115
 21
248.213848
  0
LINE
  8
CSLAYER1
  6
CONTINUOUS
 62
     6
 10
284.115115
 20
248.213848
 11
284.187691
 21
248.197094
  0
LINE
  8
CSLAYER1
  6
CONTINUOUS
 62
     6
 10
284.187691
 20
248.197094
 11
284.261915
 21
248.179493
  0
LINE
  8
CSLAYER1
  6
CONTINUOUS
 62
     6
 10
284.261915
 20
248.179493
 11
284.335650
 21
248.161469
  0
LINE
  8
CSLAYER1
  6
CONTINUOUS
 62
     6
 10
284.335650
 20
248.161469
 11
284.408946
 21
248.143062
  0
LINE
  8
CSLAYER1
  6
CONTINUOUS
 62
     6
 10
284.408946
 20
248.143062
 11
284.481852
 21
248.124317
  0
LINE
  8
CSLAYER1
  6
CONTINUOUS
 62
     6
 10
284.481852
 20
248.124317
 11
284.554416
 21
248.105275
  0
LINE
  8
CSLAYER1
  6
CONTINUOUS
 62
     6
 10
284.554416
 20
248.105275
 11
284.626688
 21
248.085978
  0
LINE
  8
CSLAYER1
  6
CONTINUOUS
 62
     6
 10
284.626688
 20
248.085978
 11
284.698715
 21
248.066469
  0
LINE
  8
CSLAYER1
  6
CONTINUOUS
 62
     6
 10
284.698715
 20
248.066469
 11
284.770547
 21
248.046791
  0
LINE
  8
CSLAYER1
  6
CONTINUOUS
 62
     6
 10
284.770547
 20
248.046791
 11
284.842232
 21
248.026986
  0
LINE
  8
CSLAYER1
  6
CONTINUOUS
 62
     6
 10
284.842232
 20
248.026986
 11
284.913820
 21
248.007095
  0
LINE
  8
CSLAYER1
  6
CONTINUOUS
 62
     6
 10
284.913820
 20
248.007095
 11
284.994439
 21
247.984633
  0
LINE
  8
CSLAYER1
  6
CONTINUOUS
 62
     6
 10
284.994439
 20
247.984633
 11
285.121695
 21
248.156783
  0
LINE
  8
CSLAYER1
  6
CONTINUOUS
 62
     6
 10
285.121695
 20
248.156783
 11
285.216474
 21
248.283945
  0
LINE
  8
CSLAYER1
  6
CONTINUOUS
 62
     6
 10
285.216474
 20
248.283945
 11
285.312125
 21
248.410177
  0
LINE
  8
CSLAYER1
  6
CONTINUOUS
 62
     6
 10
285.312125
 20
248.410177
 11
285.409084
 21
248.535012
  0
LINE
  8
CSLAYER1
  6
CONTINUOUS
 62
     6
 10
285.409084
 20
248.535012
 11
285.507786
 21
248.657987
  0
LINE
  8
CSLAYER1
  6
CONTINUOUS
 62
     6
 10
285.507786
 20
248.657987
 11
285.608668
 21
248.778636
  0
LINE
  8
CSLAYER1
  6
CONTINUOUS
 62
     6
 10
285.608668
 20
248.778636
 11
285.712164
 21
248.896493
  0
LINE
  8
CSLAYER1
  6
CONTINUOUS
 62
     6
 10
285.712164
 20
248.896493
 11
285.818712
 21
249.011093
  0
LINE
  8
CSLAYER1
  6
CONTINUOUS
 62
     6
 10
285.818712
 20
249.011093
 11
285.928746
 21
249.121971
  0
LINE
  8
CSLAYER1
  6
CONTINUOUS
 62
     6
 10
285.928746
 20
249.121971
 11
286.042703
 21
249.228661
  0
LINE
  8
CSLAYER1
  6
CONTINUOUS
 62
     6
 10
286.042703
 20
249.228661
 11
286.161018
 21
249.330700
  0
LINE
  8
CSLAYER1
  6
CONTINUOUS
 62
     6
 10
286.161018
 20
249.330700
 11
286.312442
 21
249.449737
  0
LINE
  8
CSLAYER1
  6
CONTINUOUS
 62
     6
 10
286.312442
 20
249.449737
 11
286.470682
 21
249.564250
  0
LINE
  8
CSLAYER1
  6
CONTINUOUS
 62
     6
 10
286.470682
 20
249.564250
 11
286.633803
 21
249.675189
  0
LINE
  8
CSLAYER1
  6
CONTINUOUS
 62
     6
 10
286.633803
 20
249.675189
 11
286.799871
 21
249.783508
  0
LINE
  8
CSLAYER1
  6
CONTINUOUS
 62
     6
 10
286.799871
 20
249.783508
 11
286.966953
 21
249.890158
  0
LINE
  8
CSLAYER1
  6
CONTINUOUS
 62
     6
 10
286.966953
 20
249.890158
 11
287.133114
 21
249.996090
  0
LINE
  8
CSLAYER1
  6
CONTINUOUS
 62
     6
 10
287.133114
 20
249.996090
 11
287.296420
 21
250.102258
  0
LINE
  8
CSLAYER1
  6
CONTINUOUS
 62
     6
 10
287.296420
 20
250.102258
 11
287.454938
 21
250.209613
  0
LINE
  8
CSLAYER1
  6
CONTINUOUS
 62
     6
 10
287.454938
 20
250.209613
 11
287.606734
 21
250.319107
  0
LINE
  8
CSLAYER1
  6
CONTINUOUS
 62
     6
 10
287.606734
 20
250.319107
 11
287.749874
 21
250.431692
  0
LINE
  8
CSLAYER1
  6
CONTINUOUS
 62
     6
 10
287.749874
 20
250.431692
 11
287.882423
 21
250.548321
  0
LINE
  8
CSLAYER1
  6
CONTINUOUS
 62
     6
 10
287.882423
 20
250.548321
 11
287.985428
 21
250.651335
  0
LINE
  8
CSLAYER1
  6
CONTINUOUS
 62
     6
 10
287.985428
 20
250.651335
 11
288.087091
 21
250.764771
  0
LINE
  8
CSLAYER1
  6
CONTINUOUS
 62
     6
 10
288.087091
 20
250.764771
 11
288.186846
 21
250.886938
  0
LINE
  8
CSLAYER1
  6
CONTINUOUS
 62
     6
 10
288.186846
 20
250.886938
 11
288.284124
 21
251.016147
  0
LINE
  8
CSLAYER1
  6
CONTINUOUS
 62
     6
 10
288.284124
 20
251.016147
 11
288.378359
 21
251.150707
  0
LINE
  8
CSLAYER1
  6
CONTINUOUS
 62
     6
 10
288.378359
 20
251.150707
 11
288.468983
 21
251.288929
  0
LINE
  8
CSLAYER1
  6
CONTINUOUS
 62
     6
 10
288.468983
 20
251.288929
 11
288.555430
 21
251.429122
  0
LINE
  8
CSLAYER1
  6
CONTINUOUS
 62
     6
 10
288.555430
 20
251.429122
 11
288.637131
 21
251.569597
  0
LINE
  8
CSLAYER1
  6
CONTINUOUS
 62
     6
 10
288.637131
 20
251.569597
 11
288.713519
 21
251.708663
  0
LINE
  8
CSLAYER1
  6
CONTINUOUS
 62
     6
 10
288.713519
 20
251.708663
 11
288.784029
 21
251.844631
  0
LINE
  8
CSLAYER1
  6
CONTINUOUS
 62
     6
 10
288.784029
 20
251.844631
 11
288.889289
 21
252.060172
  0
ARC
  8
CSLAYER1
  6
CONTINUOUS
 62
     6
 10
287.963178
 20
251.504094
 40
1.080690
 50
30.945197
 51
90.945197
  0
ARC
  8
CSLAYER1
  6
CONTINUOUS
 62
     6
 10
287.018487
 20
252.028926
 40
1.080690
 50
30.945197
 51
90.945197
  0
ARC
  8
CSLAYER1
  6
CONTINUOUS
 62
     6
 10
287.927524
 20
253.665179
 40
1.080690
 50
210.945197
 51
270.945197
  0
LINE
  8
CSLAYER1
  6
CONTINUOUS
 62
     6
 10
287.000679
 20
253.109447
 11
286.855976
 21
252.970100
  0
LINE
  8
CSLAYER1
  6
CONTINUOUS
 62
     6
 10
286.855976
 20
252.970100
 11
286.702062
 21
252.820351
  0
LINE
  8
CSLAYER1
  6
CONTINUOUS
 62
     6
 10
286.702062
 20
252.820351
 11
286.540711
 21
252.662523
  0
LINE
  8
CSLAYER1
  6
CONTINUOUS
 62
     6
 10
286.540711
 20
252.662523
 11
286.373701
 21
252.498940
  0
LINE
  8
CSLAYER1
  6
CONTINUOUS
 62
     6
 10
286.373701
 20
252.498940
 11
286.202806
 21
252.331929
  0
LINE
  8
CSLAYER1
  6
CONTINUOUS
 62
     6
 10
286.202806
 20
252.331929
 11
286.029803
 21
252.163814
  0
LINE
  8
CSLAYER1
  6
CONTINUOUS
 62
     6
 10
286.029803
 20
252.163814
 11
285.856467
 21
251.996919
  0
LINE
  8
CSLAYER1
  6
CONTINUOUS
 62
     6
 10
285.856467
 20
251.996919
 11
285.684575
 21
251.833569
  0
LINE
  8
CSLAYER1
  6
CONTINUOUS
 62
     6
 10
285.684575
 20
251.833569
 11
285.515903
 21
251.676090
  0
LINE
  8
CSLAYER1
  6
CONTINUOUS
 62
     6
 10
285.515903
 20
251.676090
 11
285.352226
 21
251.526806
  0
LINE
  8
CSLAYER1
  6
CONTINUOUS
 62
     6
 10
285.352226
 20
251.526806
 11
285.195320
 21
251.388042
  0
LINE
  8
CSLAYER1
  6
CONTINUOUS
 62
     6
 10
285.195320
 20
251.388042
 11
285.054089
 21
251.265244
  0
LINE
  8
CSLAYER1
  6
CONTINUOUS
 62
     6
 10
285.054089
 20
251.265244
 11
284.907906
 21
251.137358
  0
LINE
  8
CSLAYER1
  6
CONTINUOUS
 62
     6
 10
284.907906
 20
251.137358
 11
284.757912
 21
251.004852
  0
LINE
  8
CSLAYER1
  6
CONTINUOUS
 62
     6
 10
284.757912
 20
251.004852
 11
284.605251
 21
250.868192
  0
LINE
  8
CSLAYER1
  6
CONTINUOUS
 62
     6
 10
284.605251
 20
250.868192
 11
284.451064
 21
250.727847
  0
LINE
  8
CSLAYER1
  6
CONTINUOUS
 62
     6
 10
284.451064
 20
250.727847
 11
284.296494
 21
250.584285
  0
LINE
  8
CSLAYER1
  6
CONTINUOUS
 62
     6
 10
284.296494
 20
250.584285
 11
284.142682
 21
250.437972
  0
LINE
  8
CSLAYER1
  6
CONTINUOUS
 62
     6
 10
284.142682
 20
250.437972
 11
283.990772
 21
250.289377
  0
LINE
  8
CSLAYER1
  6
CONTINUOUS
 62
     6
 10
283.990772
 20
250.289377
 11
283.841904
 21
250.138968
  0
LINE
  8
CSLAYER1
  6
CONTINUOUS
 62
     6
 10
283.841904
 20
250.138968
 11
283.697223
 21
249.987211
  0
LINE
  8
CSLAYER1
  6
CONTINUOUS
 62
     6
 10
283.697223
 20
249.987211
 11
283.557869
 21
249.834576
  0
LINE
  8
CSLAYER1
  6
CONTINUOUS
 62
     6
 10
283.557869
 20
249.834576
 11
283.502345
 21
249.771631
  0
LINE
  8
CSLAYER1
  6
CONTINUOUS
 62
     6
 10
283.502345
 20
249.771631
 11
283.447417
 21
249.708131
  0
LINE
  8
CSLAYER1
  6
CONTINUOUS
 62
     6
 10
283.447417
 20
249.708131
 11
283.393026
 21
249.644130
  0
LINE
  8
CSLAYER1
  6
CONTINUOUS
 62
     6
 10
283.393026
 20
249.644130
 11
283.339113
 21
249.579683
  0
LINE
  8
CSLAYER1
  6
CONTINUOUS
 62
     6
 10
283.339113
 20
249.579683
 11
283.285617
 21
249.514847
  0
LINE
  8
CSLAYER1
  6
CONTINUOUS
 62
     6
 10
283.285617
 20
249.514847
 11
283.232479
 21
249.449678
  0
LINE
  8
CSLAYER1
  6
CONTINUOUS
 62
     6
 10
283.232479
 20
249.449678
 11
283.179639
 21
249.384230
  0
LINE
  8
CSLAYER1
  6
CONTINUOUS
 62
     6
 10
283.179639
 20
249.384230
 11
283.127038
 21
249.318559
  0
LINE
  8
CSLAYER1
  6
CONTINUOUS
 62
     6
 10
283.127038
 20
249.318559
 11
283.074616
 21
249.252722
  0
LINE
  8
CSLAYER1
  6
CONTINUOUS
 62
     6
 10
283.074616
 20
249.252722
 11
283.022313
 21
249.186773
  0
LINE
  8
CSLAYER1
  6
CONTINUOUS
 62
     6
 10
283.022313
 20
249.186773
 11
282.893758
 21
249.024355
  0
LINE
  8
CSLAYER1
  6
CONTINUOUS
 62
     6
 10
282.893758
 20
249.024355
 11
282.922495
 21
248.977501
  0
LINE
  8
CSLAYER1
  6
CONTINUOUS
 62
     6
 10
282.922495
 20
248.977501
 11
282.963087
 21
248.917619
  0
LINE
  8
CSLAYER1
  6
CONTINUOUS
 62
     6
 10
282.963087
 20
248.917619
 11
283.007370
 21
248.857751
  0
LINE
  8
CSLAYER1
  6
CONTINUOUS
 62
     6
 10
283.007370
 20
248.857751
 11
283.054821
 21
248.798478
  0
LINE
  8
CSLAYER1
  6
CONTINUOUS
 62
     6
 10
283.054821
 20
248.798478
 11
283.104920
 21
248.740381
  0
LINE
  8
CSLAYER1
  6
CONTINUOUS
 62
     6
 10
283.104920
 20
248.740381
 11
283.157144
 21
248.684040
  0
LINE
  8
CSLAYER1
  6
CONTINUOUS
 62
     6
 10
283.157144
 20
248.684040
 11
283.210972
 21
248.630037
  0
LINE
  8
CSLAYER1
  6
CONTINUOUS
 62
     6
 10
283.210972
 20
248.630037
 11
283.265883
 21
248.578952
  0
LINE
  8
CSLAYER1
  6
CONTINUOUS
 62
     6
 10
283.686420
 20
248.328376
 11
281.340889
 21
245.654491
  0
LINE
  8
CSLAYER1
  6
CONTINUOUS
 62
     6
 10
282.026131
 20
245.205547
 11
284.252253
 21
248.181784
  0
LINE
  8
CSLAYER1
  6
CONTINUOUS
 62
     6
 10
289.658423
 20
245.923589
 11
289.727570
 21
245.889060
  0
LINE
  8
CSLAYER1
  6
CONTINUOUS
 62
     6
 10
289.727570
 20
245.889060
 11
289.812046
 21
245.841444
  0
LINE
  8
CSLAYER1
  6
CONTINUOUS
 62
     6
 10
289.812046
 20
245.841444
 11
289.897979
 21
245.787693
  0
LINE
  8
CSLAYER1
  6
CONTINUOUS
 62
     6
 10
289.897979
 20
245.787693
 11
289.984098
 21
245.728469
  0
LINE
  8
CSLAYER1
  6
CONTINUOUS
 62
     6
 10
289.984098
 20
245.728469
 11
290.069134
 21
245.664431
  0
LINE
  8
CSLAYER1
  6
CONTINUOUS
 62
     6
 10
290.069134
 20
245.664431
 11
290.151817
 21
245.596241
  0
LINE
  8
CSLAYER1
  6
CONTINUOUS
 62
     6
 10
290.151817
 20
245.596241
 11
290.230876
 21
245.524557
  0
LINE
  8
CSLAYER1
  6
CONTINUOUS
 62
     6
 10
290.230876
 20
245.524557
 11
290.305042
 21
245.450042
  0
LINE
  8
CSLAYER1
  6
CONTINUOUS
 62
     6
 10
290.305042
 20
245.450042
 11
290.373045
 21
245.373354
  0
LINE
  8
CSLAYER1
  6
CONTINUOUS
 62
     6
 10
290.373045
 20
245.373354
 11
290.433614
 21
245.295155
  0
LINE
  8
CSLAYER1
  6
CONTINUOUS
 62
     6
 10
290.433614
 20
245.295155
 11
290.485481
 21
245.216106
  0
LINE
  8
CSLAYER1
  6
CONTINUOUS
 62
     6
 10
290.485481
 20
245.216106
 11
290.501387
 21
245.188499
  0
LINE
  8
CSLAYER1
  6
CONTINUOUS
 62
     6
 10
290.501387
 20
245.188499
 11
290.517041
 21
245.159806
  0
LINE
  8
CSLAYER1
  6
CONTINUOUS
 62
     6
 10
290.517041
 20
245.159806
 11
290.532483
 21
245.130192
  0
LINE
  8
CSLAYER1
  6
CONTINUOUS
 62
     6
 10
290.532483
 20
245.130192
 11
290.547756
 21
245.099826
  0
LINE
  8
CSLAYER1
  6
CONTINUOUS
 62
     6
 10
290.547756
 20
245.099826
 11
290.562902
 21
245.068874
  0
LINE
  8
CSLAYER1
  6
CONTINUOUS
 62
     6
 10
290.562902
 20
245.068874
 11
290.577962
 21
245.037504
  0
LINE
  8
CSLAYER1
  6
CONTINUOUS
 62
     6
 10
290.577962
 20
245.037504
 11
290.592979
 21
245.005883
  0
LINE
  8
CSLAYER1
  6
CONTINUOUS
 62
     6
 10
290.592979
 20
245.005883
 11
290.607994
 21
244.974178
  0
LINE
  8
CSLAYER1
  6
CONTINUOUS
 62
     6
 10
290.607994
 20
244.974178
 11
290.623050
 21
244.942555
  0
LINE
  8
CSLAYER1
  6
CONTINUOUS
 62
     6
 10
290.623050
 20
244.942555
 11
290.638188
 21
244.911184
  0
LINE
  8
CSLAYER1
  6
CONTINUOUS
 62
     6
 10
290.638188
 20
244.911184
 11
290.653450
 21
244.880230
  0
LINE
  8
CSLAYER1
  6
CONTINUOUS
 62
     6
 10
290.653450
 20
244.880230
 11
290.694271
 21
244.802092
  0
LINE
  8
CSLAYER1
  6
CONTINUOUS
 62
     6
 10
290.694271
 20
244.802092
 11
290.737606
 21
244.725560
  0
LINE
  8
CSLAYER1
  6
CONTINUOUS
 62
     6
 10
290.737606
 20
244.725560
 11
290.783205
 21
244.650472
  0
LINE
  8
CSLAYER1
  6
CONTINUOUS
 62
     6
 10
290.783205
 20
244.650472
 11
290.830815
 21
244.576667
  0
LINE
  8
CSLAYER1
  6
CONTINUOUS
 62
     6
 10
290.830815
 20
244.576667
 11
290.880185
 21
244.503986
  0
LINE
  8
CSLAYER1
  6
CONTINUOUS
 62
     6
 10
290.880185
 20
244.503986
 11
290.931064
 21
244.432267
  0
LINE
  8
CSLAYER1
  6
CONTINUOUS
 62
     6
 10
290.931064
 20
244.432267
 11
290.983200
 21
244.361351
  0
LINE
  8
CSLAYER1
  6
CONTINUOUS
 62
     6
 10
290.983200
 20
244.361351
 11
291.036341
 21
244.291076
  0
LINE
  8
CSLAYER1
  6
CONTINUOUS
 62
     6
 10
291.036341
 20
244.291076
 11
291.090238
 21
244.221283
  0
LINE
  8
CSLAYER1
  6
CONTINUOUS
 62
     6
 10
291.090238
 20
244.221283
 11
291.144636
 21
244.151811
  0
LINE
  8
CSLAYER1
  6
CONTINUOUS
 62
     6
 10
291.144636
 20
244.151811
 11
291.196710
 21
244.085768
  0
LINE
  8
CSLAYER1
  6
CONTINUOUS
 62
     6
 10
291.196710
 20
244.085768
 11
291.324057
 21
244.195069
  0
LINE
  8
CSLAYER1
  6
CONTINUOUS
 62
     6
 10
291.324057
 20
244.195069
 11
291.460772
 21
244.313102
  0
LINE
  8
CSLAYER1
  6
CONTINUOUS
 62
     6
 10
291.460772
 20
244.313102
 11
291.596660
 21
244.431806
  0
LINE
  8
CSLAYER1
  6
CONTINUOUS
 62
     6
 10
291.596660
 20
244.431806
 11
291.731306
 21
244.551518
  0
LINE
  8
CSLAYER1
  6
CONTINUOUS
 62
     6
 10
291.731306
 20
244.551518
 11
291.864297
 21
244.672572
  0
LINE
  8
CSLAYER1
  6
CONTINUOUS
 62
     6
 10
291.864297
 20
244.672572
 11
291.995219
 21
244.795305
  0
LINE
  8
CSLAYER1
  6
CONTINUOUS
 62
     6
 10
291.995219
 20
244.795305
 11
292.123659
 21
244.920053
  0
LINE
  8
CSLAYER1
  6
CONTINUOUS
 62
     6
 10
292.123659
 20
244.920053
 11
292.249203
 21
245.047151
  0
LINE
  8
CSLAYER1
  6
CONTINUOUS
 62
     6
 10
292.249203
 20
245.047151
 11
292.371436
 21
245.176935
  0
LINE
  8
CSLAYER1
  6
CONTINUOUS
 62
     6
 10
292.371436
 20
245.176935
 11
292.489945
 21
245.309740
  0
LINE
  8
CSLAYER1
  6
CONTINUOUS
 62
     6
 10
292.489945
 20
245.309740
 11
292.604317
 21
245.445904
  0
LINE
  8
CSLAYER1
  6
CONTINUOUS
 62
     6
 10
292.604317
 20
245.445904
 11
292.740813
 21
245.620129
  0
LINE
  8
CSLAYER1
  6
CONTINUOUS
 62
     6
 10
292.740813
 20
245.620129
 11
292.873156
 21
245.800806
  0
LINE
  8
CSLAYER1
  6
CONTINUOUS
 62
     6
 10
292.873156
 20
245.800806
 11
293.001628
 21
245.986576
  0
LINE
  8
CSLAYER1
  6
CONTINUOUS
 62
     6
 10
293.001628
 20
245.986576
 11
293.126509
 21
246.176083
  0
LINE
  8
CSLAYER1
  6
CONTINUOUS
 62
     6
 10
293.126509
 20
246.176083
 11
293.248081
 21
246.367972
  0
LINE
  8
CSLAYER1
  6
CONTINUOUS
 62
     6
 10
293.248081
 20
246.367972
 11
293.366626
 21
246.560884
  0
LINE
  8
CSLAYER1
  6
CONTINUOUS
 62
     6
 10
293.366626
 20
246.560884
 11
293.482423
 21
246.753464
  0
LINE
  8
CSLAYER1
  6
CONTINUOUS
 62
     6
 10
293.482423
 20
246.753464
 11
293.595756
 21
246.944355
  0
LINE
  8
CSLAYER1
  6
CONTINUOUS
 62
     6
 10
293.595756
 20
246.944355
 11
293.706905
 21
247.132201
  0
LINE
  8
CSLAYER1
  6
CONTINUOUS
 62
     6
 10
293.706905
 20
247.132201
 11
293.816150
 21
247.315644
  0
LINE
  8
CSLAYER1
  6
CONTINUOUS
 62
     6
 10
293.816150
 20
247.315644
 11
293.923775
 21
247.493328
  0
LINE
  8
CSLAYER1
  6
CONTINUOUS
 62
     6
 10
293.923775
 20
247.493328
 11
294.029101
 21
247.659014
  0
LINE
  8
CSLAYER1
  6
CONTINUOUS
 62
     6
 10
294.029101
 20
247.659014
 11
294.143829
 21
247.828903
  0
LINE
  8
CSLAYER1
  6
CONTINUOUS
 62
     6
 10
294.143829
 20
247.828903
 11
294.266130
 21
248.001567
  0
LINE
  8
CSLAYER1
  6
CONTINUOUS
 62
     6
 10
294.266130
 20
248.001567
 11
294.394172
 21
248.175577
  0
LINE
  8
CSLAYER1
  6
CONTINUOUS
 62
     6
 10
294.394172
 20
248.175577
 11
294.526124
 21
248.349506
  0
LINE
  8
CSLAYER1
  6
CONTINUOUS
 62
     6
 10
294.526124
 20
248.349506
 11
294.660156
 21
248.521927
  0
LINE
  8
CSLAYER1
  6
CONTINUOUS
 62
     6
 10
294.660156
 20
248.521927
 11
294.794436
 21
248.691412
  0
LINE
  8
CSLAYER1
  6
CONTINUOUS
 62
     6
 10
294.794436
 20
248.691412
 11
294.927135
 21
248.856534
  0
LINE
  8
CSLAYER1
  6
CONTINUOUS
 62
     6
 10
294.927135
 20
248.856534
 11
295.056421
 21
249.015865
  0
LINE
  8
CSLAYER1
  6
CONTINUOUS
 62
     6
 10
295.056421
 20
249.015865
 11
295.180464
 21
249.167977
  0
LINE
  8
CSLAYER1
  6
CONTINUOUS
 62
     6
 10
295.180464
 20
249.167977
 11
295.349721
 21
249.375577
  0
ARC
  8
CSLAYER1
  6
CONTINUOUS
 62
     6
 10
294.267471
 20
248.945805
 40
1.164461
 50
21.658505
 51
86.024005
  0
ARC
  8
CSLAYER1
  6
CONTINUOUS
 62
     6
 10
293.301816
 20
249.596559
 40
1.164461
 50
26.024005
 51
86.024005
  0
ARC
  8
CSLAYER1
  6
CONTINUOUS
 62
     6
 10
294.428955
 20
251.269122
 40
1.164461
 50
206.024005
 51
266.024005
  0
LINE
  8
CSLAYER1
  6
CONTINUOUS
 62
     6
 10
293.382545
 20
250.758221
 11
293.261364
 21
250.610306
  0
LINE
  8
CSLAYER1
  6
CONTINUOUS
 62
     6
 10
293.261364
 20
250.610306
 11
293.132354
 21
250.452907
  0
LINE
  8
CSLAYER1
  6
CONTINUOUS
 62
     6
 10
293.132354
 20
250.452907
 11
292.997552
 21
250.287596
  0
LINE
  8
CSLAYER1
  6
CONTINUOUS
 62
     6
 10
292.997552
 20
250.287596
 11
292.858995
 21
250.115943
  0
LINE
  8
CSLAYER1
  6
CONTINUOUS
 62
     6
 10
292.858995
 20
250.115943
 11
292.718719
 21
249.939522
  0
LINE
  8
CSLAYER1
  6
CONTINUOUS
 62
     6
 10
292.718719
 20
249.939522
 11
292.578762
 21
249.759903
  0
LINE
  8
CSLAYER1
  6
CONTINUOUS
 62
     6
 10
292.578762
 20
249.759903
 11
292.441158
 21
249.578660
  0
LINE
  8
CSLAYER1
  6
CONTINUOUS
 62
     6
 10
292.441158
 20
249.578660
 11
292.307947
 21
249.397364
  0
LINE
  8
CSLAYER1
  6
CONTINUOUS
 62
     6
 10
292.307947
 20
249.397364
 11
292.181163
 21
249.217586
  0
LINE
  8
CSLAYER1
  6
CONTINUOUS
 62
     6
 10
292.181163
 20
249.217586
 11
292.062843
 21
249.040900
  0
LINE
  8
CSLAYER1
  6
CONTINUOUS
 62
     6
 10
292.062843
 20
249.040900
 11
291.955025
 21
248.868877
  0
LINE
  8
CSLAYER1
  6
CONTINUOUS
 62
     6
 10
291.955025
 20
248.868877
 11
291.857386
 21
248.705116
  0
LINE
  8
CSLAYER1
  6
CONTINUOUS
 62
     6
 10
291.857386
 20
248.705116
 11
291.757757
 21
248.535848
  0
LINE
  8
CSLAYER1
  6
CONTINUOUS
 62
     6
 10
291.757757
 20
248.535848
 11
291.655930
 21
248.362377
  0
LINE
  8
CSLAYER1
  6
CONTINUOUS
 62
     6
 10
291.655930
 20
248.362377
 11
291.551700
 21
248.186004
  0
LINE
  8
CSLAYER1
  6
CONTINUOUS
 62
     6
 10
291.551700
 20
248.186004
 11
291.444860
 21
248.008032
  0
LINE
  8
CSLAYER1
  6
CONTINUOUS
 62
     6
 10
291.444860
 20
248.008032
 11
291.335203
 21
247.829762
  0
LINE
  8
CSLAYER1
  6
CONTINUOUS
 62
     6
 10
291.335203
 20
247.829762
 11
291.222523
 21
247.652497
  0
LINE
  8
CSLAYER1
  6
CONTINUOUS
 62
     6
 10
291.222523
 20
247.652497
 11
291.106612
 21
247.477540
  0
LINE
  8
CSLAYER1
  6
CONTINUOUS
 62
     6
 10
291.106612
 20
247.477540
 11
290.987265
 21
247.306192
  0
LINE
  8
CSLAYER1
  6
CONTINUOUS
 62
     6
 10
290.987265
 20
247.306192
 11
290.864274
 21
247.139756
  0
LINE
  8
CSLAYER1
  6
CONTINUOUS
 62
     6
 10
290.864274
 20
247.139756
 11
290.737434
 21
246.979534
  0
LINE
  8
CSLAYER1
  6
CONTINUOUS
 62
     6
 10
290.737434
 20
246.979534
 11
290.638613
 21
246.863021
  0
LINE
  8
CSLAYER1
  6
CONTINUOUS
 62
     6
 10
290.638613
 20
246.863021
 11
290.536401
 21
246.749262
  0
LINE
  8
CSLAYER1
  6
CONTINUOUS
 62
     6
 10
290.536401
 20
246.749262
 11
290.431137
 21
246.637981
  0
LINE
  8
CSLAYER1
  6
CONTINUOUS
 62
     6
 10
290.431137
 20
246.637981
 11
290.323159
 21
246.528903
  0
LINE
  8
CSLAYER1
  6
CONTINUOUS
 62
     6
 10
290.323159
 20
246.528903
 11
290.212809
 21
246.421752
  0
LINE
  8
CSLAYER1
  6
CONTINUOUS
 62
     6
 10
290.212809
 20
246.421752
 11
290.100423
 21
246.316253
  0
LINE
  8
CSLAYER1
  6
CONTINUOUS
 62
     6
 10
290.100423
 20
246.316253
 11
289.986342
 21
246.212131
  0
LINE
  8
CSLAYER1
  6
CONTINUOUS
 62
     6
 10
289.986342
 20
246.212131
 11
289.870904
 21
246.109111
  0
LINE
  8
CSLAYER1
  6
CONTINUOUS
 62
     6
 10
289.870904
 20
246.109111
 11
289.754449
 21
246.006917
  0
LINE
  8
CSLAYER1
  6
CONTINUOUS
 62
     6
 10
289.754449
 20
246.006917
 11
289.658423
 21
245.923589
  0
LINE
  8
CSLAYER1
  6
CONTINUOUS
 62
     6
 10
290.111974
 20
245.629100
 11
287.366127
 21
243.126263
  0
LINE
  8
CSLAYER1
  6
CONTINUOUS
 62
     6
 10
287.980476
 20
242.913616
 11
290.423471
 21
245.308251
  0
LINE
  8
CSLAYER1
  6
CONTINUOUS
 62
     6
 10
290.703942
 20
244.785013
 11
288.453011
 21
242.346508
  0
LINE
  8
CSLAYER1
  6
CONTINUOUS
 62
     6
 10
290.233589
 20
252.773540
 11
290.336543
 21
252.813841
  0
LINE
  8
CSLAYER1
  6
CONTINUOUS
 62
     6
 10
290.336543
 20
252.813841
 11
290.439311
 21
252.854417
  0
LINE
  8
CSLAYER1
  6
CONTINUOUS
 62
     6
 10
290.439311
 20
252.854417
 11
290.541707
 21
252.895544
  0
LINE
  8
CSLAYER1
  6
CONTINUOUS
 62
     6
 10
290.541707
 20
252.895544
 11
290.643547
 21
252.937495
  0
LINE
  8
CSLAYER1
  6
CONTINUOUS
 62
     6
 10
290.643547
 20
252.937495
 11
290.744642
 21
252.980546
  0
LINE
  8
CSLAYER1
  6
CONTINUOUS
 62
     6
 10
290.744642
 20
252.980546
 11
290.844809
 21
253.024973
  0
LINE
  8
CSLAYER1
  6
CONTINUOUS
 62
     6
 10
290.844809
 20
253.024973
 11
290.943861
 21
253.071049
  0
LINE
  8
CSLAYER1
  6
CONTINUOUS
 62
     6
 10
290.943861
 20
253.071049
 11
291.041612
 21
253.119050
  0
LINE
  8
CSLAYER1
  6
CONTINUOUS
 62
     6
 10
291.041612
 20
253.119050
 11
291.137877
 21
253.169252
  0
LINE
  8
CSLAYER1
  6
CONTINUOUS
 62
     6
 10
291.137877
 20
253.169252
 11
291.232469
 21
253.221928
  0
LINE
  8
CSLAYER1
  6
CONTINUOUS
 62
     6
 10
291.232469
 20
253.221928
 11
291.325203
 21
253.277355
  0
LINE
  8
CSLAYER1
  6
CONTINUOUS
 62
     6
 10
291.325203
 20
253.277355
 11
291.495486
 21
253.389888
  0
LINE
  8
CSLAYER1
  6
CONTINUOUS
 62
     6
 10
291.495486
 20
253.389888
 11
291.661790
 21
253.512827
  0
LINE
  8
CSLAYER1
  6
CONTINUOUS
 62
     6
 10
291.661790
 20
253.512827
 11
291.824013
 21
253.644618
  0
LINE
  8
CSLAYER1
  6
CONTINUOUS
 62
     6
 10
291.824013
 20
253.644618
 11
291.982054
 21
253.783703
  0
LINE
  8
CSLAYER1
  6
CONTINUOUS
 62
     6
 10
291.982054
 20
253.783703
 11
292.135811
 21
253.928527
  0
LINE
  8
CSLAYER1
  6
CONTINUOUS
 62
     6
 10
292.135811
 20
253.928527
 11
292.285181
 21
254.077533
  0
LINE
  8
CSLAYER1
  6
CONTINUOUS
 62
     6
 10
292.285181
 20
254.077533
 11
292.430064
 21
254.229167
  0
LINE
  8
CSLAYER1
  6
CONTINUOUS
 62
     6
 10
292.430064
 20
254.229167
 11
292.570358
 21
254.381871
  0
LINE
  8
CSLAYER1
  6
CONTINUOUS
 62
     6
 10
292.570358
 20
254.381871
 11
292.705960
 21
254.534091
  0
LINE
  8
CSLAYER1
  6
CONTINUOUS
 62
     6
 10
292.705960
 20
254.534091
 11
292.836770
 21
254.684270
  0
LINE
  8
CSLAYER1
  6
CONTINUOUS
 62
     6
 10
292.836770
 20
254.684270
 11
292.962685
 21
254.830852
  0
LINE
  8
CSLAYER1
  6
CONTINUOUS
 62
     6
 10
292.962685
 20
254.830852
 11
293.101212
 21
254.987042
  0
LINE
  8
CSLAYER1
  6
CONTINUOUS
 62
     6
 10
293.101212
 20
254.987042
 11
293.249228
 21
255.144217
  0
LINE
  8
CSLAYER1
  6
CONTINUOUS
 62
     6
 10
293.249228
 20
255.144217
 11
293.404768
 21
255.302069
  0
LINE
  8
CSLAYER1
  6
CONTINUOUS
 62
     6
 10
293.404768
 20
255.302069
 11
293.565865
 21
255.460289
  0
LINE
  8
CSLAYER1
  6
CONTINUOUS
 62
     6
 10
293.565865
 20
255.460289
 11
293.730555
 21
255.618569
  0
LINE
  8
CSLAYER1
  6
CONTINUOUS
 62
     6
 10
293.730555
 20
255.618569
 11
293.896873
 21
255.776600
  0
LINE
  8
CSLAYER1
  6
CONTINUOUS
 62
     6
 10
293.896873
 20
255.776600
 11
294.062853
 21
255.934074
  0
LINE
  8
CSLAYER1
  6
CONTINUOUS
 62
     6
 10
294.062853
 20
255.934074
 11
294.226530
 21
256.090682
  0
LINE
  8
CSLAYER1
  6
CONTINUOUS
 62
     6
 10
294.226530
 20
256.090682
 11
294.385938
 21
256.246116
  0
LINE
  8
CSLAYER1
  6
CONTINUOUS
 62
     6
 10
294.385938
 20
256.246116
 11
294.539114
 21
256.400067
  0
LINE
  8
CSLAYER1
  6
CONTINUOUS
 62
     6
 10
294.539114
 20
256.400067
 11
294.684090
 21
256.552227
  0
LINE
  8
CSLAYER1
  6
CONTINUOUS
 62
     6
 10
294.684090
 20
256.552227
 11
294.806305
 21
256.684656
  0
LINE
  8
CSLAYER1
  6
CONTINUOUS
 62
     6
 10
294.806305
 20
256.684656
 11
294.931903
 21
256.822306
  0
LINE
  8
CSLAYER1
  6
CONTINUOUS
 62
     6
 10
294.931903
 20
256.822306
 11
295.059753
 21
256.964278
  0
LINE
  8
CSLAYER1
  6
CONTINUOUS
 62
     6
 10
295.059753
 20
256.964278
 11
295.188720
 21
257.109672
  0
LINE
  8
CSLAYER1
  6
CONTINUOUS
 62
     6
 10
295.188720
 20
257.109672
 11
295.317673
 21
257.257590
  0
LINE
  8
CSLAYER1
  6
CONTINUOUS
 62
     6
 10
295.317673
 20
257.257590
 11
295.445478
 21
257.407133
  0
LINE
  8
CSLAYER1
  6
CONTINUOUS
 62
     6
 10
295.445478
 20
257.407133
 11
295.571004
 21
257.557401
  0
LINE
  8
CSLAYER1
  6
CONTINUOUS
 62
     6
 10
295.571004
 20
257.557401
 11
295.693117
 21
257.707496
  0
LINE
  8
CSLAYER1
  6
CONTINUOUS
 62
     6
 10
295.693117
 20
257.707496
 11
295.810686
 21
257.856517
  0
LINE
  8
CSLAYER1
  6
CONTINUOUS
 62
     6
 10
295.810686
 20
257.856517
 11
295.922576
 21
258.003567
  0
LINE
  8
CSLAYER1
  6
CONTINUOUS
 62
     6
 10
295.922576
 20
258.003567
 11
296.027657
 21
258.147747
  0
LINE
  8
CSLAYER1
  6
CONTINUOUS
 62
     6
 10
296.027657
 20
258.147747
 11
296.155901
 21
258.329961
  0
LINE
  8
CSLAYER1
  6
CONTINUOUS
 62
     6
 10
296.155901
 20
258.329961
 11
296.288432
 21
258.521986
  0
LINE
  8
CSLAYER1
  6
CONTINUOUS
 62
     6
 10
296.288432
 20
258.521986
 11
296.423669
 21
258.721635
  0
LINE
  8
CSLAYER1
  6
CONTINUOUS
 62
     6
 10
296.423669
 20
258.721635
 11
296.560029
 21
258.926723
  0
LINE
  8
CSLAYER1
  6
CONTINUOUS
 62
     6
 10
296.560029
 20
258.926723
 11
296.695931
 21
259.135062
  0
LINE
  8
CSLAYER1
  6
CONTINUOUS
 62
     6
 10
296.695931
 20
259.135062
 11
296.829794
 21
259.344468
  0
LINE
  8
CSLAYER1
  6
CONTINUOUS
 62
     6
 10
296.829794
 20
259.344468
 11
296.960035
 21
259.552754
  0
LINE
  8
CSLAYER1
  6
CONTINUOUS
 62
     6
 10
296.960035
 20
259.552754
 11
297.085074
 21
259.757733
  0
LINE
  8
CSLAYER1
  6
CONTINUOUS
 62
     6
 10
297.085074
 20
259.757733
 11
297.203328
 21
259.957220
  0
LINE
  8
CSLAYER1
  6
CONTINUOUS
 62
     6
 10
297.203328
 20
259.957220
 11
297.313215
 21
260.149029
  0
LINE
  8
CSLAYER1
  6
CONTINUOUS
 62
     6
 10
297.313215
 20
260.149029
 11
297.361461
 21
260.236863
  0
LINE
  8
CSLAYER1
  6
CONTINUOUS
 62
     6
 10
297.357354
 20
260.213961
 11
297.296326
 21
259.900649
  0
LINE
  8
CSLAYER1
  6
CONTINUOUS
 62
     6
 10
297.296326
 20
259.900649
 11
297.229969
 21
259.581562
  0
LINE
  8
CSLAYER1
  6
CONTINUOUS
 62
     6
 10
297.229969
 20
259.581562
 11
297.159416
 21
259.259951
  0
LINE
  8
CSLAYER1
  6
CONTINUOUS
 62
     6
 10
297.159416
 20
259.259951
 11
297.085801
 21
258.939069
  0
LINE
  8
CSLAYER1
  6
CONTINUOUS
 62
     6
 10
297.085801
 20
258.939069
 11
297.010255
 21
258.622169
  0
LINE
  8
CSLAYER1
  6
CONTINUOUS
 62
     6
 10
297.010255
 20
258.622169
 11
296.933911
 21
258.312503
  0
LINE
  8
CSLAYER1
  6
CONTINUOUS
 62
     6
 10
296.933911
 20
258.312503
 11
296.857903
 21
258.013324
  0
LINE
  8
CSLAYER1
  6
CONTINUOUS
 62
     6
 10
296.857903
 20
258.013324
 11
296.783363
 21
257.727886
  0
LINE
  8
CSLAYER1
  6
CONTINUOUS
 62
     6
 10
296.783363
 20
257.727886
 11
296.707893
 21
257.458393
  0
LINE
  8
CSLAYER1
  6
CONTINUOUS
 62
     6
 10
296.707893
 20
257.458393
 11
296.623047
 21
257.183678
  0
LINE
  8
CSLAYER1
  6
CONTINUOUS
 62
     6
 10
296.623047
 20
257.183678
 11
296.529602
 21
256.904872
  0
LINE
  8
CSLAYER1
  6
CONTINUOUS
 62
     6
 10
296.529602
 20
256.904872
 11
296.428337
 21
256.623107
  0
LINE
  8
CSLAYER1
  6
CONTINUOUS
 62
     6
 10
296.428337
 20
256.623107
 11
296.320028
 21
256.339513
  0
LINE
  8
CSLAYER1
  6
CONTINUOUS
 62
     6
 10
296.320028
 20
256.339513
 11
296.205453
 21
256.055223
  0
LINE
  8
CSLAYER1
  6
CONTINUOUS
 62
     6
 10
296.205453
 20
256.055223
 11
296.085389
 21
255.771367
  0
LINE
  8
CSLAYER1
  6
CONTINUOUS
 62
     6
 10
296.085389
 20
255.771367
 11
295.960615
 21
255.489077
  0
LINE
  8
CSLAYER1
  6
CONTINUOUS
 62
     6
 10
295.960615
 20
255.489077
 11
295.831908
 21
255.209484
  0
LINE
  8
CSLAYER1
  6
CONTINUOUS
 62
     6
 10
295.831908
 20
255.209484
 11
295.700045
 21
254.933719
  0
LINE
  8
CSLAYER1
  6
CONTINUOUS
 62
     6
 10
295.700045
 20
254.933719
 11
295.565804
 21
254.662914
  0
LINE
  8
CSLAYER1
  6
CONTINUOUS
 62
     6
 10
295.565804
 20
254.662914
 11
295.445659
 21
254.428485
  0
LINE
  8
CSLAYER1
  6
CONTINUOUS
 62
     6
 10
295.445659
 20
254.428485
 11
295.322762
 21
254.195604
  0
LINE
  8
CSLAYER1
  6
CONTINUOUS
 62
     6
 10
295.322762
 20
254.195604
 11
295.197388
 21
253.964114
  0
LINE
  8
CSLAYER1
  6
CONTINUOUS
 62
     6
 10
295.197388
 20
253.964114
 11
295.069812
 21
253.733862
  0
LINE
  8
CSLAYER1
  6
CONTINUOUS
 62
     6
 10
295.069812
 20
253.733862
 11
294.940310
 21
253.504693
  0
LINE
  8
CSLAYER1
  6
CONTINUOUS
 62
     6
 10
294.940310
 20
253.504693
 11
294.809156
 21
253.276451
  0
LINE
  8
CSLAYER1
  6
CONTINUOUS
 62
     6
 10
294.809156
 20
253.276451
 11
294.676627
 21
253.048982
  0
LINE
  8
CSLAYER1
  6
CONTINUOUS
 62
     6
 10
294.676627
 20
253.048982
 11
294.542996
 21
252.822133
  0
LINE
  8
CSLAYER1
  6
CONTINUOUS
 62
     6
 10
294.542996
 20
252.822133
 11
294.408540
 21
252.595747
  0
LINE
  8
CSLAYER1
  6
CONTINUOUS
 62
     6
 10
294.408540
 20
252.595747
 11
294.273534
 21
252.369670
  0
LINE
  8
CSLAYER1
  6
CONTINUOUS
 62
     6
 10
294.273534
 20
252.369670
 11
294.138252
 21
252.143749
  0
ARC
  8
CSLAYER1
  6
CONTINUOUS
 62
     6
 10
295.172655
 20
252.752104
 40
1.200008
 50
210.461486
 51
270.461486
  0
ARC
  8
CSLAYER1
  6
CONTINUOUS
 62
     6
 10
296.216691
 20
252.160489
 40
1.200008
 50
210.461486
 51
270.461486
  0
ARC
  8
CSLAYER1
  6
CONTINUOUS
 62
     6
 10
295.191985
 20
250.352165
 40
1.200008
 50
30.461486
 51
90.461486
  0
LINE
  8
CSLAYER1
  6
CONTINUOUS
 62
     6
 10
296.226357
 20
250.960522
 11
296.369143
 21
251.199417
  0
LINE
  8
CSLAYER1
  6
CONTINUOUS
 62
     6
 10
296.369143
 20
251.199417
 11
296.511648
 21
251.438472
  0
LINE
  8
CSLAYER1
  6
CONTINUOUS
 62
     6
 10
296.511648
 20
251.438472
 11
296.653592
 21
251.677843
  0
LINE
  8
CSLAYER1
  6
CONTINUOUS
 62
     6
 10
296.653592
 20
251.677843
 11
296.794693
 21
251.917691
  0
LINE
  8
CSLAYER1
  6
CONTINUOUS
 62
     6
 10
296.794693
 20
251.917691
 11
296.934672
 21
252.158172
  0
LINE
  8
CSLAYER1
  6
CONTINUOUS
 62
     6
 10
296.934672
 20
252.158172
 11
297.073246
 21
252.399448
  0
LINE
  8
CSLAYER1
  6
CONTINUOUS
 62
     6
 10
297.073246
 20
252.399448
 11
297.210137
 21
252.641674
  0
LINE
  8
CSLAYER1
  6
CONTINUOUS
 62
     6
 10
297.210137
 20
252.641674
 11
297.345061
 21
252.885012
  0
LINE
  8
CSLAYER1
  6
CONTINUOUS
 62
     6
 10
297.345061
 20
252.885012
 11
297.477740
 21
253.129618
  0
LINE
  8
CSLAYER1
  6
CONTINUOUS
 62
     6
 10
297.477740
 20
253.129618
 11
297.607892
 21
253.375651
  0
LINE
  8
CSLAYER1
  6
CONTINUOUS
 62
     6
 10
297.607892
 20
253.375651
 11
297.735237
 21
253.623272
  0
LINE
  8
CSLAYER1
  6
CONTINUOUS
 62
     6
 10
297.735237
 20
253.623272
 11
297.884911
 21
253.924093
  0
LINE
  8
CSLAYER1
  6
CONTINUOUS
 62
     6
 10
297.884911
 20
253.924093
 11
298.031866
 21
254.230474
  0
LINE
  8
CSLAYER1
  6
CONTINUOUS
 62
     6
 10
298.031866
 20
254.230474
 11
298.175232
 21
254.541156
  0
LINE
  8
CSLAYER1
  6
CONTINUOUS
 62
     6
 10
298.175232
 20
254.541156
 11
298.314141
 21
254.854880
  0
LINE
  8
CSLAYER1
  6
CONTINUOUS
 62
     6
 10
298.314141
 20
254.854880
 11
298.447724
 21
255.170386
  0
LINE
  8
CSLAYER1
  6
CONTINUOUS
 62
     6
 10
298.447724
 20
255.170386
 11
298.575111
 21
255.486414
  0
LINE
  8
CSLAYER1
  6
CONTINUOUS
 62
     6
 10
298.575111
 20
255.486414
 11
298.695433
 21
255.801706
  0
LINE
  8
CSLAYER1
  6
CONTINUOUS
 62
     6
 10
298.695433
 20
255.801706
 11
298.807821
 21
256.115001
  0
LINE
  8
CSLAYER1
  6
CONTINUOUS
 62
     6
 10
298.807821
 20
256.115001
 11
298.911406
 21
256.425040
  0
LINE
  8
CSLAYER1
  6
CONTINUOUS
 62
     6
 10
298.911406
 20
256.425040
 11
299.005320
 21
256.730565
  0
LINE
  8
CSLAYER1
  6
CONTINUOUS
 62
     6
 10
299.005320
 20
256.730565
 11
299.088692
 21
257.030315
  0
LINE
  8
CSLAYER1
  6
CONTINUOUS
 62
     6
 10
299.088692
 20
257.030315
 11
299.167109
 21
257.332731
  0
LINE
  8
CSLAYER1
  6
CONTINUOUS
 62
     6
 10
299.167109
 20
257.332731
 11
299.247173
 21
257.649533
  0
LINE
  8
CSLAYER1
  6
CONTINUOUS
 62
     6
 10
299.247173
 20
257.649533
 11
299.327690
 21
257.977324
  0
LINE
  8
CSLAYER1
  6
CONTINUOUS
 62
     6
 10
299.327690
 20
257.977324
 11
299.407464
 21
258.312709
  0
LINE
  8
CSLAYER1
  6
CONTINUOUS
 62
     6
 10
299.407464
 20
258.312709
 11
299.485300
 21
258.652293
  0
LINE
  8
CSLAYER1
  6
CONTINUOUS
 62
     6
 10
299.485300
 20
258.652293
 11
299.560003
 21
258.992681
  0
LINE
  8
CSLAYER1
  6
CONTINUOUS
 62
     6
 10
299.560003
 20
258.992681
 11
299.630379
 21
259.330477
  0
LINE
  8
CSLAYER1
  6
CONTINUOUS
 62
     6
 10
299.630379
 20
259.330477
 11
299.695232
 21
259.662286
  0
LINE
  8
CSLAYER1
  6
CONTINUOUS
 62
     6
 10
299.695232
 20
259.662286
 11
299.753367
 21
259.984713
  0
LINE
  8
CSLAYER1
  6
CONTINUOUS
 62
     6
 10
299.753367
 20
259.984713
 11
299.918484
 21
261.002757
  0
LINE
  8
CSLAYER1
  6
CONTINUOUS
 62
     6
 10
300.813959
 20
261.955516
 11
300.758874
 21
262.585338
  0
ARC
  8
CSLAYER1
  6
CONTINUOUS
 62
     6
 10
300.958124
 20
262.602763
 40
0.200000
 50
90.000003
 51
185.000154
  0
ARC
  8
CSLAYER1
  6
CONTINUOUS
 62
     6
 10
300.689874
 20
262.902751
 40
0.100000
 50
180.000005
 51
270.000001
  0
LINE
  8
CSLAYER1
  6
CONTINUOUS
 62
     6
 10
300.589837
 20
262.902751
 11
300.589837
 21
263.402751
  0
ARC
  8
CSLAYER1
  6
CONTINUOUS
 62
     6
 10
300.689874
 20
263.402751
 40
0.100000
 50
90.000003
 51
180.000005
  0
LINE
  8
CSLAYER1
  6
CONTINUOUS
 62
     6
 10
300.689874
 20
262.802745
 11
303.489862
 21
262.802745
  0
LINE
  8
CSLAYER1
  6
CONTINUOUS
 62
     6
 10
303.489862
 20
262.802745
 11
306.289850
 21
262.802776
  0
ARC
  8
CSLAYER1
  6
CONTINUOUS
 62
     6
 10
306.289850
 20
262.902751
 40
0.100000
 50
270.000001
 51
359.942691
  0
LINE
  8
CSLAYER1
  6
CONTINUOUS
 62
     6
 10
306.389825
 20
262.902751
 11
306.389825
 21
263.402751
  0
ARC
  8
CSLAYER1
  6
CONTINUOUS
 62
     6
 10
306.289850
 20
263.402751
 40
0.100000
 50
0.000010
 51
90.000016
  0
ARC
  8
CSLAYER1
  6
CONTINUOUS
 62
     6
 10
306.021600
 20
262.602763
 40
0.200000
 50
-5.000126
 51
90.000019
  0
LINE
  8
CSLAYER1
  6
CONTINUOUS
 62
     6
 10
306.220819
 20
262.585338
 11
306.165704
 21
261.955516
  0
ARC
  8
CSLAYER1
  6
CONTINUOUS
 62
     6
 10
305.169519
 20
262.042674
 40
1.000000
 50
286.257408
 51
354.999902
  0
ARC
  8
CSLAYER1
  6
CONTINUOUS
 62
     6
 10
303.489862
 20
267.802745
 40
7.000000
 50
253.743003
 51
286.257026
  0
ARC
  8
CSLAYER1
  6
CONTINUOUS
 62
     6
 10
301.810174
 20
262.042674
 40
1.000000
 50
185.000113
 51
253.742620
  0
LINE
  8
CSLAYER1
  6
CONTINUOUS
 62
     6
 10
301.828487
 20
261.002757
 11
292.739862
 21
261.002757
  0
ARC
  8
CSLAYER1
  6
CONTINUOUS
 62
     6
 10
292.739862
 20
263.002757
 40
2.000000
 50
180.000000
 51
270.000000
  0
LINE
  8
CSLAYER1
  6
CONTINUOUS
 62
     6
 10
290.739862
 20
263.002757
 11
290.739862
 21
263.502757
  0
LINE
  8
CSLAYER1
  6
CONTINUOUS
 62
     6
 10
290.489862
 20
263.502757
 11
316.489862
 21
263.502757
  0
LINE
  8
CSLAYER1
  6
CONTINUOUS
 62
     6
 10
316.489862
 20
265.502757
 11
290.489862
 21
265.502757
  0
LINE
  8
CSLAYER1
  6
CONTINUOUS
 62
     6
 10
290.489862
 20
265.502757
 11
290.489862
 21
261.502757
  0
LINE
  8
CSLAYER1
  6
CONTINUOUS
 62
     6
 10
290.489862
 20
261.502757
 11
277.489862
 21
261.502757
  0
LINE
  8
CSLAYER1
  6
CONTINUOUS
 62
     6
 10
277.489862
 20
261.502757
 11
277.489862
 21
349.391216
  0
LINE
  8
CSLAYER1
  6
CONTINUOUS
 62
     6
 10
277.489862
 20
349.391216
 11
276.489862
 21
348.391216
  0
LINE
  8
CSLAYER1
  6
CONTINUOUS
 62
     6
 10
276.489862
 20
348.391216
 11
276.489862
 21
262.502757
  0
LINE
  8
CSLAYER1
  6
CONTINUOUS
 62
     6
 10
276.489862
 20
262.502757
 11
277.489862
 21
261.502757
  0
ARC
  8
CSLAYER1
  6
CONTINUOUS
 62
     6
 10
289.474619
 20
254.513295
 40
1.095863
 50
203.568976
 51
263.568976
  0
ARC
  8
CSLAYER1
  6
CONTINUOUS
 62
     6
 10
290.356320
 20
253.862511
 40
1.095863
 50
203.568976
 51
263.568976
  0
ARC
  8
CSLAYER1
  6
CONTINUOUS
 62
     6
 10
289.229131
 20
252.335360
 40
1.095863
 50
23.568976
 51
83.568976
  0
LINE
  8
CSLAYER1
  6
CONTINUOUS
 62
     6
 10
288.723304
 20
254.255082
 11
288.470192
 21
254.075115
  0
LINE
  8
CSLAYER1
  6
CONTINUOUS
 62
     6
 10
288.723304
 20
254.255082
 11
288.976165
 21
254.435402
  0
LINE
  8
CSLAYER1
  6
CONTINUOUS
 62
     6
 10
288.976165
 20
254.435402
 11
289.228524
 21
254.616427
  0
LINE
  8
CSLAYER1
  6
CONTINUOUS
 62
     6
 10
289.228524
 20
254.616427
 11
289.480133
 21
254.798511
  0
LINE
  8
CSLAYER1
  6
CONTINUOUS
 62
     6
 10
289.480133
 20
254.798511
 11
289.730738
 21
254.982006
  0
LINE
  8
CSLAYER1
  6
CONTINUOUS
 62
     6
 10
289.730738
 20
254.982006
 11
289.980091
 21
255.167265
  0
LINE
  8
CSLAYER1
  6
CONTINUOUS
 62
     6
 10
289.980091
 20
255.167265
 11
290.227940
 21
255.354641
  0
LINE
  8
CSLAYER1
  6
CONTINUOUS
 62
     6
 10
290.227940
 20
255.354641
 11
290.474034
 21
255.544486
  0
LINE
  8
CSLAYER1
  6
CONTINUOUS
 62
     6
 10
290.474034
 20
255.544486
 11
290.718124
 21
255.737153
  0
LINE
  8
CSLAYER1
  6
CONTINUOUS
 62
     6
 10
290.718124
 20
255.737153
 11
290.959959
 21
255.932995
  0
LINE
  8
CSLAYER1
  6
CONTINUOUS
 62
     6
 10
290.959959
 20
255.932995
 11
291.199287
 21
256.132366
  0
LINE
  8
CSLAYER1
  6
CONTINUOUS
 62
     6
 10
291.199287
 20
256.132366
 11
291.356552
 21
256.266662
  0
LINE
  8
CSLAYER1
  6
CONTINUOUS
 62
     6
 10
291.356552
 20
256.266662
 11
291.513601
 21
256.403687
  0
LINE
  8
CSLAYER1
  6
CONTINUOUS
 62
     6
 10
291.513601
 20
256.403687
 11
291.669692
 21
256.543246
  0
LINE
  8
CSLAYER1
  6
CONTINUOUS
 62
     6
 10
291.669692
 20
256.543246
 11
291.824081
 21
256.685149
  0
LINE
  8
CSLAYER1
  6
CONTINUOUS
 62
     6
 10
291.824081
 20
256.685149
 11
291.976026
 21
256.829201
  0
LINE
  8
CSLAYER1
  6
CONTINUOUS
 62
     6
 10
291.976026
 20
256.829201
 11
292.124783
 21
256.975211
  0
LINE
  8
CSLAYER1
  6
CONTINUOUS
 62
     6
 10
292.124783
 20
256.975211
 11
292.269609
 21
257.122986
  0
LINE
  8
CSLAYER1
  6
CONTINUOUS
 62
     6
 10
292.269609
 20
257.122986
 11
292.409762
 21
257.272334
  0
LINE
  8
CSLAYER1
  6
CONTINUOUS
 62
     6
 10
292.409762
 20
257.272334
 11
292.544497
 21
257.423061
  0
LINE
  8
CSLAYER1
  6
CONTINUOUS
 62
     6
 10
292.544497
 20
257.423061
 11
292.673073
 21
257.574976
  0
LINE
  8
CSLAYER1
  6
CONTINUOUS
 62
     6
 10
292.673073
 20
257.574976
 11
292.794746
 21
257.727886
  0
LINE
  8
CSLAYER1
  6
CONTINUOUS
 62
     6
 10
292.794746
 20
257.727886
 11
292.909201
 21
257.879212
  0
LINE
  8
CSLAYER1
  6
CONTINUOUS
 62
     6
 10
292.909201
 20
257.879212
 11
293.024501
 21
258.036465
  0
LINE
  8
CSLAYER1
  6
CONTINUOUS
 62
     6
 10
293.024501
 20
258.036465
 11
293.140114
 21
258.198523
  0
LINE
  8
CSLAYER1
  6
CONTINUOUS
 62
     6
 10
293.140114
 20
258.198523
 11
293.255507
 21
258.364263
  0
LINE
  8
CSLAYER1
  6
CONTINUOUS
 62
     6
 10
293.255507
 20
258.364263
 11
293.370147
 21
258.532562
  0
LINE
  8
CSLAYER1
  6
CONTINUOUS
 62
     6
 10
293.370147
 20
258.532562
 11
293.483501
 21
258.702299
  0
LINE
  8
CSLAYER1
  6
CONTINUOUS
 62
     6
 10
293.483501
 20
258.702299
 11
293.595037
 21
258.872349
  0
LINE
  8
CSLAYER1
  6
CONTINUOUS
 62
     6
 10
293.595037
 20
258.872349
 11
293.704221
 21
259.041592
  0
LINE
  8
CSLAYER1
  6
CONTINUOUS
 62
     6
 10
293.704221
 20
259.041592
 11
293.810521
 21
259.208904
  0
LINE
  8
CSLAYER1
  6
CONTINUOUS
 62
     6
 10
293.810521
 20
259.208904
 11
293.913404
 21
259.373162
  0
LINE
  8
CSLAYER1
  6
CONTINUOUS
 62
     6
 10
293.913404
 20
259.373162
 11
294.012337
 21
259.533245
  0
LINE
  8
CSLAYER1
  6
CONTINUOUS
 62
     6
 10
294.012337
 20
259.533245
 11
294.098811
 21
259.671470
  0
LINE
  8
CSLAYER1
  6
CONTINUOUS
 62
     6
 10
294.098811
 20
259.671470
 11
294.190762
 21
259.813929
  0
LINE
  8
CSLAYER1
  6
CONTINUOUS
 62
     6
 10
294.190762
 20
259.813929
 11
294.286962
 21
259.959408
  0
LINE
  8
CSLAYER1
  6
CONTINUOUS
 62
     6
 10
294.286962
 20
259.959408
 11
294.386181
 21
260.106699
  0
LINE
  8
CSLAYER1
  6
CONTINUOUS
 62
     6
 10
294.386181
 20
260.106699
 11
294.487190
 21
260.254588
  0
LINE
  8
CSLAYER1
  6
CONTINUOUS
 62
     6
 10
294.487190
 20
260.254588
 11
294.588758
 21
260.401867
  0
LINE
  8
CSLAYER1
  6
CONTINUOUS
 62
     6
 10
294.588758
 20
260.401867
 11
294.689656
 21
260.547324
  0
LINE
  8
CSLAYER1
  6
CONTINUOUS
 62
     6
 10
294.689656
 20
260.547324
 11
294.788654
 21
260.689747
  0
LINE
  8
CSLAYER1
  6
CONTINUOUS
 62
     6
 10
294.788654
 20
260.689747
 11
294.884524
 21
260.827927
  0
LINE
  8
CSLAYER1
  6
CONTINUOUS
 62
     6
 10
294.884524
 20
260.827927
 11
295.005066
 21
261.002757
  0
LINE
  8
CSLAYER1
  6
CONTINUOUS
 62
     6
 10
297.411921
 20
260.518243
 11
297.357354
 21
260.213961
  0
LINE
  8
CSLAYER1
  6
CONTINUOUS
 62
     6
 10
297.411921
 20
260.518243
 11
297.489862
 21
261.002757
  0
LINE
  8
CSLAYER1
  6
CONTINUOUS
 62
     6
 10
303.141900
 20
263.502757
 11
303.585779
 21
262.802776
  0
LINE
  8
CSLAYER1
  6
CONTINUOUS
 62
     6
 10
304.085779
 20
262.802776
 11
303.641900
 21
263.502757
  0
LINE
  8
CSLAYER1
  6
CONTINUOUS
 62
     6
 10
316.489862
 20
261.502757
 11
316.489862
 21
265.502757
  0
LINE
  8
CSLAYER1
  6
CONTINUOUS
 62
     6
 10
316.489862
 20
261.502757
 11
329.489862
 21
261.502757
  0
LINE
  8
CSLAYER1
  6
CONTINUOUS
 62
     6
 10
329.489862
 20
260.502757
 11
329.489862
 21
350.502757
  0
LINE
  8
CSLAYER1
  6
CONTINUOUS
 62
     6
 10
329.489862
 20
350.502757
 11
420.989862
 21
350.502757
  0
ARC
  8
CSLAYER1
  6
CONTINUOUS
 62
     6
 10
420.989862
 20
360.502757
 40
10.000000
 50
270.000000
 51
360.000000
  0
ARC
  8
CSLAYER1
  6
CONTINUOUS
 62
     6
 10
420.989862
 20
352.002757
 40
10.000000
 50
270.000000
 51
360.000000
  0
ARC
  8
CSLAYER1
  6
CONTINUOUS
 62
     6
 10
420.989862
 20
343.502757
 40
10.000000
 50
270.000000
 51
360.000000
  0
ARC
  8
CSLAYER1
  6
CONTINUOUS
 62
     6
 10
460.731181
 20
345.413163
 40
0.241380
 50
180.000000
 51
270.000003
  0
LINE
  8
CSLAYER1
  6
CONTINUOUS
 62
     6
 10
460.731181
 20
345.171768
 11
461.938080
 21
345.171768
  0
ARC
  8
CSLAYER1
  6
CONTINUOUS
 62
     6
 10
461.938080
 20
345.413163
 40
0.241380
 50
-89.999997
 51
0.000005
  0
LINE
  8
CSLAYER1
  6
CONTINUOUS
 62
     6
 10
462.179401
 20
345.413163
 11
462.179401
 21
358.930374
  0
ARC
  8
CSLAYER1
  6
CONTINUOUS
 62
     6
 10
461.938080
 20
358.930374
 40
0.241380
 50
0.000005
 51
90.000001
  0
LINE
  8
CSLAYER1
  6
CONTINUOUS
 62
     6
 10
461.938080
 20
359.171768
 11
460.731181
 21
359.171768
  0
ARC
  8
CSLAYER1
  6
CONTINUOUS
 62
     6
 10
460.731181
 20
358.930374
 40
0.241380
 50
90.000001
 51
179.942691
  0
ARC
  8
CSLAYER1
  6
CONTINUOUS
 62
     6
 10
462.662190
 20
358.282873
 40
0.482760
 50
84.999865
 51
179.942691
  0
LINE
  8
CSLAYER1
  6
CONTINUOUS
 62
     6
 10
462.704325
 20
358.763784
 11
464.224588
 21
358.630785
  0
ARC
  8
CSLAYER1
  6
CONTINUOUS
 62
     6
 10
464.014205
 20
356.226158
 40
2.413798
 50
16.257399
 51
84.999892
  0
ARC
  8
CSLAYER1
  6
CONTINUOUS
 62
     6
 10
450.110410
 20
352.171768
 40
16.896587
 50
-16.257006
 51
16.257016
  0
ARC
  8
CSLAYER1
  6
CONTINUOUS
 62
     6
 10
464.014205
 20
348.117378
 40
2.413798
 50
275.000111
 51
343.742611
  0
LINE
  8
CSLAYER1
  6
CONTINUOUS
 62
     6
 10
464.224588
 20
345.712751
 11
462.704325
 21
345.579752
  0
ARC
  8
CSLAYER1
  6
CONTINUOUS
 62
     6
 10
462.662190
 20
346.060663
 40
0.482760
 50
180.000000
 51
275.000152
  0
LINE
  8
CSLAYER1
  6
CONTINUOUS
 62
     6
 10
460.489862
 20
348.391216
 11
460.489862
 21
262.502757
  0
LINE
  8
CSLAYER1
  6
CONTINUOUS
 62
     6
 10
462.179401
 20
260.272133
 11
460.489786
 21
259.200737
  0
LINE
  8
CSLAYER1
  6
CONTINUOUS
 62
     6
 10
460.489786
 20
257.993838
 11
462.179401
 21
259.065233
  0
LINE
  8
CSLAYER1
  6
CONTINUOUS
 62
     6
 10
460.489801
 20
255.518905
 11
460.489801
 21
378.502757
  0
LINE
  8
CSLAYER1
  6
CONTINUOUS
 62
     6
 10
460.489801
 20
378.502757
 11
459.489801
 21
379.502757
  0
LINE
  8
CSLAYER1
  6
CONTINUOUS
 62
     6
 10
459.489801
 20
379.502757
 11
432.989862
 21
379.502757
  0
ARC
  8
CSLAYER1
  6
CONTINUOUS
 62
     6
 10
432.989862
 20
377.502757
 40
2.000000
 50
90.000000
 51
180.000000
  0
LINE
  8
CSLAYER1
  6
CONTINUOUS
 62
     6
 10
430.989862
 20
377.502757
 11
430.989862
 21
309.690323
  0
ARC
  8
CSLAYER1
  6
CONTINUOUS
 62
     6
 10
410.989862
 20
309.690323
 40
20.000000
 50
-23.651313
 51
0.000000
  0
LINE
  8
CSLAYER1
  6
CONTINUOUS
 62
     6
 10
429.309938
 20
301.666932
 11
401.990526
 21
239.287607
  0
ARC
  8
CSLAYER1
  6
CONTINUOUS
 62
     6
 10
398.326511
 20
240.892286
 40
4.000000
 50
272.454032
 51
336.348687
  0
LINE
  8
CSLAYER1
  6
CONTINUOUS
 62
     6
 10
398.497782
 20
236.895954
 11
368.404226
 21
235.584802
  0
ARC
  8
CSLAYER1
  6
CONTINUOUS
 62
     6
 10
368.489862
 20
233.586636
 40
2.000000
 50
92.454032
 51
180.000000
  0
LINE
  8
CSLAYER1
  6
CONTINUOUS
 62
     6
 10
366.489862
 20
233.586636
 11
366.489862
 21
215.502757
  0
LINE
  8
CSLAYER1
  6
CONTINUOUS
 62
     6
 10
366.489862
 20
215.502757
 11
516.489862
 21
215.502757
  0
LINE
  8
CSLAYER1
  6
CONTINUOUS
 62
     6
 10
516.489862
 20
215.502757
 11
516.489862
 21
233.586636
  0
ARC
  8
CSLAYER1
  6
CONTINUOUS
 62
     6
 10
514.489862
 20
233.586636
 40
2.000000
 50
0.000000
 51
87.545968
  0
LINE
  8
CSLAYER1
  6
CONTINUOUS
 62
     6
 10
514.575498
 20
235.584802
 11
481.489862
 21
237.002757
  0
LINE
  8
CSLAYER1
  6
CONTINUOUS
 62
     6
 10
480.989862
 20
237.002757
 11
453.286946
 21
262.024697
  0
ARC
  8
CSLAYER1
  6
CONTINUOUS
 62
     6
 10
459.989801
 20
269.445730
 40
10.000000
 50
180.000000
 51
227.910894
  0
LINE
  8
CSLAYER1
  6
CONTINUOUS
 62
     6
 10
449.989801
 20
269.445730
 11
449.989801
 21
305.502757
  0
LINE
  8
CSLAYER1
  6
CONTINUOUS
 62
     6
 10
430.989862
 20
310.502757
 11
424.989862
 21
310.502757
  0
ARC
  8
CSLAYER1
  6
CONTINUOUS
 62
     6
 10
424.989862
 20
314.502757
 40
4.000000
 50
180.000000
 51
270.000000
  0
LINE
  8
CSLAYER1
  6
CONTINUOUS
 62
     6
 10
424.989862
 20
300.502757
 11
428.800081
 21
300.502757
  0
ARC
  8
CSLAYER1
  6
CONTINUOUS
 62
     6
 10
424.989862
 20
296.502757
 40
4.000000
 50
90.000000
 51
180.000000
  0
LINE
  8
CSLAYER1
  6
CONTINUOUS
 62
     6
 10
451.489801
 20
264.177903
 11
451.489801
 21
379.502757
  0
LINE
  8
CSLAYER1
  6
CONTINUOUS
 62
     6
 10
460.489801
 20
363.002757
 11
485.489862
 21
363.002757
  0
ARC
  8
CSLAYER1
  6
CONTINUOUS
 62
     6
 10
485.489862
 20
359.002757
 40
4.000000
 50
0.000000
 51
90.000000
  0
LINE
  8
CSLAYER1
  6
CONTINUOUS
 62
     6
 10
489.489862
 20
359.002757
 11
489.489862
 21
252.002757
  0
ARC
  8
CSLAYER1
  6
CONTINUOUS
 62
     6
 10
485.489862
 20
252.002757
 40
4.000000
 50
270.000000
 51
360.000000
  0
LINE
  8
CSLAYER1
  6
CONTINUOUS
 62
     6
 10
485.489862
 20
248.002757
 11
468.481065
 21
248.002757
  0
LINE
  8
CSLAYER1
  6
CONTINUOUS
 62
     6
 10
464.224588
 20
252.374656
 11
463.993339
 21
252.354425
  0
ARC
  8
CSLAYER1
  6
CONTINUOUS
 62
     6
 10
464.014205
 20
254.779283
 40
2.413798
 50
275.000111
 51
343.742611
  0
ARC
  8
CSLAYER1
  6
CONTINUOUS
 62
     6
 10
450.110410
 20
258.833673
 40
16.896587
 50
-16.257006
 51
16.257016
  0
ARC
  8
CSLAYER1
  6
CONTINUOUS
 62
     6
 10
464.014205
 20
262.888063
 40
2.413798
 50
16.257399
 51
84.999892
  0
LINE
  8
CSLAYER1
  6
CONTINUOUS
 62
     6
 10
464.224588
 20
265.292690
 11
462.704325
 21
265.425689
  0
ARC
  8
CSLAYER1
  6
CONTINUOUS
 62
     6
 10
462.662190
 20
264.944778
 40
0.482760
 50
84.999865
 51
179.942691
  0
LINE
  8
CSLAYER1
  6
CONTINUOUS
 62
     6
 10
462.179401
 20
265.592278
 11
462.179401
 21
253.992818
  0
ARC
  8
CSLAYER1
  6
CONTINUOUS
 62
     6
 10
461.938080
 20
265.592278
 40
0.241380
 50
0.000005
 51
90.000001
  0
LINE
  8
CSLAYER1
  6
CONTINUOUS
 62
     6
 10
461.938080
 20
265.833673
 11
460.731181
 21
265.833673
  0
ARC
  8
CSLAYER1
  6
CONTINUOUS
 62
     6
 10
460.731181
 20
265.592278
 40
0.241380
 50
90.000001
 51
179.942691
  0
ARC
  8
CSLAYER1
  6
CONTINUOUS
 62
     6
 10
493.489862
 20
266.502757
 40
4.000000
 50
90.000000
 51
180.000000
  0
LINE
  8
CSLAYER1
  6
CONTINUOUS
 62
     6
 10
493.489862
 20
270.502757
 11
526.489862
 21
270.502757
  0
ARC
  8
CSLAYER1
  6
CONTINUOUS
 62
     6
 10
526.489862
 20
272.502757
 40
2.000000
 50
270.000000
 51
360.000000
  0
LINE
  8
CSLAYER1
  6
CONTINUOUS
 62
     6
 10
528.489862
 20
272.502757
 11
528.489862
 21
338.502757
  0
ARC
  8
CSLAYER1
  6
CONTINUOUS
 62
     6
 10
526.489862
 20
338.502757
 40
2.000000
 50
0.000000
 51
90.000000
  0
LINE
  8
CSLAYER1
  6
CONTINUOUS
 62
     6
 10
526.489862
 20
340.502757
 11
493.489862
 21
340.502757
  0
ARC
  8
CSLAYER1
  6
CONTINUOUS
 62
     6
 10
493.489862
 20
344.502757
 40
4.000000
 50
180.000000
 51
270.000000
  0
LINE
  8
CSLAYER1
  6
CONTINUOUS
 62
     6
 10
517.489862
 20
340.502757
 11
517.489862
 21
270.502757
  0
ARC
  8
CSLAYER1
  6
CONTINUOUS
 62
     6
 10
528.489862
 20
286.502757
 40
1.000000
 50
270.000000
 51
360.000000
  0
LINE
  8
CSLAYER1
  6
CONTINUOUS
 62
     6
 10
529.489862
 20
286.502757
 11
529.489862
 21
324.502757
  0
ARC
  8
CSLAYER1
  6
CONTINUOUS
 62
     6
 10
528.489862
 20
324.502757
 40
1.000000
 50
0.000000
 51
90.000000
  0
ARC
  8
CSLAYER1
  6
CONTINUOUS
 62
     6
 10
529.489862
 20
316.502757
 40
1.000000
 50
0.000000
 51
90.000000
  0
LINE
  8
CSLAYER1
  6
CONTINUOUS
 62
     6
 10
530.489862
 20
316.502757
 11
530.489862
 21
294.502757
  0
ARC
  8
CSLAYER1
  6
CONTINUOUS
 62
     6
 10
529.489862
 20
294.502757
 40
1.000000
 50
270.000000
 51
360.000000
  0
LINE
  8
CSLAYER1
  6
CONTINUOUS
 62
     6
 10
530.489862
 20
295.502757
 11
566.489862
 21
295.502757
  0
LINE
  8
CSLAYER1
  6
CONTINUOUS
 62
     6
 10
566.489862
 20
295.502757
 11
566.489862
 21
315.502757
  0
LINE
  8
CSLAYER1
  6
CONTINUOUS
 62
     6
 10
566.489862
 20
315.502757
 11
530.489862
 21
315.502757
  0
LINE
  8
CSLAYER1
  6
CONTINUOUS
 62
     6
 10
536.989862
 20
308.002757
 11
566.489862
 21
308.002757
  0
LINE
  8
CSLAYER1
  6
CONTINUOUS
 62
     6
 10
566.489862
 20
303.002757
 11
536.989862
 21
303.002757
  0
ARC
  8
CSLAYER1
  6
CONTINUOUS
 62
     6
 10
536.989862
 20
305.502757
 40
2.500000
 50
90.000000
 51
270.000000
  0
LINE
  8
CSLAYER1
  6
CONTINUOUS
 62
     6
 10
623.104499
 20
305.502757
 11
617.104499
 21
235.584802
  0
LINE
  8
CSLAYER1
  6
CONTINUOUS
 62
     6
 10
617.104499
 20
235.584802
 11
617.104499
 21
215.502757
  0
LINE
  8
CSLAYER1
  6
CONTINUOUS
 62
     6
 10
617.104499
 20
215.502757
 11
667.104499
 21
215.502757
  0
LINE
  8
CSLAYER1
  6
CONTINUOUS
 62
     6
 10
667.104499
 20
215.502757
 11
667.104499
 21
227.836806
  0
ARC
  8
CSLAYER1
  6
CONTINUOUS
 62
     6
 10
665.104499
 20
227.836806
 40
2.000000
 50
0.000000
 51
67.607312
  0
ARC
  8
CSLAYER1
  6
CONTINUOUS
 62
     6
 10
697.104499
 20
305.502757
 40
82.000000
 50
238.888805
 51
247.607312
  0
ARC
  8
CSLAYER1
  6
CONTINUOUS
 62
     6
 10
653.701646
 20
233.584802
 40
2.000000
 50
58.888805
 51
90.000000
  0
LINE
  8
CSLAYER1
  6
CONTINUOUS
 62
     6
 10
653.701646
 20
235.584802
 11
619.104499
 21
235.584802
  0
ARC
  8
CSLAYER1
  6
CONTINUOUS
 62
     6
 10
619.104499
 20
233.584802
 40
2.000000
 50
90.000000
 51
180.000000
  0
LINE
  8
CSLAYER1
  6
DASHED
 62
     6
 10
626.104499
 20
235.584802
 11
626.104499
 21
215.502757
  0
LINE
  8
CSLAYER1
  6
CONTINUOUS
 62
     6
 10
627.513860
 20
239.926804
 11
629.790506
 21
266.456537
  0
ARC
  8
CSLAYER1
  6
CONTINUOUS
 62
     6
 10
631.783182
 20
266.285535
 40
2.000000
 50
114.788747
 51
175.095187
  0
ARC
  8
CSLAYER1
  6
CONTINUOUS
 62
     6
 10
650.435442
 20
258.833678
 40
3.888889
 50
163.398423
 51
196.601584
  0
LINE
  8
CSLAYER1
  6
CONTINUOUS
 62
     6
 10
646.708679
 20
257.722554
 11
648.213192
 21
257.722554
  0
ARC
  8
CSLAYER1
  6
CONTINUOUS
 62
     6
 10
648.213192
 20
256.611487
 40
1.111111
 50
-0.000005
 51
89.999984
  0
LINE
  8
CSLAYER1
  6
CONTINUOUS
 62
     6
 10
649.324317
 20
256.611487
 11
649.324317
 21
255.106858
  0
ARC
  8
CSLAYER1
  6
CONTINUOUS
 62
     6
 10
650.435442
 20
258.833678
 40
3.888889
 50
253.398405
 51
286.601594
  0
LINE
  8
CSLAYER1
  6
CONTINUOUS
 62
     6
 10
651.546567
 20
255.106858
 11
651.546567
 21
256.611487
  0
ARC
  8
CSLAYER1
  6
CONTINUOUS
 62
     6
 10
652.657692
 20
256.611487
 40
1.111111
 50
89.999984
 51
179.999990
  0
LINE
  8
CSLAYER1
  6
CONTINUOUS
 62
     6
 10
652.657692
 20
257.722554
 11
654.162205
 21
257.722554
  0
ARC
  8
CSLAYER1
  6
CONTINUOUS
 62
     6
 10
650.435442
 20
258.833678
 40
3.888889
 50
-16.601572
 51
16.601562
  0
LINE
  8
CSLAYER1
  6
CONTINUOUS
 62
     6
 10
654.162205
 20
259.944803
 11
652.657692
 21
259.944803
  0
ARC
  8
CSLAYER1
  6
CONTINUOUS
 62
     6
 10
652.657692
 20
261.055870
 40
1.111111
 50
180.057309
 51
269.999999
  0
LINE
  8
CSLAYER1
  6
CONTINUOUS
 62
     6
 10
651.546567
 20
261.055870
 11
651.546567
 21
262.560499
  0
ARC
  8
CSLAYER1
  6
CONTINUOUS
 62
     6
 10
650.435442
 20
258.833678
 40
3.888889
 50
73.398417
 51
106.601578
  0
LINE
  8
CSLAYER1
  6
CONTINUOUS
 62
     6
 10
649.324317
 20
262.560499
 11
649.324317
 21
261.055870
  0
ARC
  8
CSLAYER1
  6
CONTINUOUS
 62
     6
 10
648.213192
 20
261.055870
 40
1.111111
 50
270.057346
 51
359.999995
  0
LINE
  8
CSLAYER1
  6
CONTINUOUS
 62
     6
 10
648.213192
 20
259.944803
 11
646.708679
 21
259.944803
  0
CIRCLE
  8
CSLAYER1
  6
CONTINUOUS
 62
     6
 10
650.435468
 20
258.833680
 40
7.000000
  0
LINE
  8
CSLAYER1
  6
DASHED
 62
     6
 10
638.104499
 20
235.584802
 11
638.104499
 21
215.502757
  0
ARC
  8
CSLAYER1
  6
CONTINUOUS
 62
     6
 10
631.499213
 20
239.584802
 40
4.000000
 50
175.095187
 51
270.000000
  0
LINE
  8
CSLAYER1
  6
DASHED
 62
     6
 10
512.989862
 20
235.652757
 11
512.989862
 21
235.584802
  0
LINE
  8
CSLAYER1
  6
DASHED
 62
     6
 10
512.989862
 20
235.584802
 11
489.989862
 21
235.584802
  0
LINE
  8
CSLAYER1
  6
DASHED
 62
     6
 10
489.989862
 20
235.584802
 11
489.989862
 21
236.638472
  0
LINE
  8
CSLAYER1
  6
DASHED
 62
     6
 10
495.489862
 20
236.402757
 11
495.489862
 21
215.502757
  0
LINE
  8
CSLAYER1
  6
DASHED
 62
     6
 10
507.489862
 20
215.502757
 11
507.489862
 21
235.888472
  0
LINE
  8
CSLAYER1
  6
CONTINUOUS
 62
     6
 10
501.489862
 20
195.502757
 11
381.489862
 21
195.502757
  0
ARC
  8
CSLAYER1
  6
CONTINUOUS
 62
     6
 10
381.489862
 20
180.502757
 40
15.000000
 50
90.000000
 51
180.000000
  0
LINE
  8
CSLAYER1
  6
CONTINUOUS
 62
     6
 10
366.489862
 20
180.502757
 11
366.489862
 21
160.502757
  0
ARC
  8
CSLAYER1
  6
CONTINUOUS
 62
     6
 10
381.489862
 20
160.502757
 40
15.000000
 50
180.000000
 51
270.000000
  0
LINE
  8
CSLAYER1
  6
CONTINUOUS
 62
     6
 10
381.489862
 20
145.502757
 11
501.489862
 21
145.502757
  0
ARC
  8
CSLAYER1
  6
CONTINUOUS
 62
     6
 10
501.489862
 20
160.502757
 40
15.000000
 50
270.000000
 51
360.000000
  0
LINE
  8
CSLAYER1
  6
CONTINUOUS
 62
     6
 10
516.489862
 20
160.502757
 11
516.489862
 21
180.502757
  0
ARC
  8
CSLAYER1
  6
CONTINUOUS
 62
     6
 10
501.489862
 20
180.502757
 40
15.000000
 50
0.000000
 51
90.000000
  0
CIRCLE
  8
CSLAYER1
  6
CONTINUOUS
 62
     6
 10
501.489862
 20
180.502757
 40
6.000000
  0
CIRCLE
  8
CSLAYER1
  6
DASHED
 62
     6
 10
501.489862
 20
180.502757
 40
11.500000
  0
LINE
  8
CSLAYER1
  6
CONTINUOUS
 62
     6
 10
512.670202
 20
150.502757
 11
526.489862
 21
150.502757
  0
ARC
  8
CSLAYER1
  6
CONTINUOUS
 62
     6
 10
526.489862
 20
148.502757
 40
2.000000
 50
0.000000
 51
90.000000
  0
LINE
  8
CSLAYER1
  6
CONTINUOUS
 62
     6
 10
528.489862
 20
148.502757
 11
528.489862
 21
82.502757
  0
ARC
  8
CSLAYER1
  6
CONTINUOUS
 62
     6
 10
526.489862
 20
82.502757
 40
2.000000
 50
270.000000
 51
360.000000
  0
LINE
  8
CSLAYER1
  6
CONTINUOUS
 62
     6
 10
526.489862
 20
80.502757
 11
512.670202
 21
80.502757
  0
LINE
  8
CSLAYER1
  6
CONTINUOUS
 62
     6
 10
517.489862
 20
80.502757
 11
517.489862
 21
150.502757
  0
ARC
  8
CSLAYER1
  6
CONTINUOUS
 62
     6
 10
528.489862
 20
134.502757
 40
1.000000
 50
0.000000
 51
90.000000
  0
LINE
  8
CSLAYER1
  6
CONTINUOUS
 62
     6
 10
529.489862
 20
134.502757
 11
529.489862
 21
96.502757
  0
ARC
  8
CSLAYER1
  6
CONTINUOUS
 62
     6
 10
528.489862
 20
96.502757
 40
1.000000
 50
270.000000
 51
360.000000
  0
ARC
  8
CSLAYER1
  6
CONTINUOUS
 62
     6
 10
529.489862
 20
104.502757
 40
1.000000
 50
270.000000
 51
360.000000
  0
LINE
  8
CSLAYER1
  6
CONTINUOUS
 62
     6
 10
530.489862
 20
104.502757
 11
530.489862
 21
126.502757
  0
ARC
  8
CSLAYER1
  6
CONTINUOUS
 62
     6
 10
529.489862
 20
126.502757
 40
1.000000
 50
0.000000
 51
90.000000
  0
LINE
  8
CSLAYER1
  6
CONTINUOUS
 62
     6
 10
530.489862
 20
125.502757
 11
566.489862
 21
125.502757
  0
LINE
  8
CSLAYER1
  6
CONTINUOUS
 62
     6
 10
566.489862
 20
125.502757
 11
566.489862
 21
105.502757
  0
LINE
  8
CSLAYER1
  6
CONTINUOUS
 62
     6
 10
566.489862
 20
105.502757
 11
530.489862
 21
105.502757
  0
LINE
  8
CSLAYER1
  6
CONTINUOUS
 62
     6
 10
501.489862
 20
85.502757
 11
381.489862
 21
85.502757
  0
ARC
  8
CSLAYER1
  6
CONTINUOUS
 62
     6
 10
381.489862
 20
70.502757
 40
15.000000
 50
90.000000
 51
180.000000
  0
LINE
  8
CSLAYER1
  6
CONTINUOUS
 62
     6
 10
366.489862
 20
70.502757
 11
366.489862
 21
50.502757
  0
ARC
  8
CSLAYER1
  6
CONTINUOUS
 62
     6
 10
381.489862
 20
50.502757
 40
15.000000
 50
180.000000
 51
270.000000
  0
LINE
  8
CSLAYER1
  6
CONTINUOUS
 62
     6
 10
381.489862
 20
35.502757
 11
501.489862
 21
35.502757
  0
ARC
  8
CSLAYER1
  6
CONTINUOUS
 62
     6
 10
501.489862
 20
50.502757
 40
15.000000
 50
270.000000
 51
360.000000
  0
LINE
  8
CSLAYER1
  6
CONTINUOUS
 62
     6
 10
516.489862
 20
50.502757
 11
516.489862
 21
70.502757
  0
ARC
  8
CSLAYER1
  6
CONTINUOUS
 62
     6
 10
501.489862
 20
70.502757
 40
15.000000
 50
0.000000
 51
90.000000
  0
LINE
  8
CSLAYER1
  6
CONTINUOUS
 62
     6
 10
489.489862
 20
85.502757
 11
489.489862
 21
145.502757
  0
LINE
  8
CSLAYER1
  6
CONTINUOUS
 62
     6
 10
460.489862
 20
145.502757
 11
460.489862
 21
85.502757
  0
LINE
  8
CSLAYER1
  6
CONTINUOUS
 62
     6
 10
453.489862
 20
85.502757
 11
453.489862
 21
145.502757
  0
LINE
  8
CSLAYER1
  6
CONTINUOUS
 62
     6
 10
450.489862
 20
145.502757
 11
450.489862
 21
85.502757
  0
LINE
  8
CSLAYER1
  6
CONTINUOUS
 62
     6
 10
448.989862
 20
85.502757
 11
448.989862
 21
145.502757
  0
CIRCLE
  8
CSLAYER1
  6
CONTINUOUS
 62
     6
 10
501.489862
 20
50.502757
 40
6.000000
  0
CIRCLE
  8
CSLAYER1
  6
DASHED
 62
     6
 10
501.489862
 20
50.502757
 40
11.500000
  0
LINE
  8
CSLAYER1
  6
CONTINUOUS
 62
     6
 10
409.489862
 20
105.502757
 11
409.489862
 21
125.502757
  0
ARC
  8
CSLAYER1
  6
CONTINUOUS
 62
     6
 10
389.489862
 20
125.502757
 40
20.000000
 50
0.000000
 51
90.000000
  0
ARC
  8
CSLAYER1
  6
CONTINUOUS
 62
     6
 10
389.489862
 20
105.502757
 40
20.000000
 50
270.000000
 51
360.000000
  0
LINE
  8
CSLAYER1
  6
CONTINUOUS
 62
     6
 10
366.489862
 20
70.502757
 11
329.489862
 21
70.502757
  0
LINE
  8
CSLAYER1
  6
CONTINUOUS
 62
     6
 10
329.489862
 20
70.502757
 11
329.489862
 21
160.502757
  0
LINE
  8
CSLAYER1
  6
CONTINUOUS
 62
     6
 10
329.489862
 20
160.502757
 11
366.489862
 21
160.502757
  0
CIRCLE
  8
CSLAYER1
  6
CONTINUOUS
 62
     6
 10
381.489862
 20
180.502757
 40
6.000000
  0
CIRCLE
  8
CSLAYER1
  6
DASHED
 62
     6
 10
381.489862
 20
180.502757
 40
11.500000
  0
LINE
  8
CSLAYER1
  6
DASHED
 62
     6
 10
375.489862
 20
215.502757
 11
375.489862
 21
235.888472
  0
LINE
  8
CSLAYER1
  6
DASHED
 62
     6
 10
369.989862
 20
235.653886
 11
369.989862
 21
235.584802
  0
LINE
  8
CSLAYER1
  6
DASHED
 62
     6
 10
369.989862
 20
235.584802
 11
392.989862
 21
235.584802
  0
LINE
  8
CSLAYER1
  6
DASHED
 62
     6
 10
392.989862
 20
235.584802
 11
392.989862
 21
236.655978
  0
LINE
  8
CSLAYER1
  6
DASHED
 62
     6
 10
387.489862
 20
236.402757
 11
387.489862
 21
215.502757
  0
LINE
  8
CSLAYER1
  6
CONTINUOUS
 62
     6
 10
411.281833
 20
260.502757
 11
329.489862
 21
260.502757
  0
LINE
  8
CSLAYER1
  6
CONTINUOUS
 62
     6
 10
326.489862
 20
279.502757
 11
290.489862
 21
279.502757
  0
ARC
  8
CSLAYER1
  6
CONTINUOUS
 62
     6
 10
290.489862
 20
280.502757
 40
1.000000
 50
179.999995
 51
269.999984
  0
LINE
  8
CSLAYER1
  6
CONTINUOUS
 62
     6
 10
289.489862
 20
280.502757
 11
289.489862
 21
281.502757
  0
ARC
  8
CSLAYER1
  6
CONTINUOUS
 62
     6
 10
290.489862
 20
281.502757
 40
1.000000
 50
89.999999
 51
179.999981
  0
LINE
  8
CSLAYER1
  6
CONTINUOUS
 62
     6
 10
290.489862
 20
282.502757
 11
326.489862
 21
282.502757
  0
ARC
  8
CSLAYER1
  6
CONTINUOUS
 62
     6
 10
326.489862
 20
281.502757
 40
1.000000
 50
0.057309
 51
89.999999
  0
LINE
  8
CSLAYER1
  6
CONTINUOUS
 62
     6
 10
327.489862
 20
281.502757
 11
327.489862
 21
280.502757
  0
ARC
  8
CSLAYER1
  6
CONTINUOUS
 62
     6
 10
326.489862
 20
280.502757
 40
1.000000
 50
269.999997
 51
360.000000
  0
LINE
  8
CSLAYER1
  6
CONTINUOUS
 62
     6
 10
326.489862
 20
286.502757
 11
290.489862
 21
286.502757
  0
ARC
  8
CSLAYER1
  6
CONTINUOUS
 62
     6
 10
290.489862
 20
287.502757
 40
1.000000
 50
179.999995
 51
269.999984
  0
LINE
  8
CSLAYER1
  6
CONTINUOUS
 62
     6
 10
289.489862
 20
287.502757
 11
289.489862
 21
288.502757
  0
ARC
  8
CSLAYER1
  6
CONTINUOUS
 62
     6
 10
290.489862
 20
288.502757
 40
1.000000
 50
89.999999
 51
179.999981
  0
LINE
  8
CSLAYER1
  6
CONTINUOUS
 62
     6
 10
290.489862
 20
289.502757
 11
295.261102
 21
289.502757
  0
ARC
  8
CSLAYER1
  6
CONTINUOUS
 62
     6
 10
295.261102
 20
290.502757
 40
1.000000
 50
-89.999999
 51
48.590386
  0
ARC
  8
CSLAYER1
  6
CONTINUOUS
 62
     6
 10
308.489862
 20
305.502757
 40
19.000000
 50
131.409657
 51
228.590367
  0
ARC
  8
CSLAYER1
  6
CONTINUOUS
 62
     6
 10
295.261102
 20
320.502757
 40
1.000000
 50
-48.590366
 51
90.000019
  0
LINE
  8
CSLAYER1
  6
CONTINUOUS
 62
     6
 10
295.261102
 20
321.502757
 11
290.489862
 21
321.502757
  0
ARC
  8
CSLAYER1
  6
CONTINUOUS
 62
     6
 10
290.489862
 20
322.502757
 40
1.000000
 50
180.000019
 51
270.000001
  0
LINE
  8
CSLAYER1
  6
CONTINUOUS
 62
     6
 10
289.489862
 20
322.502757
 11
289.489862
 21
323.502757
  0
ARC
  8
CSLAYER1
  6
CONTINUOUS
 62
     6
 10
290.489862
 20
323.502757
 40
1.000000
 50
90.000016
 51
180.000005
  0
LINE
  8
CSLAYER1
  6
CONTINUOUS
 62
     6
 10
290.489862
 20
324.502757
 11
326.489862
 21
324.502757
  0
ARC
  8
CSLAYER1
  6
CONTINUOUS
 62
     6
 10
326.489862
 20
323.502757
 40
1.000000
 50
0.000000
 51
90.000003
  0
LINE
  8
CSLAYER1
  6
CONTINUOUS
 62
     6
 10
327.489862
 20
323.502757
 11
327.489862
 21
322.502757
  0
ARC
  8
CSLAYER1
  6
CONTINUOUS
 62
     6
 10
326.489862
 20
322.502757
 40
1.000000
 50
270.000001
 51
359.942691
  0
LINE
  8
CSLAYER1
  6
CONTINUOUS
 62
     6
 10
326.489862
 20
321.502757
 11
321.718622
 21
321.502757
  0
ARC
  8
CSLAYER1
  6
CONTINUOUS
 62
     6
 10
321.718622
 20
320.502757
 40
1.000000
 50
90.000003
 51
228.590367
  0
ARC
  8
CSLAYER1
  6
CONTINUOUS
 62
     6
 10
308.489862
 20
305.502757
 40
19.000000
 50
-48.590366
 51
48.590386
  0
ARC
  8
CSLAYER1
  6
CONTINUOUS
 62
     6
 10
321.718622
 20
290.502757
 40
1.000000
 50
131.409643
 51
270.000001
  0
LINE
  8
CSLAYER1
  6
CONTINUOUS
 62
     6
 10
321.718622
 20
289.502757
 11
326.489862
 21
289.502757
  0
ARC
  8
CSLAYER1
  6
CONTINUOUS
 62
     6
 10
326.489862
 20
288.502757
 40
1.000000
 50
0.057309
 51
89.999999
  0
LINE
  8
CSLAYER1
  6
CONTINUOUS
 62
     6
 10
327.489862
 20
288.502757
 11
327.489862
 21
287.502757
  0
ARC
  8
CSLAYER1
  6
CONTINUOUS
 62
     6
 10
326.489862
 20
287.502757
 40
1.000000
 50
269.999997
 51
360.000000
  0
LINE
  8
CSLAYER1
  6
CONTINUOUS
 62
     6
 10
414.489862
 20
267.827757
 11
414.489862
 21
350.502757
  0
LINE
  8
CSLAYER1
  6
CONTINUOUS
 62
     6
 10
403.343884
 20
405.502757
 11
429.441646
 21
411.554453
  0
ARC
  8
CSLAYER1
  6
CONTINUOUS
 62
     6
 10
428.989862
 20
413.502757
 40
2.000000
 50
283.055331
 51
360.000000
  0
ARC
  8
CSLAYER1
  6
CONTINUOUS
 62
     6
 10
432.989862
 20
413.502757
 40
2.000000
 50
180.000000
 51
270.000000
  0
LINE
  8
CSLAYER1
  6
CONTINUOUS
 62
     6
 10
432.989862
 20
411.502757
 11
459.489862
 21
411.502757
  0
LINE
  8
CSLAYER1
  6
CONTINUOUS
 62
     6
 10
459.489862
 20
411.502757
 11
460.489862
 21
412.502757
  0
LINE
  8
CSLAYER1
  6
CONTINUOUS
 62
     6
 10
460.489862
 20
412.502757
 11
460.489862
 21
558.502757
  0
LINE
  8
CSLAYER1
  6
CONTINUOUS
 62
     6
 10
460.489862
 20
558.502757
 11
459.489862
 21
559.502757
  0
LINE
  8
CSLAYER1
  6
CONTINUOUS
 62
     6
 10
459.489862
 20
559.502757
 11
432.989862
 21
559.502757
  0
ARC
  8
CSLAYER1
  6
CONTINUOUS
 62
     6
 10
432.989862
 20
557.502757
 40
2.000000
 50
90.000000
 51
180.000000
  0
LINE
  8
CSLAYER1
  6
CONTINUOUS
 62
     6
 10
430.989862
 20
557.502757
 11
430.989862
 21
413.502757
  0
LINE
  8
CSLAYER1
  6
CONTINUOUS
 62
     6
 10
430.989862
 20
422.178796
 11
404.441646
 21
416.022647
  0
ARC
  8
CSLAYER1
  6
CONTINUOUS
 62
     6
 10
403.989862
 20
417.970952
 40
2.000000
 50
180.000000
 51
283.055331
  0
CIRCLE
  8
CSLAYER1
  6
CONTINUOUS
 62
     6
 10
381.489862
 20
420.502757
 40
6.000000
  0
CIRCLE
  8
CSLAYER1
  6
CONTINUOUS
 62
     6
 10
381.489862
 20
420.502757
 40
11.500000
  0
LINE
  8
CSLAYER1
  6
CONTINUOUS
 62
     6
 10
381.489862
 20
405.502757
 11
501.489862
 21
405.502757
  0
ARC
  8
CSLAYER1
  6
CONTINUOUS
 62
     6
 10
501.489862
 20
420.502757
 40
15.000000
 50
270.000000
 51
360.000000
  0
LINE
  8
CSLAYER1
  6
CONTINUOUS
 62
     6
 10
516.489862
 20
420.502757
 11
516.489862
 21
440.502757
  0
ARC
  8
CSLAYER1
  6
CONTINUOUS
 62
     6
 10
501.489862
 20
440.502757
 40
15.000000
 50
0.000000
 51
41.810315
  0
LINE
  8
CSLAYER1
  6
CONTINUOUS
 62
     6
 10
517.489862
 20
450.502757
 11
517.489862
 21
520.502757
  0
ARC
  8
CSLAYER1
  6
CONTINUOUS
 62
     6
 10
501.489862
 20
530.502757
 40
15.000000
 50
318.189685
 51
360.000000
  0
LINE
  8
CSLAYER1
  6
CONTINUOUS
 62
     6
 10
516.489862
 20
530.502757
 11
516.489862
 21
550.502757
  0
ARC
  8
CSLAYER1
  6
CONTINUOUS
 62
     6
 10
501.489862
 20
550.502757
 40
15.000000
 50
0.000000
 51
90.000000
  0
LINE
  8
CSLAYER1
  6
CONTINUOUS
 62
     6
 10
501.489862
 20
565.502757
 11
381.489862
 21
565.502757
  0
ARC
  8
CSLAYER1
  6
CONTINUOUS
 62
     6
 10
381.489862
 20
550.502757
 40
15.000000
 50
90.000000
 51
180.000000
  0
LINE
  8
CSLAYER1
  6
CONTINUOUS
 62
     6
 10
366.489862
 20
550.502757
 11
366.489862
 21
530.502757
  0
CIRCLE
  8
CSLAYER1
  6
CONTINUOUS
 62
     6
 10
381.489862
 20
550.502757
 40
6.000000
  0
CIRCLE
  8
CSLAYER1
  6
CONTINUOUS
 62
     6
 10
381.489862
 20
550.502757
 40
11.500000
  0
ARC
  8
CSLAYER1
  6
CONTINUOUS
 62
     6
 10
403.989862
 20
553.034563
 40
2.000000
 50
76.944669
 51
180.000000
  0
LINE
  8
CSLAYER1
  6
CONTINUOUS
 62
     6
 10
404.441646
 20
554.982868
 11
430.989862
 21
548.826718
  0
ARC
  8
CSLAYER1
  6
CONTINUOUS
 62
     6
 10
420.989862
 20
540.502757
 40
10.000000
 50
270.000000
 51
360.000000
  0
LINE
  8
CSLAYER1
  6
CONTINUOUS
 62
     6
 10
420.989862
 20
530.502757
 11
329.489862
 21
530.502757
  0
LINE
  8
CSLAYER1
  6
CONTINUOUS
 62
     6
 10
329.489862
 20
530.502757
 11
329.489862
 21
440.502757
  0
LINE
  8
CSLAYER1
  6
CONTINUOUS
 62
     6
 10
329.489862
 20
440.502757
 11
420.989862
 21
440.502757
  0
ARC
  8
CSLAYER1
  6
CONTINUOUS
 62
     6
 10
420.989862
 20
430.502757
 40
10.000000
 50
0.000000
 51
90.000000
  0
ARC
  8
CSLAYER1
  6
CONTINUOUS
 62
     6
 10
420.989862
 20
439.002757
 40
10.000000
 50
0.000000
 51
90.000000
  0
ARC
  8
CSLAYER1
  6
CONTINUOUS
 62
     6
 10
420.989862
 20
447.502757
 40
10.000000
 50
0.000000
 51
90.000000
  0
ARC
  8
CSLAYER1
  6
CONTINUOUS
 62
     6
 10
460.731181
 20
445.592278
 40
0.241380
 50
90.000001
 51
179.942691
  0
LINE
  8
CSLAYER1
  6
CONTINUOUS
 62
     6
 10
460.731181
 20
445.833673
 11
461.938080
 21
445.833673
  0
ARC
  8
CSLAYER1
  6
CONTINUOUS
 62
     6
 10
461.938080
 20
445.592278
 40
0.241380
 50
0.000005
 51
90.000001
  0
LINE
  8
CSLAYER1
  6
CONTINUOUS
 62
     6
 10
462.179401
 20
445.592278
 11
462.179401
 21
432.069808
  0
ARC
  8
CSLAYER1
  6
CONTINUOUS
 62
     6
 10
461.938080
 20
432.075141
 40
0.241380
 50
269.999999
 51
359.999995
  0
LINE
  8
CSLAYER1
  6
CONTINUOUS
 62
     6
 10
461.938080
 20
431.833747
 11
460.731181
 21
431.833747
  0
ARC
  8
CSLAYER1
  6
CONTINUOUS
 62
     6
 10
460.731181
 20
432.075141
 40
0.241380
 50
180.057309
 51
269.999999
  0
ARC
  8
CSLAYER1
  6
CONTINUOUS
 62
     6
 10
462.662190
 20
432.722641
 40
0.482760
 50
180.057309
 51
275.000135
  0
LINE
  8
CSLAYER1
  6
CONTINUOUS
 62
     6
 10
462.704325
 20
432.241731
 11
464.224588
 21
432.374730
  0
ARC
  8
CSLAYER1
  6
CONTINUOUS
 62
     6
 10
464.014205
 20
434.779283
 40
2.413798
 50
275.000111
 51
343.742611
  0
ARC
  8
CSLAYER1
  6
CONTINUOUS
 62
     6
 10
450.110410
 20
438.833673
 40
16.896587
 50
-16.257006
 51
16.257016
  0
ARC
  8
CSLAYER1
  6
CONTINUOUS
 62
     6
 10
464.014205
 20
442.888063
 40
2.413798
 50
16.257399
 51
84.999892
  0
LINE
  8
CSLAYER1
  6
CONTINUOUS
 62
     6
 10
464.224588
 20
445.292690
 11
462.704325
 21
445.425689
  0
ARC
  8
CSLAYER1
  6
CONTINUOUS
 62
     6
 10
462.662190
 20
444.944778
 40
0.482760
 50
84.999865
 51
179.942691
  0
LINE
  8
CSLAYER1
  6
CONTINUOUS
 62
     6
 10
462.179401
 20
440.272133
 11
460.489786
 21
439.200737
  0
LINE
  8
CSLAYER1
  6
CONTINUOUS
 62
     6
 10
460.489786
 20
437.993838
 11
462.179401
 21
439.065233
  0
LINE
  8
CSLAYER1
  6
CONTINUOUS
 62
     6
 10
463.993339
 20
432.354425
 11
464.224588
 21
432.374656
  0
LINE
  8
CSLAYER1
  6
CONTINUOUS
 62
     6
 10
460.489862
 20
428.002757
 11
485.489862
 21
428.002757
  0
ARC
  8
CSLAYER1
  6
CONTINUOUS
 62
     6
 10
485.489862
 20
432.002757
 40
4.000000
 50
270.000000
 51
360.000000
  0
LINE
  8
CSLAYER1
  6
CONTINUOUS
 62
     6
 10
489.489862
 20
432.002757
 11
489.489862
 21
539.002757
  0
ARC
  8
CSLAYER1
  6
CONTINUOUS
 62
     6
 10
485.489862
 20
539.002757
 40
4.000000
 50
0.000000
 51
90.000000
  0
LINE
  8
CSLAYER1
  6
CONTINUOUS
 62
     6
 10
485.489862
 20
543.002757
 11
460.489862
 21
543.002757
  0
LINE
  8
CSLAYER1
  6
CONTINUOUS
 62
     6
 10
460.731181
 20
539.171768
 11
461.938080
 21
539.171768
  0
ARC
  8
CSLAYER1
  6
CONTINUOUS
 62
     6
 10
461.938080
 20
538.930374
 40
0.241380
 50
0.000005
 51
90.000001
  0
LINE
  8
CSLAYER1
  6
CONTINUOUS
 62
     6
 10
462.179401
 20
538.930374
 11
462.179401
 21
525.413163
  0
ARC
  8
CSLAYER1
  6
CONTINUOUS
 62
     6
 10
461.938080
 20
525.413163
 40
0.241380
 50
-89.999997
 51
0.000005
  0
LINE
  8
CSLAYER1
  6
CONTINUOUS
 62
     6
 10
461.938080
 20
525.171768
 11
460.731181
 21
525.171768
  0
ARC
  8
CSLAYER1
  6
CONTINUOUS
 62
     6
 10
460.731181
 20
525.413163
 40
0.241380
 50
180.000000
 51
270.000003
  0
ARC
  8
CSLAYER1
  6
CONTINUOUS
 62
     6
 10
462.662190
 20
526.060663
 40
0.482760
 50
180.000000
 51
275.000152
  0
LINE
  8
CSLAYER1
  6
CONTINUOUS
 62
     6
 10
462.704325
 20
525.579752
 11
464.224588
 21
525.712751
  0
ARC
  8
CSLAYER1
  6
CONTINUOUS
 62
     6
 10
464.014205
 20
528.117378
 40
2.413798
 50
275.000111
 51
343.742611
  0
ARC
  8
CSLAYER1
  6
CONTINUOUS
 62
     6
 10
450.110410
 20
532.171768
 40
16.896587
 50
-16.257006
 51
16.257016
  0
ARC
  8
CSLAYER1
  6
CONTINUOUS
 62
     6
 10
464.014205
 20
536.226158
 40
2.413798
 50
16.257399
 51
84.999892
  0
LINE
  8
CSLAYER1
  6
CONTINUOUS
 62
     6
 10
464.224588
 20
538.630785
 11
462.704325
 21
538.763784
  0
ARC
  8
CSLAYER1
  6
CONTINUOUS
 62
     6
 10
462.662190
 20
538.282873
 40
0.482760
 50
84.999865
 51
179.942691
  0
ARC
  8
CSLAYER1
  6
CONTINUOUS
 62
     6
 10
460.731181
 20
538.930374
 40
0.241380
 50
90.000001
 51
179.942691
  0
LINE
  8
CSLAYER1
  6
CONTINUOUS
 62
     6
 10
462.179401
 20
533.610228
 11
460.489786
 21
532.538832
  0
LINE
  8
CSLAYER1
  6
CONTINUOUS
 62
     6
 10
460.489786
 20
531.331933
 11
462.179401
 21
532.403329
  0
LINE
  8
CSLAYER1
  6
CONTINUOUS
 62
     6
 10
460.489862
 20
550.812630
 11
479.073792
 21
554.765209
  0
ARC
  8
CSLAYER1
  6
CONTINUOUS
 62
     6
 10
479.489862
 20
552.808966
 40
2.000000
 50
0.000000
 51
102.007205
  0
LINE
  8
CSLAYER1
  6
CONTINUOUS
 62
     6
 10
481.489862
 20
565.502757
 11
453.279526
 21
559.502757
  0
LINE
  8
CSLAYER1
  6
CONTINUOUS
 62
     6
 10
451.489862
 20
559.502757
 11
451.489862
 21
411.502757
  0
LINE
  8
CSLAYER1
  6
CONTINUOUS
 62
     6
 10
453.279526
 20
411.502757
 11
481.489862
 21
405.502757
  0
ARC
  8
CSLAYER1
  6
CONTINUOUS
 62
     6
 10
479.489862
 20
418.196549
 40
2.000000
 50
257.992795
 51
360.000000
  0
LINE
  8
CSLAYER1
  6
CONTINUOUS
 62
     6
 10
479.073792
 20
416.240306
 11
460.489862
 21
420.192885
  0
CIRCLE
  8
CSLAYER1
  6
CONTINUOUS
 62
     6
 10
501.489862
 20
420.502757
 40
6.000000
  0
CIRCLE
  8
CSLAYER1
  6
CONTINUOUS
 62
     6
 10
501.489862
 20
420.502757
 40
11.500000
  0
LINE
  8
CSLAYER1
  6
CONTINUOUS
 62
     6
 10
462.179401
 20
353.610228
 11
460.489786
 21
352.538832
  0
LINE
  8
CSLAYER1
  6
CONTINUOUS
 62
     6
 10
460.489786
 20
351.331933
 11
462.179401
 21
352.403329
  0
ARC
  8
CSLAYER1
  6
CONTINUOUS
 62
     6
 10
381.489862
 20
420.502757
 40
15.000000
 50
180.000000
 51
270.000000
  0
LINE
  8
CSLAYER1
  6
CONTINUOUS
 62
     6
 10
366.489862
 20
420.502757
 11
366.489862
 21
440.502757
  0
LINE
  8
CSLAYER1
  6
CONTINUOUS
 62
     6
 10
329.489862
 20
441.447002
 11
328.014795
 21
441.447002
  0
LINE
  8
CSLAYER1
  6
CONTINUOUS
 62
     6
 10
327.583948
 20
441.342510
 11
328.281579
 21
447.979961
  0
ARC
  8
CSLAYER1
  6
CONTINUOUS
 62
     6
 10
329.276086
 20
447.875469
 40
1.000000
 50
89.999999
 51
173.999974
  0
LINE
  8
CSLAYER1
  6
CONTINUOUS
 62
     6
 10
324.132898
 20
449.053813
 11
292.175805
 21
449.053813
  0
LINE
  8
CSLAYER1
  6
CONTINUOUS
 62
     6
 10
288.698083
 20
447.979961
 11
289.395715
 21
441.342510
  0
ARC
  8
CSLAYER1
  6
CONTINUOUS
 62
     6
 10
290.390222
 20
441.447002
 40
1.000000
 50
186.000002
 51
269.999997
  0
LINE
  8
CSLAYER1
  6
CONTINUOUS
 62
     6
 10
290.390222
 20
440.447002
 11
326.589380
 21
440.447002
  0
ARC
  8
CSLAYER1
  6
CONTINUOUS
 62
     6
 10
326.589380
 20
441.447002
 40
1.000000
 50
269.999984
 51
353.999997
  0
ARC
  8
CSLAYER1
  6
CONTINUOUS
 62
     6
 10
329.226465
 20
443.403178
 40
1.000000
 50
89.999999
 51
173.999974
  0
LINE
  8
CSLAYER1
  6
CONTINUOUS
 62
     6
 10
328.231897
 20
443.507732
 11
327.583948
 21
437.342510
  0
ARC
  8
CSLAYER1
  6
CONTINUOUS
 62
     6
 10
326.589380
 20
437.447002
 40
1.000000
 50
269.999984
 51
353.999997
  0
LINE
  8
CSLAYER1
  6
CONTINUOUS
 62
     6
 10
326.589380
 20
436.447002
 11
290.390222
 21
436.447002
  0
ARC
  8
CSLAYER1
  6
CONTINUOUS
 62
     6
 10
290.390222
 20
437.447002
 40
1.000000
 50
186.000002
 51
269.999997
  0
LINE
  8
CSLAYER1
  6
CONTINUOUS
 62
     6
 10
289.395715
 20
437.342510
 11
288.747705
 21
443.507732
  0
ARC
  8
CSLAYER1
  6
CONTINUOUS
 62
     6
 10
287.753198
 20
443.403178
 40
1.000000
 50
6.000011
 51
89.999999
  0
LINE
  8
CSLAYER1
  6
CONTINUOUS
 62
     6
 10
288.964258
 20
441.447002
 11
277.489831
 21
441.447002
  0
LINE
  8
CSLAYER1
  6
CONTINUOUS
 62
     6
 10
277.489831
 20
441.447002
 11
276.489831
 21
442.447002
  0
LINE
  8
CSLAYER1
  6
CONTINUOUS
 62
     6
 10
276.489862
 20
442.446986
 11
276.489862
 21
528.446986
  0
LINE
  8
CSLAYER1
  6
CONTINUOUS
 62
     6
 10
276.489862
 20
528.446986
 11
277.489862
 21
529.446986
  0
LINE
  8
CSLAYER1
  6
CONTINUOUS
 62
     6
 10
277.489862
 20
529.446986
 11
277.489862
 21
441.446986
  0
LINE
  8
CSLAYER1
  6
CONTINUOUS
 62
     6
 10
277.489862
 20
441.446986
 11
276.489862
 21
442.446986
  0
LINE
  8
CSLAYER1
  6
CONTINUOUS
 62
     6
 10
277.489862
 20
349.391216
 11
329.489862
 21
349.391216
  0
LINE
  8
CSLAYER1
  6
CONTINUOUS
 62
     6
 10
326.489862
 20
331.502757
 11
290.489862
 21
331.502757
  0
ARC
  8
CSLAYER1
  6
CONTINUOUS
 62
     6
 10
290.489862
 20
330.502757
 40
1.000000
 50
90.000016
 51
180.000005
  0
LINE
  8
CSLAYER1
  6
CONTINUOUS
 62
     6
 10
289.489862
 20
330.502757
 11
289.489862
 21
329.502757
  0
ARC
  8
CSLAYER1
  6
CONTINUOUS
 62
     6
 10
290.489862
 20
329.502757
 40
1.000000
 50
180.000019
 51
270.000001
  0
LINE
  8
CSLAYER1
  6
CONTINUOUS
 62
     6
 10
290.489862
 20
328.502757
 11
326.489862
 21
328.502757
  0
ARC
  8
CSLAYER1
  6
CONTINUOUS
 62
     6
 10
326.489862
 20
329.502757
 40
1.000000
 50
270.000001
 51
359.942691
  0
LINE
  8
CSLAYER1
  6
CONTINUOUS
 62
     6
 10
327.489862
 20
329.502757
 11
327.489862
 21
330.502757
  0
ARC
  8
CSLAYER1
  6
CONTINUOUS
 62
     6
 10
326.489862
 20
330.502757
 40
1.000000
 50
0.000000
 51
90.000003
  0
LINE
  8
CSLAYER1
  6
CONTINUOUS
 62
     6
 10
314.489862
 20
306.402751
 11
302.489862
 21
306.402751
  0
LINE
  8
CSLAYER1
  6
CONTINUOUS
 62
     6
 10
302.489862
 20
306.402751
 11
302.489862
 21
304.602763
  0
LINE
  8
CSLAYER1
  6
CONTINUOUS
 62
     6
 10
302.489862
 20
304.602763
 11
314.489862
 21
304.602763
  0
LINE
  8
CSLAYER1
  6
CONTINUOUS
 62
     6
 10
314.489862
 20
304.602763
 11
314.489862
 21
306.402751
  0
CIRCLE
  8
CSLAYER1
  6
CONTINUOUS
 62
     6
 10
308.489862
 20
305.502757
 40
12.000000
  0
CIRCLE
  8
CSLAYER1
  6
CONTINUOUS
 62
     6
 10
308.489862
 20
305.502757
 40
15.000000
  0
CIRCLE
  8
CSLAYER1
  6
CONTINUOUS
 62
     6
 10
308.489862
 20
305.502757
 40
16.000000
  0
LINE
  8
CSLAYER1
  6
CONTINUOUS
 62
     6
 10
414.489862
 20
440.502757
 11
414.489862
 21
530.502757
  0
LINE
  8
CSLAYER1
  6
CONTINUOUS
 62
     6
 10
403.343884
 20
565.502757
 11
429.441646
 21
559.451062
  0
ARC
  8
CSLAYER1
  6
CONTINUOUS
 62
     6
 10
428.989862
 20
557.502757
 40
2.000000
 50
0.000000
 51
76.944669
  0
ARC
  8
CSLAYER1
  6
CONTINUOUS
 62
     6
 10
420.989862
 20
532.002757
 40
10.000000
 50
270.000000
 51
360.000000
  0
ARC
  8
CSLAYER1
  6
CONTINUOUS
 62
     6
 10
420.989862
 20
523.502757
 40
10.000000
 50
270.000000
 51
360.000000
  0
ARC
  8
CSLAYER1
  6
CONTINUOUS
 62
     6
 10
424.989862
 20
494.502757
 40
4.000000
 50
180.000000
 51
270.000000
  0
LINE
  8
CSLAYER1
  6
CONTINUOUS
 62
     6
 10
424.989862
 20
490.502757
 11
430.989862
 21
490.502757
  0
LINE
  8
CSLAYER1
  6
CONTINUOUS
 62
     6
 10
430.989862
 20
480.502757
 11
424.989862
 21
480.502757
  0
ARC
  8
CSLAYER1
  6
CONTINUOUS
 62
     6
 10
424.989862
 20
476.502757
 40
4.000000
 50
90.000000
 51
180.000000
  0
ARC
  8
CSLAYER1
  6
CONTINUOUS
 62
     6
 10
493.489862
 20
446.502757
 40
4.000000
 50
90.000000
 51
180.000000
  0
LINE
  8
CSLAYER1
  6
CONTINUOUS
 62
     6
 10
493.489862
 20
450.502757
 11
526.489862
 21
450.502757
  0
ARC
  8
CSLAYER1
  6
CONTINUOUS
 62
     6
 10
526.489862
 20
452.502757
 40
2.000000
 50
270.000000
 51
360.000000
  0
LINE
  8
CSLAYER1
  6
CONTINUOUS
 62
     6
 10
528.489862
 20
452.502757
 11
528.489862
 21
518.502757
  0
ARC
  8
CSLAYER1
  6
CONTINUOUS
 62
     6
 10
526.489862
 20
518.502757
 40
2.000000
 50
0.000000
 51
90.000000
  0
LINE
  8
CSLAYER1
  6
CONTINUOUS
 62
     6
 10
526.489862
 20
520.502757
 11
493.489862
 21
520.502757
  0
ARC
  8
CSLAYER1
  6
CONTINUOUS
 62
     6
 10
493.489862
 20
524.502757
 40
4.000000
 50
180.000000
 51
270.000000
  0
CIRCLE
  8
CSLAYER1
  6
CONTINUOUS
 62
     6
 10
501.489862
 20
550.502757
 40
6.000000
  0
CIRCLE
  8
CSLAYER1
  6
CONTINUOUS
 62
     6
 10
501.489862
 20
550.502757
 40
11.500000
  0
ARC
  8
CSLAYER1
  6
CONTINUOUS
 62
     6
 10
528.489862
 20
504.502757
 40
1.000000
 50
0.000000
 51
90.000000
  0
LINE
  8
CSLAYER1
  6
CONTINUOUS
 62
     6
 10
529.489862
 20
504.502757
 11
529.489862
 21
466.502757
  0
ARC
  8
CSLAYER1
  6
CONTINUOUS
 62
     6
 10
528.489862
 20
466.502757
 40
1.000000
 50
270.000000
 51
360.000000
  0
ARC
  8
CSLAYER1
  6
CONTINUOUS
 62
     6
 10
529.489862
 20
474.502757
 40
1.000000
 50
270.000000
 51
360.000000
  0
LINE
  8
CSLAYER1
  6
CONTINUOUS
 62
     6
 10
530.489862
 20
474.502757
 11
530.489862
 21
496.502757
  0
ARC
  8
CSLAYER1
  6
CONTINUOUS
 62
     6
 10
529.489862
 20
496.502757
 40
1.000000
 50
0.000000
 51
90.000000
  0
LINE
  8
CSLAYER1
  6
CONTINUOUS
 62
     6
 10
530.489862
 20
495.502757
 11
566.489862
 21
495.502757
  0
LINE
  8
CSLAYER1
  6
CONTINUOUS
 62
     6
 10
566.489862
 20
495.502757
 11
566.489862
 21
475.502757
  0
LINE
  8
CSLAYER1
  6
CONTINUOUS
 62
     6
 10
566.489862
 20
475.502757
 11
530.489862
 21
475.502757
  0
LINE
  8
CSLAYER1
  6
DASHED
 62
     6
 10
534.489862
 20
475.502757
 11
534.489862
 21
478.502757
  0
LINE
  8
CSLAYER1
  6
DASHED
 62
     6
 10
534.489862
 20
478.502757
 11
566.489862
 21
478.502757
  0
LINE
  8
CSLAYER1
  6
CONTINUOUS
 62
     6
 10
649.324317
 20
355.898657
 11
649.324317
 21
354.394028
  0
ARC
  8
CSLAYER1
  6
CONTINUOUS
 62
     6
 10
648.213192
 20
354.394028
 40
1.111111
 50
-89.999984
 51
0.000005
  0
LINE
  8
CSLAYER1
  6
CONTINUOUS
 62
     6
 10
648.213192
 20
353.282961
 11
646.708679
 21
353.282961
  0
ARC
  8
CSLAYER1
  6
CONTINUOUS
 62
     6
 10
650.435442
 20
352.171836
 40
3.888889
 50
163.398416
 51
196.601577
  0
LINE
  8
CSLAYER1
  6
CONTINUOUS
 62
     6
 10
646.708679
 20
351.060711
 11
648.213192
 21
351.060711
  0
ARC
  8
CSLAYER1
  6
CONTINUOUS
 62
     6
 10
648.213192
 20
349.949645
 40
1.111111
 50
0.000005
 51
89.942654
  0
LINE
  8
CSLAYER1
  6
CONTINUOUS
 62
     6
 10
649.324317
 20
349.949645
 11
649.324317
 21
348.445016
  0
ARC
  8
CSLAYER1
  6
CONTINUOUS
 62
     6
 10
650.435442
 20
352.171836
 40
3.888889
 50
253.398422
 51
286.601583
  0
LINE
  8
CSLAYER1
  6
CONTINUOUS
 62
     6
 10
651.546567
 20
348.445016
 11
651.546567
 21
349.949645
  0
ARC
  8
CSLAYER1
  6
CONTINUOUS
 62
     6
 10
652.657692
 20
349.949645
 40
1.111111
 50
90.000001
 51
179.942691
  0
LINE
  8
CSLAYER1
  6
CONTINUOUS
 62
     6
 10
652.657692
 20
351.060711
 11
654.162205
 21
351.060711
  0
ARC
  8
CSLAYER1
  6
CONTINUOUS
 62
     6
 10
650.435442
 20
352.171836
 40
3.888889
 50
-16.601562
 51
16.601572
  0
LINE
  8
CSLAYER1
  6
CONTINUOUS
 62
     6
 10
654.162205
 20
353.282961
 11
652.657692
 21
353.282961
  0
ARC
  8
CSLAYER1
  6
CONTINUOUS
 62
     6
 10
652.657692
 20
354.394028
 40
1.111111
 50
180.000010
 51
270.000016
  0
LINE
  8
CSLAYER1
  6
CONTINUOUS
 62
     6
 10
651.546567
 20
354.394028
 11
651.546567
 21
355.898657
  0
ARC
  8
CSLAYER1
  6
CONTINUOUS
 62
     6
 10
650.435442
 20
352.171836
 40
3.888889
 50
73.398406
 51
106.601595
  0
CIRCLE
  8
CSLAYER1
  6
CONTINUOUS
 62
     6
 10
650.435468
 20
352.171835
 40
7.000000
  0
LINE
  8
CSLAYER1
  6
CONTINUOUS
 62
     6
 10
687.422040
 20
308.002757
 11
690.104499
 21
308.002757
  0
LINE
  8
CSLAYER1
  6
CONTINUOUS
 62
     6
 10
690.104499
 20
308.002757
 11
690.104499
 21
303.002757
  0
LINE
  8
CSLAYER1
  6
CONTINUOUS
 62
     6
 10
690.104499
 20
303.002757
 11
687.422040
 21
303.002757
  0
CIRCLE
  8
CSLAYER1
  6
CONTINUOUS
 62
     6
 10
697.104499
 20
305.502757
 40
74.000000
  0
CIRCLE
  8
CSLAYER1
  6
CONTINUOUS
 62
     6
 10
697.104499
 20
305.502757
 40
57.500000
  0
CIRCLE
  8
CSLAYER1
  6
CONTINUOUS
 62
     6
 10
697.104499
 20
305.502757
 40
35.000000
  0
CIRCLE
  8
CSLAYER1
  6
CONTINUOUS
 62
     6
 10
697.104499
 20
305.502757
 40
20.000000
  0
CIRCLE
  8
CSLAYER1
  6
CONTINUOUS
 62
     6
 10
697.104499
 20
305.502757
 40
10.000000
  0
CIRCLE
  8
CSLAYER1
  6
CONTINUOUS
 62
     6
 10
697.104499
 20
305.502757
 40
12.000000
  0
LINE
  8
CSLAYER1
  6
CONTINUOUS
 62
     6
 10
742.662430
 20
348.445016
 11
742.662430
 21
349.949645
  0
ARC
  8
CSLAYER1
  6
CONTINUOUS
 62
     6
 10
741.551305
 20
349.949645
 40
1.111111
 50
0.057309
 51
89.999999
  0
LINE
  8
CSLAYER1
  6
CONTINUOUS
 62
     6
 10
741.551305
 20
351.060711
 11
740.046792
 21
351.060711
  0
ARC
  8
CSLAYER1
  6
CONTINUOUS
 62
     6
 10
743.773555
 20
352.171836
 40
3.888889
 50
163.398428
 51
196.601562
  0
LINE
  8
CSLAYER1
  6
CONTINUOUS
 62
     6
 10
740.046792
 20
353.282961
 11
741.551305
 21
353.282961
  0
ARC
  8
CSLAYER1
  6
CONTINUOUS
 62
     6
 10
741.551305
 20
354.394028
 40
1.111111
 50
269.999984
 51
359.999990
  0
LINE
  8
CSLAYER1
  6
CONTINUOUS
 62
     6
 10
742.662430
 20
354.394028
 11
742.662430
 21
355.898657
  0
ARC
  8
CSLAYER1
  6
CONTINUOUS
 62
     6
 10
743.773555
 20
352.171836
 40
3.888889
 50
73.398405
 51
106.601594
  0
LINE
  8
CSLAYER1
  6
CONTINUOUS
 62
     6
 10
744.884680
 20
355.898657
 11
744.884680
 21
354.394028
  0
ARC
  8
CSLAYER1
  6
CONTINUOUS
 62
     6
 10
745.995805
 20
354.394028
 40
1.111111
 50
179.999995
 51
269.999984
  0
LINE
  8
CSLAYER1
  6
CONTINUOUS
 62
     6
 10
745.995805
 20
353.282961
 11
747.500318
 21
353.282961
  0
ARC
  8
CSLAYER1
  6
CONTINUOUS
 62
     6
 10
743.773555
 20
352.171836
 40
3.888889
 50
-16.601577
 51
16.601584
  0
LINE
  8
CSLAYER1
  6
CONTINUOUS
 62
     6
 10
747.500318
 20
351.060711
 11
745.995805
 21
351.060711
  0
ARC
  8
CSLAYER1
  6
CONTINUOUS
 62
     6
 10
745.995805
 20
349.949645
 40
1.111111
 50
90.057346
 51
179.999995
  0
LINE
  8
CSLAYER1
  6
CONTINUOUS
 62
     6
 10
744.884680
 20
349.949645
 11
744.884680
 21
348.445016
  0
ARC
  8
CSLAYER1
  6
CONTINUOUS
 62
     6
 10
743.773555
 20
352.171836
 40
3.888889
 50
253.398417
 51
286.601578
  0
CIRCLE
  8
CSLAYER1
  6
CONTINUOUS
 62
     6
 10
743.773529
 20
352.171835
 40
7.000000
  0
LINE
  8
CSLAYER1
  6
CONTINUOUS
 62
     6
 10
771.104499
 20
305.502757
 11
777.104499
 21
235.584802
  0
LINE
  8
CSLAYER1
  6
CONTINUOUS
 62
     6
 10
777.104499
 20
235.584802
 11
777.104499
 21
215.502757
  0
LINE
  8
CSLAYER1
  6
CONTINUOUS
 62
     6
 10
777.104499
 20
215.502757
 11
727.104499
 21
215.502757
  0
LINE
  8
CSLAYER1
  6
CONTINUOUS
 62
     6
 10
727.104499
 20
215.502757
 11
727.104499
 21
227.836806
  0
ARC
  8
CSLAYER1
  6
CONTINUOUS
 62
     6
 10
729.104499
 20
227.836806
 40
2.000000
 50
112.392688
 51
180.000000
  0
ARC
  8
CSLAYER1
  6
CONTINUOUS
 62
     6
 10
697.104499
 20
305.502757
 40
82.000000
 50
292.392688
 51
301.111195
  0
ARC
  8
CSLAYER1
  6
CONTINUOUS
 62
     6
 10
740.507351
 20
233.584802
 40
2.000000
 50
90.000000
 51
121.111195
  0
LINE
  8
CSLAYER1
  6
CONTINUOUS
 62
     6
 10
740.507351
 20
235.584802
 11
775.104499
 21
235.584802
  0
ARC
  8
CSLAYER1
  6
CONTINUOUS
 62
     6
 10
775.104499
 20
233.584802
 40
2.000000
 50
0.000000
 51
90.000000
  0
LINE
  8
CSLAYER1
  6
DASHED
 62
     6
 10
768.104499
 20
235.584802
 11
768.104499
 21
215.502757
  0
LINE
  8
CSLAYER1
  6
DASHED
 62
     6
 10
756.104499
 20
215.502757
 11
756.104499
 21
235.584802
  0
ARC
  8
CSLAYER1
  6
CONTINUOUS
 62
     6
 10
762.709784
 20
239.584802
 40
4.000000
 50
-90.000000
 51
4.904813
  0
LINE
  8
CSLAYER1
  6
CONTINUOUS
 62
     6
 10
766.695137
 20
239.926804
 11
764.418491
 21
266.456537
  0
ARC
  8
CSLAYER1
  6
CONTINUOUS
 62
     6
 10
762.425815
 20
266.285535
 40
2.000000
 50
4.904813
 51
65.211253
  0
ARC
  8
CSLAYER1
  6
CONTINUOUS
 62
     6
 10
743.773555
 20
258.833678
 40
3.888889
 50
-16.601584
 51
16.601577
  0
LINE
  8
CSLAYER1
  6
CONTINUOUS
 62
     6
 10
747.500318
 20
257.722554
 11
745.995805
 21
257.722554
  0
ARC
  8
CSLAYER1
  6
CONTINUOUS
 62
     6
 10
745.995805
 20
256.611487
 40
1.111111
 50
90.000016
 51
180.000005
  0
LINE
  8
CSLAYER1
  6
CONTINUOUS
 62
     6
 10
744.884680
 20
256.611487
 11
744.884680
 21
255.106858
  0
ARC
  8
CSLAYER1
  6
CONTINUOUS
 62
     6
 10
743.773555
 20
258.833678
 40
3.888889
 50
253.398406
 51
286.601595
  0
LINE
  8
CSLAYER1
  6
CONTINUOUS
 62
     6
 10
742.662430
 20
255.106858
 11
742.662430
 21
256.611487
  0
ARC
  8
CSLAYER1
  6
CONTINUOUS
 62
     6
 10
741.551305
 20
256.611487
 40
1.111111
 50
0.000010
 51
90.000016
  0
LINE
  8
CSLAYER1
  6
CONTINUOUS
 62
     6
 10
741.551305
 20
257.722554
 11
740.046792
 21
257.722554
  0
ARC
  8
CSLAYER1
  6
CONTINUOUS
 62
     6
 10
743.773555
 20
258.833678
 40
3.888889
 50
163.398438
 51
196.601572
  0
LINE
  8
CSLAYER1
  6
CONTINUOUS
 62
     6
 10
740.046792
 20
259.944803
 11
741.551305
 21
259.944803
  0
ARC
  8
CSLAYER1
  6
CONTINUOUS
 62
     6
 10
741.551305
 20
261.055870
 40
1.111111
 50
270.000001
 51
359.942691
  0
LINE
  8
CSLAYER1
  6
CONTINUOUS
 62
     6
 10
742.662430
 20
261.055870
 11
742.662430
 21
262.560499
  0
ARC
  8
CSLAYER1
  6
CONTINUOUS
 62
     6
 10
743.773555
 20
258.833678
 40
3.888889
 50
73.398422
 51
106.601583
  0
LINE
  8
CSLAYER1
  6
CONTINUOUS
 62
     6
 10
744.884680
 20
262.560499
 11
744.884680
 21
261.055870
  0
ARC
  8
CSLAYER1
  6
CONTINUOUS
 62
     6
 10
745.995805
 20
261.055870
 40
1.111111
 50
180.000005
 51
269.942654
  0
LINE
  8
CSLAYER1
  6
CONTINUOUS
 62
     6
 10
745.995805
 20
259.944803
 11
747.500318
 21
259.944803
  0
CIRCLE
  8
CSLAYER1
  6
CONTINUOUS
 62
     6
 10
743.773529
 20
258.833680
 40
7.000000
  0
ARC
  8
CSLAYER1
  6
CONTINUOUS
 62
     6
 10
717.104499
 20
220.502757
 40
10.000000
 50
0.000000
 51
90.000000
  0
LINE
  8
CSLAYER1
  6
CONTINUOUS
 62
     6
 10
717.104499
 20
230.502757
 11
677.104499
 21
230.502757
  0
ARC
  8
CSLAYER1
  6
CONTINUOUS
 62
     6
 10
677.104499
 20
220.502757
 40
10.000000
 50
90.000000
 51
180.000000
  0
CIRCLE
  8
CSLAYER1
  6
CONTINUOUS
 62
     6
 10
381.489862
 20
50.502757
 40
6.000000
  0
CIRCLE
  8
CSLAYER1
  6
DASHED
 62
     6
 10
381.489862
 20
50.502757
 40
11.500000
  0
LINE
  8
CSLAYER1
  6
CONTINUOUS
 62
     6
 10
329.489862
 20
71.502742
 11
328.014825
 21
71.502742
  0
LINE
  8
CSLAYER1
  6
CONTINUOUS
 62
     6
 10
327.583978
 20
71.398189
 11
328.281610
 21
78.035701
  0
ARC
  8
CSLAYER1
  6
CONTINUOUS
 62
     6
 10
329.276117
 20
77.931148
 40
1.000000
 50
90.000009
 51
173.999984
  0
ARC
  8
CSLAYER1
  6
CONTINUOUS
 62
     6
 10
329.226495
 20
73.458919
 40
1.000000
 50
90.000009
 51
173.999984
  0
LINE
  8
CSLAYER1
  6
CONTINUOUS
 62
     6
 10
328.231927
 20
73.563472
 11
327.583978
 21
67.398189
  0
ARC
  8
CSLAYER1
  6
CONTINUOUS
 62
     6
 10
326.589410
 20
67.502742
 40
1.000000
 50
270.000001
 51
354.000017
  0
LINE
  8
CSLAYER1
  6
CONTINUOUS
 62
     6
 10
326.589410
 20
66.502742
 11
290.390252
 21
66.502742
  0
ARC
  8
CSLAYER1
  6
CONTINUOUS
 62
     6
 10
290.390252
 20
67.502742
 40
1.000000
 50
186.000012
 51
270.000001
  0
LINE
  8
CSLAYER1
  6
CONTINUOUS
 62
     6
 10
289.395746
 20
67.398189
 11
288.747735
 21
73.563472
  0
ARC
  8
CSLAYER1
  6
CONTINUOUS
 62
     6
 10
287.753229
 20
73.458919
 40
1.000000
 50
6.000021
 51
90.000009
  0
LINE
  8
CSLAYER1
  6
CONTINUOUS
 62
     6
 10
288.964288
 20
71.502742
 11
277.489831
 21
71.502742
  0
LINE
  8
CSLAYER1
  6
CONTINUOUS
 62
     6
 10
277.489831
 20
71.502742
 11
276.489831
 21
72.502742
  0
LINE
  8
CSLAYER1
  6
CONTINUOUS
 62
     6
 10
276.489862
 20
72.502757
 11
276.489862
 21
158.502757
  0
LINE
  8
CSLAYER1
  6
CONTINUOUS
 62
     6
 10
276.489862
 20
158.502757
 11
277.489862
 21
159.502757
  0
LINE
  8
CSLAYER1
  6
CONTINUOUS
 62
     6
 10
277.489862
 20
159.502757
 11
277.489862
 21
71.502757
  0
LINE
  8
CSLAYER1
  6
CONTINUOUS
 62
     6
 10
277.489862
 20
71.502757
 11
276.489862
 21
72.502757
  0
ARC
  8
CSLAYER1
  6
CONTINUOUS
 62
     6
 10
287.703546
 20
77.931148
 40
1.000000
 50
6.000021
 51
90.000009
  0
LINE
  8
CSLAYER1
  6
CONTINUOUS
 62
     6
 10
288.698114
 20
78.035701
 11
289.395746
 21
71.398189
  0
ARC
  8
CSLAYER1
  6
CONTINUOUS
 62
     6
 10
290.390252
 20
71.502742
 40
1.000000
 50
186.000012
 51
270.000001
  0
LINE
  8
CSLAYER1
  6
CONTINUOUS
 62
     6
 10
290.390252
 20
70.502742
 11
326.589410
 21
70.502742
  0
ARC
  8
CSLAYER1
  6
CONTINUOUS
 62
     6
 10
326.589410
 20
71.502742
 40
1.000000
 50
270.000001
 51
354.000017
  0
LINE
  8
CSLAYER1
  6
CONTINUOUS
 62
     6
 10
324.132928
 20
79.109554
 11
292.175836
 21
79.109554
  0
LINE
  8
CSLAYER1
  6
CONTINUOUS
 62
     6
 10
292.489862
 20
97.502757
 11
314.489862
 21
97.502757
  0
ARC
  8
CSLAYER1
  6
CONTINUOUS
 62
     6
 10
314.489862
 20
99.502757
 40
2.000000
 50
270.000000
 51
360.000000
  0
LINE
  8
CSLAYER1
  6
CONTINUOUS
 62
     6
 10
316.489862
 20
99.502757
 11
316.489862
 21
131.502757
  0
ARC
  8
CSLAYER1
  6
CONTINUOUS
 62
     6
 10
314.489862
 20
131.502757
 40
2.000000
 50
0.000000
 51
90.000000
  0
LINE
  8
CSLAYER1
  6
CONTINUOUS
 62
     6
 10
314.489862
 20
133.502757
 11
292.489862
 21
133.502757
  0
ARC
  8
CSLAYER1
  6
CONTINUOUS
 62
     6
 10
292.489862
 20
131.502757
 40
2.000000
 50
90.000000
 51
180.000000
  0
LINE
  8
CSLAYER1
  6
CONTINUOUS
 62
     6
 10
290.489862
 20
131.502757
 11
290.489862
 21
119.131117
  0
LINE
  8
CSLAYER1
  6
CONTINUOUS
 62
     6
 10
290.415423
 20
119.133861
 11
290.849856
 21
119.117844
  0
LINE
  8
CSLAYER1
  6
CONTINUOUS
 62
     6
 10
290.849856
 20
119.117844
 11
291.281978
 21
119.089636
  0
LINE
  8
CSLAYER1
  6
CONTINUOUS
 62
     6
 10
291.281978
 20
119.089636
 11
291.709895
 21
119.050751
  0
LINE
  8
CSLAYER1
  6
CONTINUOUS
 62
     6
 10
291.709895
 20
119.050751
 11
292.131715
 21
119.002705
  0
LINE
  8
CSLAYER1
  6
CONTINUOUS
 62
     6
 10
292.131715
 20
119.002705
 11
292.545542
 21
118.947011
  0
LINE
  8
CSLAYER1
  6
CONTINUOUS
 62
     6
 10
292.545542
 20
118.947011
 11
292.949484
 21
118.885185
  0
LINE
  8
CSLAYER1
  6
CONTINUOUS
 62
     6
 10
292.949484
 20
118.885185
 11
293.212861
 21
118.844661
  0
LINE
  8
CSLAYER1
  6
CONTINUOUS
 62
     6
 10
293.212861
 20
118.844661
 11
293.483247
 21
118.806739
  0
LINE
  8
CSLAYER1
  6
CONTINUOUS
 62
     6
 10
293.483247
 20
118.806739
 11
293.759074
 21
118.771138
  0
LINE
  8
CSLAYER1
  6
CONTINUOUS
 62
     6
 10
293.759074
 20
118.771138
 11
294.038772
 21
118.737580
  0
LINE
  8
CSLAYER1
  6
CONTINUOUS
 62
     6
 10
294.038772
 20
118.737580
 11
294.320775
 21
118.705784
  0
LINE
  8
CSLAYER1
  6
CONTINUOUS
 62
     6
 10
294.320775
 20
118.705784
 11
294.603513
 21
118.675470
  0
LINE
  8
CSLAYER1
  6
CONTINUOUS
 62
     6
 10
294.603513
 20
118.675470
 11
294.885418
 21
118.646359
  0
LINE
  8
CSLAYER1
  6
CONTINUOUS
 62
     6
 10
294.885418
 20
118.646359
 11
295.164923
 21
118.618170
  0
LINE
  8
CSLAYER1
  6
CONTINUOUS
 62
     6
 10
295.164923
 20
118.618170
 11
295.440458
 21
118.590623
  0
LINE
  8
CSLAYER1
  6
CONTINUOUS
 62
     6
 10
295.440458
 20
118.590623
 11
295.710455
 21
118.563439
  0
LINE
  8
CSLAYER1
  6
CONTINUOUS
 62
     6
 10
295.710455
 20
118.563439
 11
295.973347
 21
118.536337
  0
LINE
  8
CSLAYER1
  6
CONTINUOUS
 62
     6
 10
295.973347
 20
118.536337
 11
296.220836
 21
118.512026
  0
LINE
  8
CSLAYER1
  6
CONTINUOUS
 62
     6
 10
296.220836
 20
118.512026
 11
296.478094
 21
118.489756
  0
LINE
  8
CSLAYER1
  6
CONTINUOUS
 62
     6
 10
296.478094
 20
118.489756
 11
296.742566
 21
118.469437
  0
LINE
  8
CSLAYER1
  6
CONTINUOUS
 62
     6
 10
296.742566
 20
118.469437
 11
297.011697
 21
118.450976
  0
LINE
  8
CSLAYER1
  6
CONTINUOUS
 62
     6
 10
297.011697
 20
118.450976
 11
297.282933
 21
118.434282
  0
LINE
  8
CSLAYER1
  6
CONTINUOUS
 62
     6
 10
297.282933
 20
118.434282
 11
297.553719
 21
118.419262
  0
LINE
  8
CSLAYER1
  6
CONTINUOUS
 62
     6
 10
297.553719
 20
118.419262
 11
297.821500
 21
118.405825
  0
LINE
  8
CSLAYER1
  6
CONTINUOUS
 62
     6
 10
297.821500
 20
118.405825
 11
298.083721
 21
118.393878
  0
LINE
  8
CSLAYER1
  6
CONTINUOUS
 62
     6
 10
298.083721
 20
118.393878
 11
298.337828
 21
118.383330
  0
LINE
  8
CSLAYER1
  6
CONTINUOUS
 62
     6
 10
298.337828
 20
118.383330
 11
298.581267
 21
118.374088
  0
LINE
  8
CSLAYER1
  6
CONTINUOUS
 62
     6
 10
298.581267
 20
118.374088
 11
298.811481
 21
118.366062
  0
ARC
  8
CSLAYER1
  6
CONTINUOUS
 62
     6
 10
298.721609
 20
116.868777
 40
1.500000
 50
-93.433378
 51
86.566642
  0
LINE
  8
CSLAYER1
  6
CONTINUOUS
 62
     6
 10
298.631809
 20
115.371385
 11
298.395458
 21
115.379459
  0
LINE
  8
CSLAYER1
  6
CONTINUOUS
 62
     6
 10
298.395458
 20
115.379459
 11
298.145042
 21
115.388775
  0
LINE
  8
CSLAYER1
  6
CONTINUOUS
 62
     6
 10
298.145042
 20
115.388775
 11
297.883308
 21
115.399443
  0
LINE
  8
CSLAYER1
  6
CONTINUOUS
 62
     6
 10
297.883308
 20
115.399443
 11
297.613004
 21
115.411573
  0
LINE
  8
CSLAYER1
  6
CONTINUOUS
 62
     6
 10
297.613004
 20
115.411573
 11
297.336879
 21
115.425273
  0
LINE
  8
CSLAYER1
  6
CONTINUOUS
 62
     6
 10
297.336879
 20
115.425273
 11
297.057679
 21
115.440655
  0
LINE
  8
CSLAYER1
  6
CONTINUOUS
 62
     6
 10
297.057679
 20
115.440655
 11
296.778154
 21
115.457826
  0
LINE
  8
CSLAYER1
  6
CONTINUOUS
 62
     6
 10
296.778154
 20
115.457826
 11
296.501051
 21
115.476897
  0
LINE
  8
CSLAYER1
  6
CONTINUOUS
 62
     6
 10
296.501051
 20
115.476897
 11
296.229119
 21
115.497977
  0
LINE
  8
CSLAYER1
  6
CONTINUOUS
 62
     6
 10
296.229119
 20
115.497977
 11
295.965104
 21
115.521177
  0
LINE
  8
CSLAYER1
  6
CONTINUOUS
 62
     6
 10
295.965104
 20
115.521177
 11
295.711755
 21
115.546604
  0
LINE
  8
CSLAYER1
  6
CONTINUOUS
 62
     6
 10
295.711755
 20
115.546604
 11
295.455293
 21
115.573524
  0
LINE
  8
CSLAYER1
  6
CONTINUOUS
 62
     6
 10
295.455293
 20
115.573524
 11
295.191155
 21
115.600281
  0
LINE
  8
CSLAYER1
  6
CONTINUOUS
 62
     6
 10
295.191155
 20
115.600281
 11
294.921032
 21
115.627208
  0
LINE
  8
CSLAYER1
  6
CONTINUOUS
 62
     6
 10
294.921032
 20
115.627208
 11
294.646613
 21
115.654637
  0
LINE
  8
CSLAYER1
  6
CONTINUOUS
 62
     6
 10
294.646613
 20
115.654637
 11
294.369589
 21
115.682900
  0
LINE
  8
CSLAYER1
  6
CONTINUOUS
 62
     6
 10
294.369589
 20
115.682900
 11
294.091650
 21
115.712331
  0
LINE
  8
CSLAYER1
  6
CONTINUOUS
 62
     6
 10
294.091650
 20
115.712331
 11
293.814487
 21
115.743262
  0
LINE
  8
CSLAYER1
  6
CONTINUOUS
 62
     6
 10
293.814487
 20
115.743262
 11
293.539788
 21
115.776024
  0
LINE
  8
CSLAYER1
  6
CONTINUOUS
 62
     6
 10
293.539788
 20
115.776024
 11
293.269245
 21
115.810952
  0
LINE
  8
CSLAYER1
  6
CONTINUOUS
 62
     6
 10
293.269245
 20
115.810952
 11
293.004547
 21
115.848376
  0
LINE
  8
CSLAYER1
  6
CONTINUOUS
 62
     6
 10
293.004547
 20
115.848376
 11
292.747386
 21
115.888630
  0
LINE
  8
CSLAYER1
  6
CONTINUOUS
 62
     6
 10
292.747386
 20
115.888630
 11
292.401572
 21
115.942638
  0
LINE
  8
CSLAYER1
  6
CONTINUOUS
 62
     6
 10
292.401572
 20
115.942638
 11
292.046627
 21
115.991204
  0
LINE
  8
CSLAYER1
  6
CONTINUOUS
 62
     6
 10
292.046627
 20
115.991204
 11
291.684284
 21
116.033025
  0
LINE
  8
CSLAYER1
  6
CONTINUOUS
 62
     6
 10
291.684284
 20
116.033025
 11
291.316280
 21
116.066799
  0
LINE
  8
CSLAYER1
  6
CONTINUOUS
 62
     6
 10
291.316280
 20
116.066799
 11
290.944348
 21
116.091223
  0
LINE
  8
CSLAYER1
  6
CONTINUOUS
 62
     6
 10
290.944348
 20
116.091223
 11
290.570224
 21
116.104996
  0
LINE
  8
CSLAYER1
  6
CONTINUOUS
 62
     6
 10
290.570224
 20
116.104996
 11
290.195641
 21
116.106816
  0
LINE
  8
CSLAYER1
  6
CONTINUOUS
 62
     6
 10
290.195641
 20
116.106816
 11
289.822335
 21
116.095379
  0
LINE
  8
CSLAYER1
  6
CONTINUOUS
 62
     6
 10
289.822335
 20
116.095379
 11
289.452041
 21
116.069383
  0
LINE
  8
CSLAYER1
  6
CONTINUOUS
 62
     6
 10
289.452041
 20
116.069383
 11
289.086493
 21
116.027527
  0
LINE
  8
CSLAYER1
  6
CONTINUOUS
 62
     6
 10
289.086493
 20
116.027527
 11
288.727426
 21
115.968508
  0
LINE
  8
CSLAYER1
  6
CONTINUOUS
 62
     6
 10
288.727426
 20
115.968508
 11
288.506997
 21
115.922346
  0
LINE
  8
CSLAYER1
  6
CONTINUOUS
 62
     6
 10
288.506997
 20
115.922346
 11
288.287818
 21
115.869023
  0
LINE
  8
CSLAYER1
  6
CONTINUOUS
 62
     6
 10
288.287818
 20
115.869023
 11
288.069765
 21
115.809254
  0
LINE
  8
CSLAYER1
  6
CONTINUOUS
 62
     6
 10
288.069765
 20
115.809254
 11
287.852712
 21
115.743757
  0
LINE
  8
CSLAYER1
  6
CONTINUOUS
 62
     6
 10
287.852712
 20
115.743757
 11
287.636534
 21
115.673247
  0
LINE
  8
CSLAYER1
  6
CONTINUOUS
 62
     6
 10
287.636534
 20
115.673247
 11
287.421107
 21
115.598440
  0
LINE
  8
CSLAYER1
  6
CONTINUOUS
 62
     6
 10
287.421107
 20
115.598440
 11
287.206305
 21
115.520052
  0
LINE
  8
CSLAYER1
  6
CONTINUOUS
 62
     6
 10
287.206305
 20
115.520052
 11
286.992003
 21
115.438800
  0
LINE
  8
CSLAYER1
  6
CONTINUOUS
 62
     6
 10
286.992003
 20
115.438800
 11
286.778076
 21
115.355400
  0
LINE
  8
CSLAYER1
  6
CONTINUOUS
 62
     6
 10
286.778076
 20
115.355400
 11
286.564399
 21
115.270567
  0
LINE
  8
CSLAYER1
  6
CONTINUOUS
 62
     6
 10
286.564399
 20
115.270567
 11
286.350847
 21
115.185018
  0
ARC
  8
CSLAYER1
  6
CONTINUOUS
 62
     6
 10
284.882354
 20
115.490563
 40
1.499994
 50
-11.754089
 51
48.245911
  0
ARC
  8
CSLAYER1
  6
CONTINUOUS
 62
     6
 10
286.880151
 20
117.728584
 40
1.499994
 50
168.245911
 51
228.245911
  0
LINE
  8
CSLAYER1
  6
CONTINUOUS
 62
     6
 10
285.411558
 20
118.034186
 11
285.668762
 21
118.137588
  0
LINE
  8
CSLAYER1
  6
CONTINUOUS
 62
     6
 10
285.668762
 20
118.137588
 11
285.926121
 21
118.240111
  0
LINE
  8
CSLAYER1
  6
CONTINUOUS
 62
     6
 10
285.926121
 20
118.240111
 11
286.183789
 21
118.340874
  0
LINE
  8
CSLAYER1
  6
CONTINUOUS
 62
     6
 10
286.183789
 20
118.340874
 11
286.441923
 21
118.438997
  0
LINE
  8
CSLAYER1
  6
CONTINUOUS
 62
     6
 10
286.441923
 20
118.438997
 11
286.700675
 21
118.533602
  0
LINE
  8
CSLAYER1
  6
CONTINUOUS
 62
     6
 10
286.700675
 20
118.533602
 11
286.960203
 21
118.623808
  0
LINE
  8
CSLAYER1
  6
CONTINUOUS
 62
     6
 10
286.960203
 20
118.623808
 11
287.220660
 21
118.708736
  0
LINE
  8
CSLAYER1
  6
CONTINUOUS
 62
     6
 10
287.220660
 20
118.708736
 11
287.482201
 21
118.787506
  0
LINE
  8
CSLAYER1
  6
CONTINUOUS
 62
     6
 10
287.482201
 20
118.787506
 11
287.744981
 21
118.859237
  0
LINE
  8
CSLAYER1
  6
CONTINUOUS
 62
     6
 10
287.744981
 20
118.859237
 11
288.009156
 21
118.923052
  0
LINE
  8
CSLAYER1
  6
CONTINUOUS
 62
     6
 10
288.009156
 20
118.923052
 11
288.274880
 21
118.978069
  0
LINE
  8
CSLAYER1
  6
CONTINUOUS
 62
     6
 10
288.274880
 20
118.978069
 11
288.692460
 21
119.045727
  0
LINE
  8
CSLAYER1
  6
CONTINUOUS
 62
     6
 10
288.692460
 20
119.045727
 11
289.117198
 21
119.093620
  0
LINE
  8
CSLAYER1
  6
CONTINUOUS
 62
     6
 10
289.117198
 20
119.093620
 11
289.547200
 21
119.123264
  0
LINE
  8
CSLAYER1
  6
CONTINUOUS
 62
     6
 10
289.547200
 20
119.123264
 11
289.980573
 21
119.136173
  0
LINE
  8
CSLAYER1
  6
CONTINUOUS
 62
     6
 10
289.980573
 20
119.136173
 11
290.415423
 21
119.133861
  0
ARC
  8
CSLAYER1
  6
CONTINUOUS
 62
     6
 10
297.489840
 20
115.502720
 40
6.750000
 50
-154.073524
 51
148.329015
  0
LINE
  8
CSLAYER1
  6
CONTINUOUS
 62
     6
 10
291.393671
 20
112.548140
 11
291.195126
 21
112.518591
  0
LINE
  8
CSLAYER1
  6
CONTINUOUS
 62
     6
 10
291.195126
 20
112.518591
 11
291.002015
 21
112.486824
  0
LINE
  8
CSLAYER1
  6
CONTINUOUS
 62
     6
 10
291.002015
 20
112.486824
 11
290.815760
 21
112.453478
  0
LINE
  8
CSLAYER1
  6
CONTINUOUS
 62
     6
 10
290.815760
 20
112.453478
 11
290.654229
 21
112.420103
  0
LINE
  8
CSLAYER1
  6
CONTINUOUS
 62
     6
 10
290.654229
 20
112.420103
 11
290.490010
 21
112.379785
  0
LINE
  8
CSLAYER1
  6
CONTINUOUS
 62
     6
 10
290.490010
 20
112.379785
 11
290.323820
 21
112.332976
  0
LINE
  8
CSLAYER1
  6
CONTINUOUS
 62
     6
 10
290.323820
 20
112.332976
 11
290.156377
 21
112.280129
  0
LINE
  8
CSLAYER1
  6
CONTINUOUS
 62
     6
 10
290.156377
 20
112.280129
 11
289.988401
 21
112.221696
  0
LINE
  8
CSLAYER1
  6
CONTINUOUS
 62
     6
 10
289.988401
 20
112.221696
 11
289.820609
 21
112.158129
  0
LINE
  8
CSLAYER1
  6
CONTINUOUS
 62
     6
 10
289.820609
 20
112.158129
 11
289.653720
 21
112.089880
  0
LINE
  8
CSLAYER1
  6
CONTINUOUS
 62
     6
 10
289.653720
 20
112.089880
 11
289.488451
 21
112.017401
  0
LINE
  8
CSLAYER1
  6
CONTINUOUS
 62
     6
 10
289.488451
 20
112.017401
 11
289.325521
 21
111.941145
  0
LINE
  8
CSLAYER1
  6
CONTINUOUS
 62
     6
 10
289.325521
 20
111.941145
 11
289.165649
 21
111.861563
  0
LINE
  8
CSLAYER1
  6
CONTINUOUS
 62
     6
 10
289.165649
 20
111.861563
 11
289.009551
 21
111.779108
  0
LINE
  8
CSLAYER1
  6
CONTINUOUS
 62
     6
 10
289.009551
 20
111.779108
 11
288.880847
 21
111.707315
  0
LINE
  8
CSLAYER1
  6
CONTINUOUS
 62
     6
 10
288.880847
 20
111.707315
 11
288.753657
 21
111.632985
  0
LINE
  8
CSLAYER1
  6
CONTINUOUS
 62
     6
 10
288.753657
 20
111.632985
 11
288.627832
 21
111.556372
  0
LINE
  8
CSLAYER1
  6
CONTINUOUS
 62
     6
 10
288.627832
 20
111.556372
 11
288.503219
 21
111.477728
  0
LINE
  8
CSLAYER1
  6
CONTINUOUS
 62
     6
 10
288.503219
 20
111.477728
 11
288.379666
 21
111.397308
  0
LINE
  8
CSLAYER1
  6
CONTINUOUS
 62
     6
 10
288.379666
 20
111.397308
 11
288.257023
 21
111.315366
  0
LINE
  8
CSLAYER1
  6
CONTINUOUS
 62
     6
 10
288.257023
 20
111.315366
 11
288.135138
 21
111.232155
  0
LINE
  8
CSLAYER1
  6
CONTINUOUS
 62
     6
 10
288.135138
 20
111.232155
 11
288.013859
 21
111.147928
  0
LINE
  8
CSLAYER1
  6
CONTINUOUS
 62
     6
 10
288.013859
 20
111.147928
 11
287.893034
 21
111.062941
  0
LINE
  8
CSLAYER1
  6
CONTINUOUS
 62
     6
 10
287.893034
 20
111.062941
 11
287.772512
 21
110.977446
  0
LINE
  8
CSLAYER1
  6
CONTINUOUS
 62
     6
 10
287.772512
 20
110.977446
 11
287.652143
 21
110.891697
  0
ARC
  8
CSLAYER1
  6
CONTINUOUS
 62
     6
 10
286.154481
 20
110.808481
 40
1.500006
 50
3.178280
 51
63.178280
  0
ARC
  8
CSLAYER1
  6
CONTINUOUS
 62
     6
 10
288.329005
 20
112.230273
 40
1.500006
 50
183.178280
 51
243.178280
  0
ARC
  8
CSLAYER1
  6
CONTINUOUS
 62
     6
 10
287.508133
 20
113.485736
 40
1.500006
 50
183.178280
 51
243.178280
  0
LINE
  8
CSLAYER1
  6
CONTINUOUS
 62
     6
 10
286.010400
 20
113.402626
 11
286.155827
 21
113.505565
  0
LINE
  8
CSLAYER1
  6
CONTINUOUS
 62
     6
 10
286.155827
 20
113.505565
 11
286.301422
 21
113.608221
  0
LINE
  8
CSLAYER1
  6
CONTINUOUS
 62
     6
 10
286.301422
 20
113.608221
 11
286.447355
 21
113.710312
  0
LINE
  8
CSLAYER1
  6
CONTINUOUS
 62
     6
 10
286.447355
 20
113.710312
 11
286.593795
 21
113.811556
  0
LINE
  8
CSLAYER1
  6
CONTINUOUS
 62
     6
 10
286.593795
 20
113.811556
 11
286.740910
 21
113.911668
  0
LINE
  8
CSLAYER1
  6
CONTINUOUS
 62
     6
 10
286.740910
 20
113.911668
 11
286.888870
 21
114.010368
  0
LINE
  8
CSLAYER1
  6
CONTINUOUS
 62
     6
 10
286.888870
 20
114.010368
 11
287.037843
 21
114.107372
  0
LINE
  8
CSLAYER1
  6
CONTINUOUS
 62
     6
 10
287.037843
 20
114.107372
 11
287.187998
 21
114.202397
  0
LINE
  8
CSLAYER1
  6
CONTINUOUS
 62
     6
 10
287.187998
 20
114.202397
 11
287.339505
 21
114.295162
  0
LINE
  8
CSLAYER1
  6
CONTINUOUS
 62
     6
 10
287.339505
 20
114.295162
 11
287.492532
 21
114.385383
  0
LINE
  8
CSLAYER1
  6
CONTINUOUS
 62
     6
 10
287.492532
 20
114.385383
 11
287.647247
 21
114.472777
  0
LINE
  8
CSLAYER1
  6
CONTINUOUS
 62
     6
 10
287.647247
 20
114.472777
 11
287.863738
 21
114.588609
  0
LINE
  8
CSLAYER1
  6
CONTINUOUS
 62
     6
 10
287.863738
 20
114.588609
 11
288.085734
 21
114.700149
  0
LINE
  8
CSLAYER1
  6
CONTINUOUS
 62
     6
 10
288.085734
 20
114.700149
 11
288.312193
 21
114.806791
  0
LINE
  8
CSLAYER1
  6
CONTINUOUS
 62
     6
 10
288.312193
 20
114.806791
 11
288.542073
 21
114.907928
  0
LINE
  8
CSLAYER1
  6
CONTINUOUS
 62
     6
 10
288.542073
 20
114.907928
 11
288.774333
 21
115.002953
  0
LINE
  8
CSLAYER1
  6
CONTINUOUS
 62
     6
 10
288.774333
 20
115.002953
 11
289.007932
 21
115.091258
  0
LINE
  8
CSLAYER1
  6
CONTINUOUS
 62
     6
 10
289.007932
 20
115.091258
 11
289.241828
 21
115.172237
  0
LINE
  8
CSLAYER1
  6
CONTINUOUS
 62
     6
 10
289.241828
 20
115.172237
 11
289.474980
 21
115.245282
  0
LINE
  8
CSLAYER1
  6
CONTINUOUS
 62
     6
 10
289.474980
 20
115.245282
 11
289.706346
 21
115.309787
  0
LINE
  8
CSLAYER1
  6
CONTINUOUS
 62
     6
 10
289.706346
 20
115.309787
 11
289.934886
 21
115.365143
  0
LINE
  8
CSLAYER1
  6
CONTINUOUS
 62
     6
 10
289.934886
 20
115.365143
 11
290.159556
 21
115.410745
  0
LINE
  8
CSLAYER1
  6
CONTINUOUS
 62
     6
 10
290.159556
 20
115.410745
 11
290.403799
 21
115.453750
  0
LINE
  8
CSLAYER1
  6
CONTINUOUS
 62
     6
 10
290.403799
 20
115.453750
 11
290.656845
 21
115.494986
  0
LINE
  8
CSLAYER1
  6
CONTINUOUS
 62
     6
 10
290.656845
 20
115.494986
 11
290.916905
 21
115.533561
  0
LINE
  8
CSLAYER1
  6
CONTINUOUS
 62
     6
 10
290.916905
 20
115.533561
 11
291.182193
 21
115.568586
  0
LINE
  8
CSLAYER1
  6
CONTINUOUS
 62
     6
 10
291.182193
 20
115.568586
 11
291.450921
 21
115.599170
  0
LINE
  8
CSLAYER1
  6
CONTINUOUS
 62
     6
 10
291.450921
 20
115.599170
 11
291.721301
 21
115.624423
  0
LINE
  8
CSLAYER1
  6
CONTINUOUS
 62
     6
 10
291.721301
 20
115.624423
 11
291.991546
 21
115.643454
  0
LINE
  8
CSLAYER1
  6
CONTINUOUS
 62
     6
 10
291.991546
 20
115.643454
 11
292.259869
 21
115.655373
  0
LINE
  8
CSLAYER1
  6
CONTINUOUS
 62
     6
 10
292.259869
 20
115.655373
 11
292.524480
 21
115.659290
  0
LINE
  8
CSLAYER1
  6
CONTINUOUS
 62
     6
 10
292.524480
 20
115.659290
 11
292.783594
 21
115.654314
  0
LINE
  8
CSLAYER1
  6
CONTINUOUS
 62
     6
 10
292.783594
 20
115.654314
 11
293.035422
 21
115.639554
  0
LINE
  8
CSLAYER1
  6
CONTINUOUS
 62
     6
 10
293.035422
 20
115.639554
 11
293.224566
 21
115.624281
  0
LINE
  8
CSLAYER1
  6
CONTINUOUS
 62
     6
 10
293.224566
 20
115.624281
 11
293.418307
 21
115.608456
  0
LINE
  8
CSLAYER1
  6
CONTINUOUS
 62
     6
 10
293.418307
 20
115.608456
 11
293.615609
 21
115.591988
  0
LINE
  8
CSLAYER1
  6
CONTINUOUS
 62
     6
 10
293.615609
 20
115.591988
 11
293.815437
 21
115.574787
  0
LINE
  8
CSLAYER1
  6
CONTINUOUS
 62
     6
 10
293.815437
 20
115.574787
 11
294.016758
 21
115.556763
  0
LINE
  8
CSLAYER1
  6
CONTINUOUS
 62
     6
 10
294.016758
 20
115.556763
 11
294.218537
 21
115.537827
  0
LINE
  8
CSLAYER1
  6
CONTINUOUS
 62
     6
 10
294.218537
 20
115.537827
 11
294.419738
 21
115.517887
  0
LINE
  8
CSLAYER1
  6
CONTINUOUS
 62
     6
 10
294.419738
 20
115.517887
 11
294.619329
 21
115.496853
  0
LINE
  8
CSLAYER1
  6
CONTINUOUS
 62
     6
 10
294.619329
 20
115.496853
 11
294.816273
 21
115.474636
  0
LINE
  8
CSLAYER1
  6
CONTINUOUS
 62
     6
 10
294.816273
 20
115.474636
 11
295.009537
 21
115.451146
  0
LINE
  8
CSLAYER1
  6
CONTINUOUS
 62
     6
 10
295.009537
 20
115.451146
 11
295.198085
 21
115.426292
  0
LINE
  8
CSLAYER1
  6
CONTINUOUS
 62
     6
 10
295.198085
 20
115.426292
 11
295.346706
 21
115.406640
  0
LINE
  8
CSLAYER1
  6
CONTINUOUS
 62
     6
 10
295.346706
 20
115.406640
 11
295.499424
 21
115.388024
  0
LINE
  8
CSLAYER1
  6
CONTINUOUS
 62
     6
 10
295.499424
 20
115.388024
 11
295.655297
 21
115.370587
  0
LINE
  8
CSLAYER1
  6
CONTINUOUS
 62
     6
 10
295.655297
 20
115.370587
 11
295.813386
 21
115.354475
  0
LINE
  8
CSLAYER1
  6
CONTINUOUS
 62
     6
 10
295.813386
 20
115.354475
 11
295.972748
 21
115.339833
  0
LINE
  8
CSLAYER1
  6
CONTINUOUS
 62
     6
 10
295.972748
 20
115.339833
 11
296.132442
 21
115.326806
  0
LINE
  8
CSLAYER1
  6
CONTINUOUS
 62
     6
 10
296.132442
 20
115.326806
 11
296.291528
 21
115.315538
  0
LINE
  8
CSLAYER1
  6
CONTINUOUS
 62
     6
 10
296.291528
 20
115.315538
 11
296.449065
 21
115.306175
  0
LINE
  8
CSLAYER1
  6
CONTINUOUS
 62
     6
 10
296.449065
 20
115.306175
 11
296.604110
 21
115.298862
  0
LINE
  8
CSLAYER1
  6
CONTINUOUS
 62
     6
 10
296.604110
 20
115.298862
 11
296.755724
 21
115.293744
  0
LINE
  8
CSLAYER1
  6
CONTINUOUS
 62
     6
 10
296.755724
 20
115.293744
 11
296.902965
 21
115.290965
  0
LINE
  8
CSLAYER1
  6
CONTINUOUS
 62
     6
 10
296.902965
 20
115.290965
 11
297.046939
 21
115.290372
  0
LINE
  8
CSLAYER1
  6
CONTINUOUS
 62
     6
 10
297.046939
 20
115.290372
 11
297.196924
 21
115.291569
  0
LINE
  8
CSLAYER1
  6
CONTINUOUS
 62
     6
 10
297.196924
 20
115.291569
 11
297.351365
 21
115.294475
  0
LINE
  8
CSLAYER1
  6
CONTINUOUS
 62
     6
 10
297.351365
 20
115.294475
 11
297.508707
 21
115.299011
  0
LINE
  8
CSLAYER1
  6
CONTINUOUS
 62
     6
 10
297.508707
 20
115.299011
 11
297.667393
 21
115.305097
  0
LINE
  8
CSLAYER1
  6
CONTINUOUS
 62
     6
 10
297.667393
 20
115.305097
 11
297.825868
 21
115.312655
  0
LINE
  8
CSLAYER1
  6
CONTINUOUS
 62
     6
 10
297.825868
 20
115.312655
 11
297.982577
 21
115.321604
  0
LINE
  8
CSLAYER1
  6
CONTINUOUS
 62
     6
 10
297.982577
 20
115.321604
 11
298.135964
 21
115.331865
  0
LINE
  8
CSLAYER1
  6
CONTINUOUS
 62
     6
 10
298.135964
 20
115.331865
 11
298.284474
 21
115.343358
  0
LINE
  8
CSLAYER1
  6
CONTINUOUS
 62
     6
 10
298.284474
 20
115.343358
 11
298.426551
 21
115.356004
  0
LINE
  8
CSLAYER1
  6
CONTINUOUS
 62
     6
 10
298.426551
 20
115.356004
 11
298.560639
 21
115.369723
  0
ARC
  8
CSLAYER1
  6
CONTINUOUS
 62
     6
 10
298.667357
 20
113.872300
 40
1.500000
 50
-88.640300
 51
91.359720
  0
LINE
  8
CSLAYER1
  6
CONTINUOUS
 62
     6
 10
298.702979
 20
112.373107
 11
298.553299
 21
112.357870
  0
LINE
  8
CSLAYER1
  6
CONTINUOUS
 62
     6
 10
298.553299
 20
112.357870
 11
298.394578
 21
112.343835
  0
LINE
  8
CSLAYER1
  6
CONTINUOUS
 62
     6
 10
298.394578
 20
112.343835
 11
298.228609
 21
112.331088
  0
LINE
  8
CSLAYER1
  6
CONTINUOUS
 62
     6
 10
298.228609
 20
112.331088
 11
298.057187
 21
112.319709
  0
LINE
  8
CSLAYER1
  6
CONTINUOUS
 62
     6
 10
298.057187
 20
112.319709
 11
297.882103
 21
112.309784
  0
LINE
  8
CSLAYER1
  6
CONTINUOUS
 62
     6
 10
297.882103
 20
112.309784
 11
297.705153
 21
112.301393
  0
LINE
  8
CSLAYER1
  6
CONTINUOUS
 62
     6
 10
297.705153
 20
112.301393
 11
297.528128
 21
112.294622
  0
LINE
  8
CSLAYER1
  6
CONTINUOUS
 62
     6
 10
297.528128
 20
112.294622
 11
297.352823
 21
112.289552
  0
LINE
  8
CSLAYER1
  6
CONTINUOUS
 62
     6
 10
297.352823
 20
112.289552
 11
297.181030
 21
112.286266
  0
LINE
  8
CSLAYER1
  6
CONTINUOUS
 62
     6
 10
297.181030
 20
112.286266
 11
297.014544
 21
112.284849
  0
LINE
  8
CSLAYER1
  6
CONTINUOUS
 62
     6
 10
297.014544
 20
112.284849
 11
296.855157
 21
112.285382
  0
LINE
  8
CSLAYER1
  6
CONTINUOUS
 62
     6
 10
296.855157
 20
112.285382
 11
296.690010
 21
112.288317
  0
LINE
  8
CSLAYER1
  6
CONTINUOUS
 62
     6
 10
296.690010
 20
112.288317
 11
296.519205
 21
112.293832
  0
LINE
  8
CSLAYER1
  6
CONTINUOUS
 62
     6
 10
296.519205
 20
112.293832
 11
296.343980
 21
112.301795
  0
LINE
  8
CSLAYER1
  6
CONTINUOUS
 62
     6
 10
296.343980
 20
112.301795
 11
296.165576
 21
112.312077
  0
LINE
  8
CSLAYER1
  6
CONTINUOUS
 62
     6
 10
296.165576
 20
112.312077
 11
295.985233
 21
112.324547
  0
LINE
  8
CSLAYER1
  6
CONTINUOUS
 62
     6
 10
295.985233
 20
112.324547
 11
295.804191
 21
112.339075
  0
LINE
  8
CSLAYER1
  6
CONTINUOUS
 62
     6
 10
295.804191
 20
112.339075
 11
295.623689
 21
112.355531
  0
LINE
  8
CSLAYER1
  6
CONTINUOUS
 62
     6
 10
295.623689
 20
112.355531
 11
295.444968
 21
112.373783
  0
LINE
  8
CSLAYER1
  6
CONTINUOUS
 62
     6
 10
295.444968
 20
112.373783
 11
295.269268
 21
112.393703
  0
LINE
  8
CSLAYER1
  6
CONTINUOUS
 62
     6
 10
295.269268
 20
112.393703
 11
295.097828
 21
112.415159
  0
LINE
  8
CSLAYER1
  6
CONTINUOUS
 62
     6
 10
295.097828
 20
112.415159
 11
294.931888
 21
112.438021
  0
LINE
  8
CSLAYER1
  6
CONTINUOUS
 62
     6
 10
294.931888
 20
112.438021
 11
294.765805
 21
112.460828
  0
LINE
  8
CSLAYER1
  6
CONTINUOUS
 62
     6
 10
294.765805
 20
112.460828
 11
294.594675
 21
112.482163
  0
LINE
  8
CSLAYER1
  6
CONTINUOUS
 62
     6
 10
294.594675
 20
112.482163
 11
294.419586
 21
112.502146
  0
LINE
  8
CSLAYER1
  6
CONTINUOUS
 62
     6
 10
294.419586
 20
112.502146
 11
294.241626
 21
112.520897
  0
LINE
  8
CSLAYER1
  6
CONTINUOUS
 62
     6
 10
294.241626
 20
112.520897
 11
294.061883
 21
112.538537
  0
LINE
  8
CSLAYER1
  6
CONTINUOUS
 62
     6
 10
294.061883
 20
112.538537
 11
293.881445
 21
112.555185
  0
LINE
  8
CSLAYER1
  6
CONTINUOUS
 62
     6
 10
293.881445
 20
112.555185
 11
293.701400
 21
112.570962
  0
LINE
  8
CSLAYER1
  6
CONTINUOUS
 62
     6
 10
293.701400
 20
112.570962
 11
293.522835
 21
112.585988
  0
LINE
  8
CSLAYER1
  6
CONTINUOUS
 62
     6
 10
293.522835
 20
112.585988
 11
293.346838
 21
112.600382
  0
LINE
  8
CSLAYER1
  6
CONTINUOUS
 62
     6
 10
293.346838
 20
112.600382
 11
293.174496
 21
112.614266
  0
LINE
  8
CSLAYER1
  6
CONTINUOUS
 62
     6
 10
293.174496
 20
112.614266
 11
293.006899
 21
112.627758
  0
LINE
  8
CSLAYER1
  6
CONTINUOUS
 62
     6
 10
293.006899
 20
112.627758
 11
292.816108
 21
112.639028
  0
LINE
  8
CSLAYER1
  6
CONTINUOUS
 62
     6
 10
292.816108
 20
112.639028
 11
292.619368
 21
112.642953
  0
LINE
  8
CSLAYER1
  6
CONTINUOUS
 62
     6
 10
292.619368
 20
112.642953
 11
292.418101
 21
112.640173
  0
LINE
  8
CSLAYER1
  6
CONTINUOUS
 62
     6
 10
292.418101
 20
112.640173
 11
292.213731
 21
112.631331
  0
LINE
  8
CSLAYER1
  6
CONTINUOUS
 62
     6
 10
292.213731
 20
112.631331
 11
292.007680
 21
112.617065
  0
LINE
  8
CSLAYER1
  6
CONTINUOUS
 62
     6
 10
292.007680
 20
112.617065
 11
291.801371
 21
112.598018
  0
LINE
  8
CSLAYER1
  6
CONTINUOUS
 62
     6
 10
291.801371
 20
112.598018
 11
291.596227
 21
112.574829
  0
LINE
  8
CSLAYER1
  6
CONTINUOUS
 62
     6
 10
291.596227
 20
112.574829
 11
291.393671
 21
112.548140
  0
LINE
  8
CSLAYER1
  6
CONTINUOUS
 62
     6
 10
290.489862
 20
112.379785
 11
290.489862
 21
99.502757
  0
ARC
  8
CSLAYER1
  6
CONTINUOUS
 62
     6
 10
292.489862
 20
99.502757
 40
2.000000
 50
180.000000
 51
270.000000
  0
ARC
  8
CSLAYER1
  6
CONTINUOUS
 62
     6
 10
303.489858
 20
100.502745
 40
1.527778
 50
163.398423
 51
196.601584
  0
LINE
  8
CSLAYER1
  6
CONTINUOUS
 62
     6
 10
302.025773
 20
100.939258
 11
302.616832
 21
100.939258
  0
ARC
  8
CSLAYER1
  6
CONTINUOUS
 62
     6
 10
302.616832
 20
101.375749
 40
0.436508
 50
270.057346
 51
359.999995
  0
LINE
  8
CSLAYER1
  6
CONTINUOUS
 62
     6
 10
303.053345
 20
101.375749
 11
303.053345
 21
101.966853
  0
ARC
  8
CSLAYER1
  6
CONTINUOUS
 62
     6
 10
303.489858
 20
100.502745
 40
1.527778
 50
73.398417
 51
106.601578
  0
LINE
  8
CSLAYER1
  6
CONTINUOUS
 62
     6
 10
303.926372
 20
101.966853
 11
303.926372
 21
101.375749
  0
ARC
  8
CSLAYER1
  6
CONTINUOUS
 62
     6
 10
304.362885
 20
101.375749
 40
0.436508
 50
180.057309
 51
269.999999
  0
LINE
  8
CSLAYER1
  6
CONTINUOUS
 62
     6
 10
304.362885
 20
100.939258
 11
304.953944
 21
100.939258
  0
ARC
  8
CSLAYER1
  6
CONTINUOUS
 62
     6
 10
303.489858
 20
100.502745
 40
1.527778
 50
-16.601572
 51
16.601562
  0
LINE
  8
CSLAYER1
  6
CONTINUOUS
 62
     6
 10
304.953944
 20
100.066232
 11
304.362885
 21
100.066232
  0
ARC
  8
CSLAYER1
  6
CONTINUOUS
 62
     6
 10
304.362885
 20
99.629741
 40
0.436508
 50
89.999984
 51
179.999990
  0
LINE
  8
CSLAYER1
  6
CONTINUOUS
 62
     6
 10
303.926372
 20
99.629741
 11
303.926372
 21
99.038637
  0
ARC
  8
CSLAYER1
  6
CONTINUOUS
 62
     6
 10
303.489858
 20
100.502745
 40
1.527778
 50
253.398405
 51
286.601594
  0
LINE
  8
CSLAYER1
  6
CONTINUOUS
 62
     6
 10
303.053345
 20
99.038637
 11
303.053345
 21
99.629741
  0
ARC
  8
CSLAYER1
  6
CONTINUOUS
 62
     6
 10
302.616832
 20
99.629741
 40
0.436508
 50
-0.000005
 51
89.999984
  0
LINE
  8
CSLAYER1
  6
CONTINUOUS
 62
     6
 10
302.616832
 20
100.066232
 11
302.025773
 21
100.066232
  0
CIRCLE
  8
CSLAYER1
  6
CONTINUOUS
 62
     6
 10
303.489868
 20
100.502746
 40
2.750000
  0
ARC
  8
CSLAYER1
  6
CONTINUOUS
 62
     6
 10
297.489840
 20
115.502720
 40
4.000000
 50
-129.735526
 51
128.465835
  0
ARC
  8
CSLAYER1
  6
CONTINUOUS
 62
     6
 10
297.489840
 20
115.502720
 40
4.000000
 50
176.007555
 51
178.572301
  0
ARC
  8
CSLAYER1
  6
CONTINUOUS
 62
     6
 10
297.489840
 20
115.502720
 40
6.750000
 50
174.942367
 51
179.961149
  0
LINE
  8
CSLAYER1
  6
CONTINUOUS
 62
     6
 10
290.489891
 20
116.104052
 11
290.489833
 21
115.502700
  0
LINE
  8
CSLAYER1
  6
CONTINUOUS
 62
     6
 10
290.489862
 20
115.467775
 11
290.489862
 21
116.105387
  0
ARC
  8
CSLAYER1
  6
CONTINUOUS
 62
     6
 10
287.349794
 20
116.304007
 40
1.499994
 50
168.245911
 51
228.245911
  0
ARC
  8
CSLAYER1
  6
CONTINUOUS
 62
     6
 10
284.178838
 20
116.733759
 40
1.499998
 50
182.735346
 51
242.735346
  0
ARC
  8
CSLAYER1
  6
CONTINUOUS
 62
     6
 10
281.993398
 20
115.328827
 40
1.499998
 50
2.735346
 51
62.735346
  0
ARC
  8
CSLAYER1
  6
CONTINUOUS
 62
     6
 10
282.804536
 20
114.067062
 40
1.499998
 50
2.735346
 51
62.735346
  0
LINE
  8
CSLAYER1
  6
CONTINUOUS
 62
     6
 10
284.302774
 20
114.138595
 11
284.176640
 21
114.077329
  0
LINE
  8
CSLAYER1
  6
CONTINUOUS
 62
     6
 10
284.176640
 20
114.077329
 11
284.045683
 21
114.008049
  0
LINE
  8
CSLAYER1
  6
CONTINUOUS
 62
     6
 10
284.045683
 20
114.008049
 11
283.911152
 21
113.931874
  0
LINE
  8
CSLAYER1
  6
CONTINUOUS
 62
     6
 10
283.911152
 20
113.931874
 11
283.774293
 21
113.849922
  0
LINE
  8
CSLAYER1
  6
CONTINUOUS
 62
     6
 10
283.774293
 20
113.849922
 11
283.636352
 21
113.763312
  0
LINE
  8
CSLAYER1
  6
CONTINUOUS
 62
     6
 10
283.636352
 20
113.763312
 11
283.498577
 21
113.673162
  0
LINE
  8
CSLAYER1
  6
CONTINUOUS
 62
     6
 10
283.498577
 20
113.673162
 11
283.362213
 21
113.580591
  0
LINE
  8
CSLAYER1
  6
CONTINUOUS
 62
     6
 10
283.362213
 20
113.580591
 11
283.228508
 21
113.486719
  0
LINE
  8
CSLAYER1
  6
CONTINUOUS
 62
     6
 10
283.228508
 20
113.486719
 11
283.098709
 21
113.392662
  0
LINE
  8
CSLAYER1
  6
CONTINUOUS
 62
     6
 10
283.098709
 20
113.392662
 11
282.974061
 21
113.299541
  0
LINE
  8
CSLAYER1
  6
CONTINUOUS
 62
     6
 10
282.974061
 20
113.299541
 11
282.855813
 21
113.208474
  0
LINE
  8
CSLAYER1
  6
CONTINUOUS
 62
     6
 10
282.855813
 20
113.208474
 11
282.763631
 21
113.133322
  0
LINE
  8
CSLAYER1
  6
CONTINUOUS
 62
     6
 10
282.763631
 20
113.133322
 11
282.672221
 21
113.052924
  0
LINE
  8
CSLAYER1
  6
CONTINUOUS
 62
     6
 10
282.672221
 20
113.052924
 11
282.581806
 21
112.967820
  0
LINE
  8
CSLAYER1
  6
CONTINUOUS
 62
     6
 10
282.581806
 20
112.967820
 11
282.492608
 21
112.878552
  0
LINE
  8
CSLAYER1
  6
CONTINUOUS
 62
     6
 10
282.492608
 20
112.878552
 11
282.404852
 21
112.785662
  0
LINE
  8
CSLAYER1
  6
CONTINUOUS
 62
     6
 10
282.404852
 20
112.785662
 11
282.318760
 21
112.689690
  0
LINE
  8
CSLAYER1
  6
CONTINUOUS
 62
     6
 10
282.318760
 20
112.689690
 11
282.234556
 21
112.591177
  0
LINE
  8
CSLAYER1
  6
CONTINUOUS
 62
     6
 10
282.234556
 20
112.591177
 11
282.152463
 21
112.490666
  0
LINE
  8
CSLAYER1
  6
CONTINUOUS
 62
     6
 10
282.152463
 20
112.490666
 11
282.072704
 21
112.388696
  0
LINE
  8
CSLAYER1
  6
CONTINUOUS
 62
     6
 10
282.072704
 20
112.388696
 11
281.995503
 21
112.285810
  0
LINE
  8
CSLAYER1
  6
CONTINUOUS
 62
     6
 10
281.995503
 20
112.285810
 11
281.921082
 21
112.182548
  0
LINE
  8
CSLAYER1
  6
CONTINUOUS
 62
     6
 10
281.921082
 20
112.182548
 11
281.827415
 21
112.046203
  0
LINE
  8
CSLAYER1
  6
CONTINUOUS
 62
     6
 10
281.827415
 20
112.046203
 11
281.737238
 21
111.907746
  0
LINE
  8
CSLAYER1
  6
CONTINUOUS
 62
     6
 10
281.737238
 20
111.907746
 11
281.650203
 21
111.767389
  0
LINE
  8
CSLAYER1
  6
CONTINUOUS
 62
     6
 10
281.650203
 20
111.767389
 11
281.565961
 21
111.625343
  0
LINE
  8
CSLAYER1
  6
CONTINUOUS
 62
     6
 10
281.565961
 20
111.625343
 11
281.484161
 21
111.481819
  0
LINE
  8
CSLAYER1
  6
CONTINUOUS
 62
     6
 10
281.484161
 20
111.481819
 11
281.404456
 21
111.337028
  0
LINE
  8
CSLAYER1
  6
CONTINUOUS
 62
     6
 10
281.404456
 20
111.337028
 11
281.326496
 21
111.191182
  0
LINE
  8
CSLAYER1
  6
CONTINUOUS
 62
     6
 10
281.326496
 20
111.191182
 11
281.249933
 21
111.044491
  0
LINE
  8
CSLAYER1
  6
CONTINUOUS
 62
     6
 10
281.249933
 20
111.044491
 11
281.174416
 21
110.897167
  0
LINE
  8
CSLAYER1
  6
CONTINUOUS
 62
     6
 10
281.174416
 20
110.897167
 11
281.099598
 21
110.749421
  0
LINE
  8
CSLAYER1
  6
CONTINUOUS
 62
     6
 10
281.099598
 20
110.749421
 11
281.025129
 21
110.601464
  0
ARC
  8
CSLAYER1
  6
CONTINUOUS
 62
     6
 10
281.013058
 20
112.101459
 40
1.499998
 50
210.461270
 51
270.461270
  0
ARC
  8
CSLAYER1
  6
CONTINUOUS
 62
     6
 10
279.732177
 20
109.841076
 40
1.499998
 50
30.461270
 51
90.461270
  0
LINE
  8
CSLAYER1
  6
CONTINUOUS
 62
     6
 10
280.151922
 20
110.937928
 11
279.259458
 21
107.655859
  0
LINE
  8
CSLAYER1
  6
CONTINUOUS
 62
     6
 10
278.395770
 20
107.943744
 11
279.489788
 21
111.139496
  0
ARC
  8
CSLAYER1
  6
CONTINUOUS
 62
     6
 10
279.708026
 20
112.840975
 40
1.499998
 50
210.461270
 51
270.461270
  0
LINE
  8
CSLAYER1
  6
CONTINUOUS
 62
     6
 10
278.415045
 20
112.080538
 11
278.504349
 21
112.255111
  0
LINE
  8
CSLAYER1
  6
CONTINUOUS
 62
     6
 10
278.504349
 20
112.255111
 11
278.594015
 21
112.429474
  0
LINE
  8
CSLAYER1
  6
CONTINUOUS
 62
     6
 10
278.594015
 20
112.429474
 11
278.684404
 21
112.603412
  0
LINE
  8
CSLAYER1
  6
CONTINUOUS
 62
     6
 10
278.684404
 20
112.603412
 11
278.775877
 21
112.776716
  0
LINE
  8
CSLAYER1
  6
CONTINUOUS
 62
     6
 10
278.775877
 20
112.776716
 11
278.868795
 21
112.949172
  0
LINE
  8
CSLAYER1
  6
CONTINUOUS
 62
     6
 10
278.868795
 20
112.949172
 11
278.963520
 21
113.120570
  0
LINE
  8
CSLAYER1
  6
CONTINUOUS
 62
     6
 10
278.963520
 20
113.120570
 11
279.060413
 21
113.290697
  0
LINE
  8
CSLAYER1
  6
CONTINUOUS
 62
     6
 10
279.060413
 20
113.290697
 11
279.159836
 21
113.459341
  0
LINE
  8
CSLAYER1
  6
CONTINUOUS
 62
     6
 10
279.159836
 20
113.459341
 11
279.262150
 21
113.626292
  0
LINE
  8
CSLAYER1
  6
CONTINUOUS
 62
     6
 10
279.262150
 20
113.626292
 11
279.367716
 21
113.791337
  0
LINE
  8
CSLAYER1
  6
CONTINUOUS
 62
     6
 10
279.367716
 20
113.791337
 11
279.476896
 21
113.954265
  0
LINE
  8
CSLAYER1
  6
CONTINUOUS
 62
     6
 10
279.476896
 20
113.954265
 11
279.588596
 21
114.113252
  0
LINE
  8
CSLAYER1
  6
CONTINUOUS
 62
     6
 10
279.588596
 20
114.113252
 11
279.704987
 21
114.271500
  0
LINE
  8
CSLAYER1
  6
CONTINUOUS
 62
     6
 10
279.704987
 20
114.271500
 11
279.825700
 21
114.428143
  0
LINE
  8
CSLAYER1
  6
CONTINUOUS
 62
     6
 10
279.825700
 20
114.428143
 11
279.950368
 21
114.582314
  0
LINE
  8
CSLAYER1
  6
CONTINUOUS
 62
     6
 10
279.950368
 20
114.582314
 11
280.078622
 21
114.733144
  0
LINE
  8
CSLAYER1
  6
CONTINUOUS
 62
     6
 10
280.078622
 20
114.733144
 11
280.210096
 21
114.879767
  0
LINE
  8
CSLAYER1
  6
CONTINUOUS
 62
     6
 10
280.210096
 20
114.879767
 11
280.344421
 21
115.021316
  0
LINE
  8
CSLAYER1
  6
CONTINUOUS
 62
     6
 10
280.344421
 20
115.021316
 11
280.481229
 21
115.156923
  0
LINE
  8
CSLAYER1
  6
CONTINUOUS
 62
     6
 10
280.481229
 20
115.156923
 11
280.620152
 21
115.285722
  0
LINE
  8
CSLAYER1
  6
CONTINUOUS
 62
     6
 10
280.620152
 20
115.285722
 11
280.760823
 21
115.406846
  0
LINE
  8
CSLAYER1
  6
CONTINUOUS
 62
     6
 10
280.760823
 20
115.406846
 11
280.902873
 21
115.519427
  0
LINE
  8
CSLAYER1
  6
CONTINUOUS
 62
     6
 10
280.902873
 20
115.519427
 11
281.049323
 21
115.629133
  0
LINE
  8
CSLAYER1
  6
CONTINUOUS
 62
     6
 10
281.049323
 20
115.629133
 11
281.203048
 21
115.741728
  0
LINE
  8
CSLAYER1
  6
CONTINUOUS
 62
     6
 10
281.203048
 20
115.741728
 11
281.362631
 21
115.855860
  0
LINE
  8
CSLAYER1
  6
CONTINUOUS
 62
     6
 10
281.362631
 20
115.855860
 11
281.526660
 21
115.970180
  0
LINE
  8
CSLAYER1
  6
CONTINUOUS
 62
     6
 10
281.526660
 20
115.970180
 11
281.693718
 21
116.083337
  0
LINE
  8
CSLAYER1
  6
CONTINUOUS
 62
     6
 10
281.693718
 20
116.083337
 11
281.862391
 21
116.193981
  0
LINE
  8
CSLAYER1
  6
CONTINUOUS
 62
     6
 10
281.862391
 20
116.193981
 11
282.031264
 21
116.300761
  0
LINE
  8
CSLAYER1
  6
CONTINUOUS
 62
     6
 10
282.031264
 20
116.300761
 11
282.198924
 21
116.402326
  0
LINE
  8
CSLAYER1
  6
CONTINUOUS
 62
     6
 10
282.198924
 20
116.402326
 11
282.363955
 21
116.497328
  0
LINE
  8
CSLAYER1
  6
CONTINUOUS
 62
     6
 10
282.363955
 20
116.497328
 11
282.524942
 21
116.584414
  0
LINE
  8
CSLAYER1
  6
CONTINUOUS
 62
     6
 10
282.524942
 20
116.584414
 11
282.680471
 21
116.662235
  0
LINE
  8
CSLAYER1
  6
CONTINUOUS
 62
     6
 10
283.925177
 20
111.704192
 11
283.822976
 21
111.614953
  0
LINE
  8
CSLAYER1
  6
CONTINUOUS
 62
     6
 10
283.822976
 20
111.614953
 11
283.718801
 21
111.517860
  0
LINE
  8
CSLAYER1
  6
CONTINUOUS
 62
     6
 10
283.718801
 20
111.517860
 11
283.613576
 21
111.414115
  0
LINE
  8
CSLAYER1
  6
CONTINUOUS
 62
     6
 10
283.613576
 20
111.414115
 11
283.508226
 21
111.304918
  0
LINE
  8
CSLAYER1
  6
CONTINUOUS
 62
     6
 10
283.508226
 20
111.304918
 11
283.403675
 21
111.191470
  0
LINE
  8
CSLAYER1
  6
CONTINUOUS
 62
     6
 10
283.403675
 20
111.191470
 11
283.300846
 21
111.074973
  0
LINE
  8
CSLAYER1
  6
CONTINUOUS
 62
     6
 10
283.300846
 20
111.074973
 11
283.200663
 21
110.956627
  0
LINE
  8
CSLAYER1
  6
CONTINUOUS
 62
     6
 10
283.200663
 20
110.956627
 11
283.104050
 21
110.837634
  0
LINE
  8
CSLAYER1
  6
CONTINUOUS
 62
     6
 10
283.104050
 20
110.837634
 11
283.011932
 21
110.719194
  0
LINE
  8
CSLAYER1
  6
CONTINUOUS
 62
     6
 10
283.011932
 20
110.719194
 11
282.925233
 21
110.602510
  0
LINE
  8
CSLAYER1
  6
CONTINUOUS
 62
     6
 10
282.925233
 20
110.602510
 11
282.844876
 21
110.488780
  0
LINE
  8
CSLAYER1
  6
CONTINUOUS
 62
     6
 10
282.844876
 20
110.488780
 11
282.763559
 21
110.363294
  0
LINE
  8
CSLAYER1
  6
CONTINUOUS
 62
     6
 10
282.763559
 20
110.363294
 11
282.686529
 21
110.230595
  0
LINE
  8
CSLAYER1
  6
CONTINUOUS
 62
     6
 10
282.686529
 20
110.230595
 11
282.613509
 21
110.091630
  0
LINE
  8
CSLAYER1
  6
CONTINUOUS
 62
     6
 10
282.613509
 20
110.091630
 11
282.544218
 21
109.947347
  0
LINE
  8
CSLAYER1
  6
CONTINUOUS
 62
     6
 10
282.544218
 20
109.947347
 11
282.478377
 21
109.798693
  0
LINE
  8
CSLAYER1
  6
CONTINUOUS
 62
     6
 10
282.478377
 20
109.798693
 11
282.415709
 21
109.646615
  0
LINE
  8
CSLAYER1
  6
CONTINUOUS
 62
     6
 10
282.415709
 20
109.646615
 11
282.355933
 21
109.492060
  0
LINE
  8
CSLAYER1
  6
CONTINUOUS
 62
     6
 10
282.355933
 20
109.492060
 11
282.298770
 21
109.335976
  0
LINE
  8
CSLAYER1
  6
CONTINUOUS
 62
     6
 10
282.298770
 20
109.335976
 11
282.243942
 21
109.179310
  0
LINE
  8
CSLAYER1
  6
CONTINUOUS
 62
     6
 10
282.243942
 20
109.179310
 11
282.191170
 21
109.023009
  0
LINE
  8
CSLAYER1
  6
CONTINUOUS
 62
     6
 10
282.191170
 20
109.023009
 11
282.140174
 21
108.868021
  0
LINE
  8
CSLAYER1
  6
CONTINUOUS
 62
     6
 10
282.140174
 20
108.868021
 11
282.093667
 21
108.724273
  0
LINE
  8
CSLAYER1
  6
CONTINUOUS
 62
     6
 10
282.093667
 20
108.724273
 11
282.047844
 21
108.580630
  0
LINE
  8
CSLAYER1
  6
CONTINUOUS
 62
     6
 10
282.047844
 20
108.580630
 11
282.002635
 21
108.437082
  0
LINE
  8
CSLAYER1
  6
CONTINUOUS
 62
     6
 10
282.002635
 20
108.437082
 11
281.957974
 21
108.293618
  0
LINE
  8
CSLAYER1
  6
CONTINUOUS
 62
     6
 10
281.957974
 20
108.293618
 11
281.913791
 21
108.150228
  0
LINE
  8
CSLAYER1
  6
CONTINUOUS
 62
     6
 10
281.913791
 20
108.150228
 11
281.870018
 21
108.006901
  0
LINE
  8
CSLAYER1
  6
CONTINUOUS
 62
     6
 10
281.870018
 20
108.006901
 11
281.826587
 21
107.863626
  0
LINE
  8
CSLAYER1
  6
CONTINUOUS
 62
     6
 10
281.826587
 20
107.863626
 11
281.783429
 21
107.720393
  0
LINE
  8
CSLAYER1
  6
CONTINUOUS
 62
     6
 10
281.783429
 20
107.720393
 11
281.740477
 21
107.577192
  0
LINE
  8
CSLAYER1
  6
CONTINUOUS
 62
     6
 10
281.740477
 20
107.577192
 11
281.697661
 21
107.434011
  0
LINE
  8
CSLAYER1
  6
CONTINUOUS
 62
     6
 10
281.697661
 20
107.434011
 11
281.654914
 21
107.290841
  0
ARC
  8
CSLAYER1
  6
CONTINUOUS
 62
     6
 10
282.753775
 20
108.311902
 40
1.500000
 50
222.897147
 51
282.897147
  0
ARC
  8
CSLAYER1
  6
CONTINUOUS
 62
     6
 10
284.187442
 20
107.870771
 40
1.500000
 50
222.897147
 51
282.897147
  0
ARC
  8
CSLAYER1
  6
CONTINUOUS
 62
     6
 10
283.423380
 20
105.387586
 40
1.500000
 50
42.897147
 51
102.897147
  0
LINE
  8
CSLAYER1
  6
CONTINUOUS
 62
     6
 10
283.002208
 20
106.878533
 11
282.196082
 21
103.797943
  0
LINE
  8
CSLAYER1
  6
CONTINUOUS
 62
     6
 10
281.476316
 20
104.316222
 11
282.282421
 21
106.734604
  0
LINE
  8
CSLAYER1
  6
CONTINUOUS
 62
     6
 10
283.721952
 20
106.360329
 11
283.059774
 21
103.423689
  0
LINE
  8
CSLAYER1
  6
CONTINUOUS
 62
     6
 10
284.522211
 20
106.408596
 11
284.560279
 21
106.537285
  0
LINE
  8
CSLAYER1
  6
CONTINUOUS
 62
     6
 10
284.560279
 20
106.537285
 11
284.598425
 21
106.665980
  0
LINE
  8
CSLAYER1
  6
CONTINUOUS
 62
     6
 10
284.598425
 20
106.665980
 11
284.636728
 21
106.794688
  0
LINE
  8
CSLAYER1
  6
CONTINUOUS
 62
     6
 10
284.636728
 20
106.794688
 11
284.675266
 21
106.923415
  0
LINE
  8
CSLAYER1
  6
CONTINUOUS
 62
     6
 10
284.675266
 20
106.923415
 11
284.714118
 21
107.052168
  0
LINE
  8
CSLAYER1
  6
CONTINUOUS
 62
     6
 10
284.714118
 20
107.052168
 11
284.753362
 21
107.180954
  0
LINE
  8
CSLAYER1
  6
CONTINUOUS
 62
     6
 10
284.753362
 20
107.180954
 11
284.793076
 21
107.309778
  0
LINE
  8
CSLAYER1
  6
CONTINUOUS
 62
     6
 10
284.793076
 20
107.309778
 11
284.833339
 21
107.438647
  0
LINE
  8
CSLAYER1
  6
CONTINUOUS
 62
     6
 10
284.833339
 20
107.438647
 11
284.874230
 21
107.567568
  0
LINE
  8
CSLAYER1
  6
CONTINUOUS
 62
     6
 10
284.874230
 20
107.567568
 11
284.915826
 21
107.696547
  0
LINE
  8
CSLAYER1
  6
CONTINUOUS
 62
     6
 10
284.915826
 20
107.696547
 11
284.958206
 21
107.825591
  0
LINE
  8
CSLAYER1
  6
CONTINUOUS
 62
     6
 10
284.958206
 20
107.825591
 11
284.991018
 21
107.923712
  0
LINE
  8
CSLAYER1
  6
CONTINUOUS
 62
     6
 10
284.991018
 20
107.923712
 11
285.024857
 21
108.022529
  0
LINE
  8
CSLAYER1
  6
CONTINUOUS
 62
     6
 10
285.024857
 20
108.022529
 11
285.059902
 21
108.121497
  0
LINE
  8
CSLAYER1
  6
CONTINUOUS
 62
     6
 10
285.059902
 20
108.121497
 11
285.096331
 21
108.220074
  0
LINE
  8
CSLAYER1
  6
CONTINUOUS
 62
     6
 10
285.096331
 20
108.220074
 11
285.134324
 21
108.317717
  0
LINE
  8
CSLAYER1
  6
CONTINUOUS
 62
     6
 10
285.134324
 20
108.317717
 11
285.174060
 21
108.413883
  0
LINE
  8
CSLAYER1
  6
CONTINUOUS
 62
     6
 10
285.174060
 20
108.413883
 11
285.215719
 21
108.508029
  0
LINE
  8
CSLAYER1
  6
CONTINUOUS
 62
     6
 10
285.215719
 20
108.508029
 11
285.259479
 21
108.599612
  0
LINE
  8
CSLAYER1
  6
CONTINUOUS
 62
     6
 10
285.259479
 20
108.599612
 11
285.305520
 21
108.688089
  0
LINE
  8
CSLAYER1
  6
CONTINUOUS
 62
     6
 10
285.305520
 20
108.688089
 11
285.354021
 21
108.772917
  0
LINE
  8
CSLAYER1
  6
CONTINUOUS
 62
     6
 10
285.354021
 20
108.772917
 11
285.405162
 21
108.853553
  0
LINE
  8
CSLAYER1
  6
CONTINUOUS
 62
     6
 10
285.405162
 20
108.853553
 11
285.461454
 21
108.934932
  0
LINE
  8
CSLAYER1
  6
CONTINUOUS
 62
     6
 10
285.461454
 20
108.934932
 11
285.522362
 21
109.018106
  0
LINE
  8
CSLAYER1
  6
CONTINUOUS
 62
     6
 10
285.522362
 20
109.018106
 11
285.587216
 21
109.102247
  0
LINE
  8
CSLAYER1
  6
CONTINUOUS
 62
     6
 10
285.587216
 20
109.102247
 11
285.655344
 21
109.186529
  0
LINE
  8
CSLAYER1
  6
CONTINUOUS
 62
     6
 10
285.655344
 20
109.186529
 11
285.726073
 21
109.270127
  0
LINE
  8
CSLAYER1
  6
CONTINUOUS
 62
     6
 10
285.726073
 20
109.270127
 11
285.798733
 21
109.352214
  0
LINE
  8
CSLAYER1
  6
CONTINUOUS
 62
     6
 10
285.798733
 20
109.352214
 11
285.872650
 21
109.431965
  0
LINE
  8
CSLAYER1
  6
CONTINUOUS
 62
     6
 10
285.872650
 20
109.431965
 11
285.947155
 21
109.508553
  0
LINE
  8
CSLAYER1
  6
CONTINUOUS
 62
     6
 10
285.947155
 20
109.508553
 11
286.021574
 21
109.581152
  0
LINE
  8
CSLAYER1
  6
CONTINUOUS
 62
     6
 10
286.021574
 20
109.581152
 11
286.095237
 21
109.648937
  0
LINE
  8
CSLAYER1
  6
CONTINUOUS
 62
     6
 10
286.095237
 20
109.648937
 11
286.167471
 21
109.711081
  0
ARC
  8
CSLAYER1
  6
CONTINUOUS
 62
     6
 10
284.743811
 20
109.238403
 40
1.500000
 50
18.366208
 51
78.366208
  0
ARC
  8
CSLAYER1
  6
CONTINUOUS
 62
     6
 10
285.348778
 20
112.176772
 40
1.500000
 50
198.366208
 51
258.366208
  0
ARC
  8
CSLAYER1
  6
CONTINUOUS
 62
     6
 10
283.622702
 20
110.234953
 40
1.500000
 50
18.366208
 51
78.366208
  0
LINE
  8
CSLAYER1
  6
CONTINUOUS
 62
     6
 10
278.942731
 20
111.600150
 11
277.503237
 21
108.490764
  0
ARC
  8
CSLAYER1
  6
CONTINUOUS
 62
     6
 10
303.489858
 20
130.502770
 40
1.527778
 50
163.398416
 51
196.601577
  0
LINE
  8
CSLAYER1
  6
CONTINUOUS
 62
     6
 10
302.025773
 20
130.939283
 11
302.616832
 21
130.939283
  0
ARC
  8
CSLAYER1
  6
CONTINUOUS
 62
     6
 10
302.616832
 20
131.375774
 40
0.436508
 50
-89.999984
 51
0.000005
  0
LINE
  8
CSLAYER1
  6
CONTINUOUS
 62
     6
 10
303.053345
 20
131.375774
 11
303.053345
 21
131.966878
  0
ARC
  8
CSLAYER1
  6
CONTINUOUS
 62
     6
 10
303.489858
 20
130.502770
 40
1.527778
 50
73.398406
 51
106.601595
  0
LINE
  8
CSLAYER1
  6
CONTINUOUS
 62
     6
 10
303.926372
 20
131.966878
 11
303.926372
 21
131.375774
  0
ARC
  8
CSLAYER1
  6
CONTINUOUS
 62
     6
 10
304.362885
 20
131.375774
 40
0.436508
 50
180.000010
 51
270.000016
  0
LINE
  8
CSLAYER1
  6
CONTINUOUS
 62
     6
 10
304.362885
 20
130.939283
 11
304.953944
 21
130.939283
  0
ARC
  8
CSLAYER1
  6
CONTINUOUS
 62
     6
 10
303.489858
 20
130.502770
 40
1.527778
 50
-16.601562
 51
16.601572
  0
LINE
  8
CSLAYER1
  6
CONTINUOUS
 62
     6
 10
304.953944
 20
130.066256
 11
304.362885
 21
130.066256
  0
ARC
  8
CSLAYER1
  6
CONTINUOUS
 62
     6
 10
304.362885
 20
129.629766
 40
0.436508
 50
90.000001
 51
179.942691
  0
LINE
  8
CSLAYER1
  6
CONTINUOUS
 62
     6
 10
303.926372
 20
129.629766
 11
303.926372
 21
129.038662
  0
ARC
  8
CSLAYER1
  6
CONTINUOUS
 62
     6
 10
303.489858
 20
130.502770
 40
1.527778
 50
253.398422
 51
286.601583
  0
LINE
  8
CSLAYER1
  6
CONTINUOUS
 62
     6
 10
303.053345
 20
129.038662
 11
303.053345
 21
129.629766
  0
ARC
  8
CSLAYER1
  6
CONTINUOUS
 62
     6
 10
302.616832
 20
129.629766
 40
0.436508
 50
0.000005
 51
89.942654
  0
LINE
  8
CSLAYER1
  6
CONTINUOUS
 62
     6
 10
302.616832
 20
130.066256
 11
302.025773
 21
130.066256
  0
CIRCLE
  8
CSLAYER1
  6
CONTINUOUS
 62
     6
 10
303.489868
 20
130.502769
 40
2.750000
  0
LINE
  8
CSLAYER1
  6
CONTINUOUS
 62
     6
 10
292.175836
 20
151.895931
 11
324.132928
 21
151.895931
  0
ARC
  8
CSLAYER1
  6
CONTINUOUS
 62
     6
 10
329.276117
 20
153.074275
 40
1.000000
 50
186.000026
 51
270.000001
  0
LINE
  8
CSLAYER1
  6
CONTINUOUS
 62
     6
 10
328.281610
 20
152.969783
 11
327.583978
 21
159.607234
  0
ARC
  8
CSLAYER1
  6
CONTINUOUS
 62
     6
 10
326.589410
 20
159.502742
 40
1.000000
 50
6.000003
 51
90.000016
  0
LINE
  8
CSLAYER1
  6
CONTINUOUS
 62
     6
 10
326.589410
 20
160.502742
 11
290.390252
 21
160.502742
  0
ARC
  8
CSLAYER1
  6
CONTINUOUS
 62
     6
 10
290.390252
 20
159.502742
 40
1.000000
 50
90.000003
 51
173.999998
  0
LINE
  8
CSLAYER1
  6
CONTINUOUS
 62
     6
 10
289.395746
 20
159.607234
 11
288.698114
 21
152.969783
  0
ARC
  8
CSLAYER1
  6
CONTINUOUS
 62
     6
 10
287.703546
 20
153.074275
 40
1.000000
 50
270.000001
 51
353.999989
  0
ARC
  8
CSLAYER1
  6
CONTINUOUS
 62
     6
 10
287.753229
 20
157.546565
 40
1.000000
 50
270.000001
 51
353.999989
  0
LINE
  8
CSLAYER1
  6
CONTINUOUS
 62
     6
 10
288.747735
 20
157.442012
 11
289.395746
 21
163.607234
  0
ARC
  8
CSLAYER1
  6
CONTINUOUS
 62
     6
 10
290.390252
 20
163.502742
 40
1.000000
 50
90.000003
 51
173.999998
  0
LINE
  8
CSLAYER1
  6
CONTINUOUS
 62
     6
 10
290.390252
 20
164.502742
 11
326.589410
 21
164.502742
  0
ARC
  8
CSLAYER1
  6
CONTINUOUS
 62
     6
 10
326.589410
 20
163.502742
 40
1.000000
 50
6.000003
 51
90.000016
  0
LINE
  8
CSLAYER1
  6
CONTINUOUS
 62
     6
 10
327.583978
 20
163.607234
 11
328.231927
 21
157.442012
  0
ARC
  8
CSLAYER1
  6
CONTINUOUS
 62
     6
 10
329.226495
 20
157.546565
 40
1.000000
 50
186.000026
 51
270.000001
  0
LINE
  8
CSLAYER1
  6
CONTINUOUS
 62
     6
 10
329.489862
 20
159.502742
 11
328.014825
 21
159.502742
  0
LINE
  8
CSLAYER1
  6
CONTINUOUS
 62
     6
 10
288.964288
 20
159.502742
 11
277.489831
 21
159.502742
  0
LINE
  8
CSLAYER1
  6
CONTINUOUS
 62
     6
 10
277.489831
 20
159.502742
 11
276.489831
 21
158.502742
  0
CIRCLE
  8
CSLAYER1
  6
CONTINUOUS
 62
     6
 10
198.828931
 20
258.833710
 40
3.200000
  0
LINE
  8
CSLAYER1
  6
CONTINUOUS
 62
     6
 10
192.159883
 20
282.772418
 11
192.159883
 21
284.887229
  0
ARC
  8
CSLAYER1
  6
CONTINUOUS
 62
     6
 10
152.159883
 20
305.502757
 40
45.000000
 50
330.524210
 51
334.456908
  0
ARC
  8
CSLAYER1
  6
CONTINUOUS
 62
     6
 10
152.159883
 20
304.709635
 40
13.065822
 50
-37.903067
 51
217.903051
  0
ARC
  8
CSLAYER1
  6
CONTINUOUS
 62
     6
 10
142.926252
 20
297.520684
 40
1.363635
 50
217.903413
 51
309.763730
  0
ARC
  8
CSLAYER1
  6
CONTINUOUS
 62
     6
 10
145.667754
 20
294.226021
 40
2.922462
 50
-23.481547
 51
129.764151
  0
LINE
  8
CSLAYER1
  6
CONTINUOUS
 62
     6
 10
148.348200
 20
293.061562
 11
147.765855
 21
291.160792
  0
CIRCLE
  8
CSLAYER1
  6
CONTINUOUS
 62
     6
 10
145.667754
 20
294.226021
 40
1.363635
  0
LINE
  8
CSLAYER1
  6
CONTINUOUS
 62
     6
 10
155.971554
 20
293.061562
 11
156.553899
 21
291.160792
  0
ARC
  8
CSLAYER1
  6
CONTINUOUS
 62
     6
 10
158.652003
 20
294.226021
 40
2.922462
 50
50.235851
 51
203.481549
  0
ARC
  8
CSLAYER1
  6
CONTINUOUS
 62
     6
 10
161.393502
 20
297.520684
 40
1.363635
 50
230.236329
 51
322.096590
  0
CIRCLE
  8
CSLAYER1
  6
CONTINUOUS
 62
     6
 10
158.652003
 20
294.226021
 40
1.363635
  0
ARC
  8
CSLAYER1
  6
CONTINUOUS
 62
     6
 10
152.159883
 20
305.502757
 40
45.000000
 50
205.543092
 51
209.475790
  0
LINE
  8
CSLAYER1
  6
CONTINUOUS
 62
     6
 10
112.159883
 20
284.887229
 11
112.159883
 21
282.772418
  0
LINE
  8
CSLAYER1
  6
CONTINUOUS
 62
     6
 10
111.719158
 20
282.690116
 11
108.144838
 21
282.502757
  0
ARC
  8
CSLAYER1
  6
CONTINUOUS
 62
     6
 10
108.159883
 20
271.556767
 40
4.000000
 50
258.152274
 51
360.000000
  0
ARC
  8
CSLAYER1
  6
CONTINUOUS
 62
     6
 10
105.490836
 20
258.833710
 40
9.000000
 50
78.579256
 51
136.186939
  0
ARC
  8
CSLAYER1
  6
CONTINUOUS
 62
     6
 10
96.110004
 20
267.833710
 40
4.000000
 50
270.000000
 51
316.186939
  0
LINE
  8
CSLAYER1
  6
CONTINUOUS
 62
     6
 10
96.110004
 20
263.833710
 11
88.978774
 21
263.833710
  0
ARC
  8
CSLAYER1
  6
CONTINUOUS
 62
     6
 10
88.978774
 20
267.833710
 40
4.000000
 50
175.095187
 51
270.000000
  0
CIRCLE
  8
CSLAYER1
  6
CONTINUOUS
 62
     6
 10
105.490836
 20
258.833710
 40
3.200000
  0
ARC
  8
CSLAYER1
  6
CONTINUOUS
 62
     6
 10
287.703515
 20
447.875469
 40
1.000000
 50
6.000011
 51
89.999999
  0
LINE
  8
CSLAYER1
  6
CONTINUOUS
 62
     6
 10
292.175805
 20
521.840190
 11
324.132898
 21
521.840190
  0
ARC
  8
CSLAYER1
  6
CONTINUOUS
 62
     6
 10
329.276086
 20
523.018596
 40
1.000000
 50
186.000016
 51
269.999991
  0
LINE
  8
CSLAYER1
  6
CONTINUOUS
 62
     6
 10
328.281579
 20
522.914043
 11
327.583948
 21
529.551555
  0
ARC
  8
CSLAYER1
  6
CONTINUOUS
 62
     6
 10
326.589380
 20
529.447002
 40
1.000000
 50
5.999983
 51
89.999999
  0
LINE
  8
CSLAYER1
  6
CONTINUOUS
 62
     6
 10
326.589380
 20
530.447002
 11
290.390222
 21
530.447002
  0
ARC
  8
CSLAYER1
  6
CONTINUOUS
 62
     6
 10
290.390222
 20
529.447002
 40
1.000000
 50
89.999999
 51
173.999988
  0
LINE
  8
CSLAYER1
  6
CONTINUOUS
 62
     6
 10
289.395715
 20
529.551555
 11
288.698083
 21
522.914043
  0
ARC
  8
CSLAYER1
  6
CONTINUOUS
 62
     6
 10
287.703515
 20
523.018596
 40
1.000000
 50
269.999991
 51
353.999979
  0
ARC
  8
CSLAYER1
  6
CONTINUOUS
 62
     6
 10
287.753198
 20
527.490825
 40
1.000000
 50
269.999991
 51
353.999979
  0
LINE
  8
CSLAYER1
  6
CONTINUOUS
 62
     6
 10
288.747705
 20
527.386272
 11
289.395715
 21
533.551555
  0
ARC
  8
CSLAYER1
  6
CONTINUOUS
 62
     6
 10
290.390222
 20
533.447002
 40
1.000000
 50
89.999999
 51
173.999988
  0
LINE
  8
CSLAYER1
  6
CONTINUOUS
 62
     6
 10
290.390222
 20
534.447002
 11
326.589380
 21
534.447002
  0
ARC
  8
CSLAYER1
  6
CONTINUOUS
 62
     6
 10
326.589380
 20
533.447002
 40
1.000000
 50
5.999983
 51
89.999999
  0
LINE
  8
CSLAYER1
  6
CONTINUOUS
 62
     6
 10
327.583948
 20
533.551555
 11
328.231897
 21
527.386272
  0
ARC
  8
CSLAYER1
  6
CONTINUOUS
 62
     6
 10
329.226465
 20
527.490825
 40
1.000000
 50
186.000016
 51
269.999991
  0
LINE
  8
CSLAYER1
  6
CONTINUOUS
 62
     6
 10
329.489862
 20
529.447002
 11
328.014795
 21
529.447002
  0
LINE
  8
CSLAYER1
  6
CONTINUOUS
 62
     6
 10
288.964258
 20
529.447002
 11
277.489831
 21
529.447002
  0
LINE
  8
CSLAYER1
  6
CONTINUOUS
 62
     6
 10
277.489831
 20
529.447002
 11
276.489831
 21
528.447002
  0
LINE
  8
CSLAYER1
  6
CENTER
 62
     3
 10
217.159883
 20
211.502757
 11
217.159883
 21
240.145614
  0
ENDSEC
  0
EOF
