  0
SECTION
  2
HEADER
  9
$ACADVER
  1
AC1006
  9
$INSBASE
 10
0.000000
 20
0.000000
 30
0.0
  9
$EXTMIN
 10
0.000000
 20
0.000000
  9
$EXTMAX
 10
594.000000
 20
420.000000
  9
$LIMMIN
 10
0.000000
 20
0.000000
  9
$LIMMAX
 10
594.000000
 20
420.000000
  9
$VIEWCTR
 10
297.000000
 20
210.000000
  9
$VIEWSIZE
 40
420.000000
  9
$SNAPMODE
 70
     0
  9
$SNAPUNIT
 10
1.0
 20
1.0
  9
$SNAPBASE
 10
0.0
 20
0.0
  9
$SNAPANG
 50
0.0
  9
$SNAPSTYLE
 70
     0
  9
$SNAPISOPAIR
 70
     0
  9
$GRIDMODE
 70
     0
  9
$GRIDUNIT
 10
0.0
 20
0.0
  9
$ORTHOMODE
 70
     0
  9
$REGENMODE
 70
     1
  9
$FILLMODE
 70
     1
  9
$QTEXTMODE
 70
     0
  9
$DRAGMODE
 70
     2
  9
$LTSCALE
 40
15.000000
  9
$OSMODE
 70
     0
  9
$ATTMODE
 70
     1
  9
$TEXTSIZE
 40
0.2
  9
$TRACEWID
 40
0.05
  9
$TEXTSTYLE
  7
STANDARD
  9
$CLAYER
  8
CSLAYER1
  9
$CELTYPE
  6
BYLAYER
  9
$CECOLOR
 62
   256
  9
$DIMSCALE
 40
1.0
  9
$DIMASZ
 40
0.18
  9
$DIMEXO
 40
0.0625
  9
$DIMDLI
 40
0.38
  9
$DIMRND
 40
0.0
  9
$DIMDLE
 40
0.0
  9
$DIMEXE
 40
0.18
  9
$DIMTP
 40
0.0
  9
$DIMTM
 40
0.0
  9
$DIMTXT
 40
0.18
  9
$DIMCEN
 40
0.09
  9
$DIMTSZ
 40
0.0
  9
$DIMTOL
 70
     0
  9
$DIMLIM
 70
     0
  9
$DIMTIH
 70
     1
  9
$DIMTOH
 70
     1
  9
$DIMSE1
 70
     0
  9
$DIMSE2
 70
     0
  9
$DIMTAD
 70
     0
  9
$DIMZIN
 70
     0
  9
$DIMBLK
  1

  9
$LUNITS
 70
     2
  9
$LUPREC
 70
     4
  9
$AXISMODE
 70
     0
  9
$AXISUNIT
 10
0.0
 20
0.0
  9
$SKETCHINC
 40
0.1
  9
$FILLETRAD
 40
0.0
  9
$AUNITS
 70
     0
  9
$AUPREC
 70
     0
  9
$MENU
  1
ACAD
  9
$ELEVATION
 40
0.0
  9
$THICKNESS
 40
0.0
  9
$VIEWDIR
 10
0.0
 20
0.0
 30
1.0
  9
$LIMCHECK
 70
     0
  9
$BLIPMODE
 70
     1
  9
$CHAMFERA
 40
0.0
  9
$CHAMFERB
 40
0.0
  9
$FASTZOOM
 70
     1
  9
$SKPOLY
 70
     0
  9
$TDCREATE
 40
0.000000
  9
$TDUPDATE
 40
0.000000
  9
$TDINDWG
 40
0.0
  9
$TDUSRTIMER
 40
0.0
  9
$USRTIMER
 70
     1
  9
$ANGBASE
 50
0.0
  9
$ANGDIR
 70
     0
  9
$PDMODE
 70
     0
  9
$PDSIZE
 40
0.0
  9
$PLINEWID
 40
0.0
  9
$COORDS
 70
     0
  9
$USERI1
 70
     0
  9
$USERI2
 70
     0
  9
$USERI3
 70
     0
  9
$USERI4
 70
     0
  9
$USERI5
 70
     0
  9
$USERR1
 40
0.0
  9
$USERR2
 40
0.0
  9
$USERR3
 40
0.0
  9
$USERR4
 40
0.0
  9
$USERR5
 40
0.0
  0
ENDSEC
  0
SECTION
  2
TABLES
  0
TABLE
  2
LTYPE
 70
     9
  0
LTYPE
  2
CONTINUOUS
 70
    64
  3
Solid line
 72
    65
 73
     0
 40
0.0
  0
LTYPE
  2
DASHED
 70
    64
  3
__ __ __ __ __ __ __ __ __ __ __ __ __ __ __
 72
    65
 73
     2
 40
0.75
 49
0.5
 49
-0.25
  0
LTYPE
  2
HIDDEN
 70
    64
  3
_ _ _ _ _ _ _ _ _ _ _ _ _ _ _ _ _ _ _ _ _ _ _
 72
    65
 73
     2
 40
0.375
 49
0.25
 49
-0.125
  0
LTYPE
  2
DOT
 70
    64
  3
...............................................
 72
    65
 73
     2
 40
0.25
 49
0.0
 49
-0.25
  0
LTYPE
  2
DASHDOT
 70
    64
  3
__ . __ . __ . __ . __ . __ . __ . __ . __ . __
 72
    65
 73
     4
 40
1.0
 49
0.5
 49
-0.25
 49
0.0
 49
-0.25
  0
LTYPE
  2
DIVIDE
 70
    64
  3
__ . . __ . . __ . . __ . . __ . . __ . . __
 72
    65
 73
     6
 40
1.25
 49
0.5
 49
-0.25
 49
0.0
 49
-0.25
 49
0.0
 49
-0.25
  0
LTYPE
  2
CENTER
 70
    64
  3
____ _ ____ _ ____ _ ____ _ ____ _ ____ _ ____ 
 72
    65
 73
     4
 40
2.0
 49
1.25
 49
-0.25
 49
0.25
 49
-0.25
  0
LTYPE
  2
PHANTOM
 70
    64
  3
______  __  __  ______  __  __  ______  __  __ 
 72
    65
 73
     6
 40
2.5
 49
1.25
 49
-0.25
 49
0.25
 49
-0.25
 49
0.25
 49
-0.25
  0
LTYPE
  2
BORDER
 70
    64
  3
__ __ . __ __ . __ __ . __ __ . __ __ . __ __ .
 72
    65
 73
     6
 40
1.75
 49
0.5
 49
-0.25
 49
0.5
 49
-0.25
 49
0.0
 49
-0.25
  0
ENDTAB
  0
TABLE
  2
LAYER
 70
    16
  0
LAYER
  2
CSLAYER1
 70
    64
 62
     7
  6
CONTINUOUS
  0
LAYER
  2
CSLAYER2
 70
    64
 62
     7
  6
CONTINUOUS
  0
LAYER
  2
CSLAYER3
 70
    64
 62
     7
  6
CONTINUOUS
  0
LAYER
  2
CSLAYER4
 70
    64
 62
     7
  6
CONTINUOUS
  0
LAYER
  2
CSLAYER5
 70
    64
 62
     7
  6
CONTINUOUS
  0
LAYER
  2
CSLAYER6
 70
    64
 62
     7
  6
CONTINUOUS
  0
LAYER
  2
CSLAYER7
 70
    64
 62
     7
  6
CONTINUOUS
  0
LAYER
  2
CSLAYER8
 70
    64
 62
     7
  6
CONTINUOUS
  0
LAYER
  2
CSLAYER9
 70
    64
 62
     7
  6
CONTINUOUS
  0
LAYER
  2
CSLAYER10
 70
    64
 62
     7
  6
CONTINUOUS
  0
LAYER
  2
CSLAYER11
 70
    64
 62
     7
  6
CONTINUOUS
  0
LAYER
  2
CSLAYER12
 70
    64
 62
     7
  6
CONTINUOUS
  0
LAYER
  2
CSLAYER13
 70
    64
 62
     7
  6
CONTINUOUS
  0
LAYER
  2
CSLAYER14
 70
    64
 62
     7
  6
CONTINUOUS
  0
LAYER
  2
CSLAYER15
 70
    64
 62
     7
  6
CONTINUOUS
  0
LAYER
  2
CSLAYER16
 70
    64
 62
     7
  6
CONTINUOUS
  0
ENDTAB
  0
TABLE
  2
STYLE
 70
     1
  0
STYLE
  2
JX_FONT
 70
     0
 40
1.0
 41
1.0
 50
0.0
 71
     0
 42
1.0
  3
monotxt
  4
bigfont
  0
ENDTAB
  0
TABLE
  2
VIEW
 70
     0
  0
ENDTAB
  0
ENDSEC
  0
SECTION
  2
BLOCKS
  0
ENDSEC
  0
SECTION
  2
ENTITIES
  0
LINE
  8
CSLAYER1
  6
CENTER
 62
     3
 10
45.758781
 20
169.159123
 11
45.758781
 21
188.159123
  0
LINE
  8
CSLAYER1
  6
CENTER
 62
     3
 10
55.258781
 20
178.659123
 11
36.258781
 21
178.659123
  0
LINE
  8
CSLAYER1
  6
CENTER
 62
     3
 10
88.258781
 20
153.471951
 11
88.258781
 21
277.159123
  0
LINE
  8
CSLAYER1
  6
CENTER
 62
     3
 10
121.258781
 20
263.659123
 11
140.258781
 21
263.659123
  0
LINE
  8
CSLAYER1
  6
CENTER
 62
     3
 10
130.758781
 20
254.159123
 11
130.758781
 21
273.159123
  0
LINE
  8
CSLAYER1
  6
CENTER
 62
     3
 10
144.258781
 20
221.159123
 11
32.258781
 21
221.159123
  0
LINE
  8
CSLAYER1
  6
CENTER
 62
     3
 10
61.843227
 20
231.831695
 11
72.024105
 21
227.718353
  0
ARC
  8
CSLAYER1
  6
CENTER
 62
     3
 10
88.258785
 20
221.159116
 40
23.000000
 50
144.106555
 51
171.525640
  0
LINE
  8
CSLAYER1
  6
CENTER
 62
     3
 10
45.758781
 20
254.159123
 11
45.758781
 21
273.159123
  0
LINE
  8
CSLAYER1
  6
CENTER
 62
     3
 10
55.258781
 20
263.659123
 11
36.258781
 21
263.659123
  0
LINE
  8
CSLAYER1
  6
CENTER
 62
     3
 10
104.493462
 20
214.599881
 11
114.674341
 21
210.486539
  0
ARC
  8
CSLAYER1
  6
CENTER
 62
     3
 10
88.258783
 20
221.159119
 40
23.000000
 50
324.106555
 51
351.525640
  0
LINE
  8
CSLAYER1
  6
CENTER
 62
     3
 10
99.945314
 20
199.179951
 11
113.370692
 21
173.930488
  0
LINE
  8
CSLAYER1
  6
CENTER
 62
     3
 10
121.258781
 20
178.659123
 11
140.258781
 21
178.659123
  0
LINE
  8
CSLAYER1
  6
CENTER
 62
     3
 10
130.758781
 20
188.159123
 11
130.758781
 21
169.159123
  0
LINE
  8
CSLAYER1
  6
CENTER
 62
     3
 10
187.261012
 20
195.553539
 11
204.159648
 21
195.553539
  0
LINE
  8
CSLAYER1
  6
CENTER
 62
     3
 10
195.885661
 20
203.798895
 11
195.885661
 21
173.187048
  0
LINE
  8
CSLAYER1
  6
CENTER
 62
     3
 10
228.885661
 20
173.459111
 11
228.885661
 21
184.159123
  0
LINE
  8
CSLAYER1
  6
CENTER
 62
     3
 10
233.885661
 20
189.159123
 11
233.885661
 21
253.159123
  0
LINE
  8
CSLAYER1
  6
CENTER
 62
     3
 10
233.885661
 20
292.159108
 11
233.885661
 21
314.765919
  0
LINE
  8
CSLAYER1
  6
CENTER
 62
     3
 10
171.585661
 20
221.159123
 11
426.885631
 21
221.159123
  0
LINE
  8
CSLAYER1
  6
CENTER
 62
     3
 10
450.974454
 20
221.159123
 11
562.974454
 21
221.159123
  0
LINE
  8
CSLAYER1
  6
CENTER
 62
     3
 10
549.474454
 20
254.159123
 11
549.474454
 21
273.159123
  0
LINE
  8
CSLAYER1
  6
CENTER
 62
     3
 10
558.974454
 20
263.659123
 11
539.974454
 21
263.659123
  0
LINE
  8
CSLAYER1
  6
CENTER
 62
     3
 10
520.474454
 20
258.159145
 11
493.474454
 21
258.159145
  0
LINE
  8
CSLAYER1
  6
CENTER
 62
     3
 10
473.974454
 20
263.659123
 11
454.974454
 21
263.659123
  0
LINE
  8
CSLAYER1
  6
CENTER
 62
     3
 10
384.885661
 20
263.659123
 11
365.885661
 21
263.659123
  0
LINE
  8
CSLAYER1
  6
CONTINUOUS
 62
     3
 10
333.885631
 20
266.159123
 11
333.885631
 21
259.564857
  0
ARC
  8
CSLAYER1
  6
CONTINUOUS
 62
     3
 10
331.885631
 20
259.564857
 40
2.000000
 50
270.000001
 51
359.942691
  0
LINE
  8
CSLAYER1
  6
CONTINUOUS
 62
     3
 10
331.885631
 20
257.564857
 11
303.885631
 21
257.564888
  0
ARC
  8
CSLAYER1
  6
CONTINUOUS
 62
     3
 10
303.885631
 20
259.564888
 40
2.000000
 50
180.000005
 51
270.000001
  0
LINE
  8
CSLAYER1
  6
CONTINUOUS
 62
     3
 10
301.885631
 20
259.564888
 11
301.885631
 21
266.159123
  0
LINE
  8
CSLAYER1
  6
CENTER
 62
     3
 10
365.885661
 20
303.659123
 11
384.885661
 21
303.659123
  0
ARC
  8
CSLAYER1
  6
CONTINUOUS
 62
     3
 10
331.885631
 20
322.659123
 40
2.000000
 50
270.000000
 51
360.000000
  0
LINE
  8
CSLAYER1
  6
CONTINUOUS
 62
     3
 10
331.885631
 20
320.659123
 11
303.885631
 21
320.659123
  0
ARC
  8
CSLAYER1
  6
CONTINUOUS
 62
     3
 10
303.885631
 20
322.659123
 40
2.000000
 50
180.000000
 51
270.000000
  0
LINE
  8
CSLAYER1
  6
CONTINUOUS
 62
     3
 10
301.885631
 20
322.659123
 11
301.885631
 21
369.659123
  0
ARC
  8
CSLAYER1
  6
CONTINUOUS
 62
     3
 10
303.885631
 20
369.659123
 40
2.000000
 50
90.000000
 51
180.000000
  0
LINE
  8
CSLAYER1
  6
CONTINUOUS
 62
     3
 10
303.885631
 20
371.659123
 11
331.885631
 21
371.659123
  0
ARC
  8
CSLAYER1
  6
CONTINUOUS
 62
     3
 10
331.885631
 20
369.659123
 40
2.000000
 50
0.000000
 51
90.000000
  0
LINE
  8
CSLAYER1
  6
CONTINUOUS
 62
     3
 10
333.885631
 20
369.659123
 11
333.885631
 21
322.659123
  0
LINE
  8
CSLAYER1
  6
CENTER
 62
     3
 10
365.885661
 20
388.659123
 11
384.885661
 21
388.659123
  0
LINE
  8
CSLAYER1
  6
CENTER
 62
     3
 10
426.885661
 20
346.159123
 11
171.585661
 21
346.159123
  0
LINE
  8
CSLAYER1
  6
CENTER
 62
     3
 10
233.885661
 20
377.552296
 11
233.885661
 21
400.159108
  0
LINE
  8
CSLAYER1
  6
CENTER
 62
     3
 10
464.474454
 20
273.159123
 11
464.474454
 21
254.159123
  0
LINE
  8
CSLAYER1
  6
CENTER
 62
     3
 10
506.974454
 20
277.159123
 11
506.974454
 21
165.159123
  0
LINE
  8
CSLAYER1
  6
CENTER
 62
     3
 10
520.474454
 20
184.159100
 11
493.474454
 21
184.159100
  0
LINE
  8
CSLAYER1
  6
CENTER
 62
     3
 10
473.974454
 20
178.659123
 11
454.974454
 21
178.659123
  0
LINE
  8
CSLAYER1
  6
CENTER
 62
     3
 10
384.885661
 20
178.659123
 11
365.885661
 21
178.659123
  0
LINE
  8
CSLAYER1
  6
CENTER
 62
     3
 10
365.885661
 20
128.659123
 11
384.885661
 21
128.659123
  0
LINE
  8
CSLAYER1
  6
CENTER
 62
     3
 10
426.885661
 20
86.159123
 11
171.585661
 21
86.159123
  0
LINE
  8
CSLAYER1
  6
CENTER
 62
     3
 10
186.533460
 20
99.773854
 11
205.599201
 21
99.773854
  0
LINE
  8
CSLAYER1
  6
CENTER
 62
     3
 10
195.885661
 20
91.417409
 11
195.885661
 21
107.471699
  0
LINE
  8
CSLAYER1
  6
CENTER
 62
     3
 10
228.885661
 20
107.159123
 11
228.885661
 21
65.159123
  0
LINE
  8
CSLAYER1
  6
CENTER
 62
     3
 10
223.135668
 20
71.159123
 11
234.635668
 21
71.159123
  0
LINE
  8
CSLAYER1
  6
CENTER
 62
     3
 10
222.885661
 20
76.409085
 11
222.885661
 21
95.909085
  0
LINE
  8
CSLAYER1
  6
CENTER
 62
     3
 10
223.135668
 20
101.159123
 11
234.635668
 21
101.159123
  0
LINE
  8
CSLAYER1
  6
CENTER
 62
     3
 10
233.885661
 20
54.765919
 11
233.885661
 21
32.159108
  0
LINE
  8
CSLAYER1
  6
CENTER
 62
     3
 10
233.885661
 20
117.552296
 11
233.885661
 21
140.159108
  0
LINE
  8
CSLAYER1
  6
CENTER
 62
     3
 10
365.885661
 20
43.659123
 11
384.885661
 21
43.659123
  0
LINE
  8
CSLAYER1
  6
CENTER
 62
     3
 10
464.474454
 20
169.159123
 11
464.474454
 21
188.159123
  0
LINE
  8
CSLAYER1
  6
CENTER
 62
     3
 10
539.974454
 20
178.659123
 11
558.974454
 21
178.659123
  0
LINE
  8
CSLAYER1
  6
CENTER
 62
     3
 10
549.474454
 20
188.159123
 11
549.474454
 21
169.159123
  0
TEXT
  8
CSLAYER1
 62
     3
 10
315.942383
 20
351.409119
 40
3.500000
 41
1.125000
  1
N P
 50
-90.000000
 51
10.000000
  7
JX_FONT
 72
     5
 11
315.942383
 21
340.909119
  0
LINE
  8
CSLAYER1
  6
CONTINUOUS
 62
     6
 10
45.758781
 20
171.159123
 11
85.758769
 21
171.159123
  0
ARC
  8
CSLAYER1
  6
CONTINUOUS
 62
     6
 10
86.383783
 20
169.054736
 40
1.250017
 50
239.999981
 51
299.999981
  0
ARC
  8
CSLAYER1
  6
CONTINUOUS
 62
     6
 10
87.633800
 20
169.054736
 40
1.250017
 50
239.999981
 51
299.999981
  0
LINE
  8
CSLAYER1
  6
CONTINUOUS
 62
     6
 10
88.258808
 20
167.972189
 11
88.258781
 21
176.159123
  0
LINE
  8
CSLAYER1
  6
CONTINUOUS
 62
     6
 10
85.758763
 20
176.214762
 11
85.758773
 21
167.972190
  0
ARC
  8
CSLAYER1
  6
CONTINUOUS
 62
     6
 10
87.633799
 20
166.889643
 40
1.250017
 50
59.999981
 51
119.999981
  0
ARC
  8
CSLAYER1
  6
CONTINUOUS
 62
     6
 10
88.883819
 20
169.054736
 40
1.250017
 50
239.999981
 51
299.999981
  0
ARC
  8
CSLAYER1
  6
CONTINUOUS
 62
     6
 10
90.133836
 20
169.054736
 40
1.250017
 50
239.999981
 51
299.999981
  0
ARC
  8
CSLAYER1
  6
CONTINUOUS
 62
     6
 10
90.133835
 20
166.889643
 40
1.250017
 50
59.999981
 51
119.999981
  0
LINE
  8
CSLAYER1
  6
CONTINUOUS
 62
     6
 10
90.758808
 20
167.972190
 11
90.758798
 21
176.214762
  0
LINE
  8
CSLAYER1
  6
CONTINUOUS
 62
     6
 10
90.758804
 20
171.159123
 11
111.341033
 21
171.159123
  0
LINE
  8
CSLAYER1
  6
CONTINUOUS
 62
     6
 10
111.377958
 20
168.250329
 11
116.318465
 21
167.675801
  0
ARC
  8
CSLAYER1
  6
CONTINUOUS
 62
     6
 10
100.100131
 20
169.561814
 40
16.327621
 50
-6.633093
 51
32.890180
  0
LINE
  8
CSLAYER1
  6
CONTINUOUS
 62
     6
 10
113.810666
 20
178.428179
 11
110.167554
 21
185.279869
  0
ARC
  8
CSLAYER1
  6
CONTINUOUS
 62
     6
 10
109.585772
 20
183.711477
 40
1.672819
 50
69.648061
 51
166.352053
  0
ARC
  8
CSLAYER1
  6
CONTINUOUS
 62
     6
 10
106.334601
 20
184.500898
 40
1.672819
 50
249.648061
 51
346.352053
  0
ARC
  8
CSLAYER1
  6
CONTINUOUS
 62
     6
 10
107.378404
 20
182.537796
 40
1.672819
 50
69.648061
 51
166.352053
  0
ARC
  8
CSLAYER1
  6
CONTINUOUS
 62
     6
 10
105.395656
 20
186.266792
 40
1.672819
 50
249.648061
 51
346.352053
  0
LINE
  8
CSLAYER1
  6
CONTINUOUS
 62
     6
 10
104.813874
 20
184.698401
 11
99.669899
 21
194.372778
  0
LINE
  8
CSLAYER1
  6
CONTINUOUS
 62
     6
 10
97.451246
 20
193.220338
 11
96.539323
 21
194.935416
  0
LINE
  8
CSLAYER1
  6
CONTINUOUS
 62
     6
 10
97.451246
 20
193.220338
 11
106.295777
 21
197.886740
  0
LINE
  8
CSLAYER1
  6
CONTINUOUS
 62
     6
 10
106.295777
 20
197.886740
 11
105.368799
 21
199.630132
  0
LINE
  8
CSLAYER1
  6
CONTINUOUS
 62
     6
 10
104.077110
 20
196.734292
 11
109.228609
 21
187.045763
  0
ARC
  8
CSLAYER1
  6
CONTINUOUS
 62
     6
 10
107.603024
 20
187.440474
 40
1.672819
 50
249.648061
 51
346.352053
  0
ARC
  8
CSLAYER1
  6
CONTINUOUS
 62
     6
 10
108.646827
 20
185.477371
 40
1.672819
 50
69.648061
 51
166.352053
  0
ARC
  8
CSLAYER1
  6
CONTINUOUS
 62
     6
 10
88.258781
 20
221.159123
 40
44.000000
 50
-58.742790
 51
294.742817
  0
ARC
  8
CSLAYER1
  6
CONTINUOUS
 62
     6
 10
88.258781
 20
221.159123
 40
45.000000
 50
215.914393
 51
294.815275
  0
LINE
  8
CSLAYER1
  6
CONTINUOUS
 62
     6
 10
53.106629
 20
194.695445
 11
44.258781
 21
195.159123
  0
ARC
  8
CSLAYER1
  6
CONTINUOUS
 62
     6
 10
44.258781
 20
196.159123
 40
1.000000
 50
180.000020
 51
270.000001
  0
LINE
  8
CSLAYER1
  6
CONTINUOUS
 62
     6
 10
43.258781
 20
196.159123
 11
43.258781
 21
197.159123
  0
ARC
  8
CSLAYER1
  6
CONTINUOUS
 62
     6
 10
44.243736
 20
197.159123
 40
1.000000
 50
90.000039
 51
180.000020
  0
LINE
  8
CSLAYER1
  6
CONTINUOUS
 62
     6
 10
44.243736
 20
198.159123
 11
47.818056
 21
198.346482
  0
ARC
  8
CSLAYER1
  6
CONTINUOUS
 62
     6
 10
47.729063
 20
200.044226
 40
1.700075
 50
-86.999412
 51
87.000310
  0
LINE
  8
CSLAYER1
  6
CONTINUOUS
 62
     6
 10
47.818029
 20
201.741972
 11
40.238365
 21
202.139164
  0
ARC
  8
CSLAYER1
  6
CONTINUOUS
 62
     6
 10
40.258781
 20
203.138920
 40
1.000000
 50
180.000020
 51
268.830766
  0
LINE
  8
CSLAYER1
  6
CONTINUOUS
 62
     6
 10
39.258781
 20
203.138920
 11
39.258781
 21
239.179326
  0
ARC
  8
CSLAYER1
  6
CONTINUOUS
 62
     6
 10
40.258781
 20
239.179326
 40
1.000000
 50
91.169216
 51
180.000020
  0
LINE
  8
CSLAYER1
  6
CONTINUOUS
 62
     6
 10
40.238365
 20
240.179082
 11
47.818029
 21
240.576274
  0
ARC
  8
CSLAYER1
  6
CONTINUOUS
 62
     6
 10
47.729063
 20
242.274020
 40
1.700075
 50
-87.000310
 51
86.999412
  0
LINE
  8
CSLAYER1
  6
CONTINUOUS
 62
     6
 10
47.818056
 20
243.971764
 11
44.243736
 21
244.159123
  0
ARC
  8
CSLAYER1
  6
CONTINUOUS
 62
     6
 10
44.243736
 20
245.159123
 40
1.000000
 50
180.000020
 51
270.000001
  0
LINE
  8
CSLAYER1
  6
CONTINUOUS
 62
     6
 10
43.258781
 20
245.159123
 11
43.258781
 21
246.159123
  0
ARC
  8
CSLAYER1
  6
CONTINUOUS
 62
     6
 10
44.258781
 20
246.159123
 40
1.000000
 50
90.000039
 51
180.000020
  0
LINE
  8
CSLAYER1
  6
CONTINUOUS
 62
     6
 10
44.258781
 20
247.159123
 11
53.106629
 21
247.622801
  0
ARC
  8
CSLAYER1
  6
CONTINUOUS
 62
     6
 10
88.258781
 20
221.159123
 40
45.000000
 50
35.914392
 51
144.085607
  0
LINE
  8
CSLAYER1
  6
CONTINUOUS
 62
     6
 10
123.410933
 20
247.622800
 11
132.258781
 21
247.159123
  0
ARC
  8
CSLAYER1
  6
CONTINUOUS
 62
     6
 10
132.258781
 20
246.159123
 40
1.000000
 50
0.000000
 51
89.999981
  0
LINE
  8
CSLAYER1
  6
CONTINUOUS
 62
     6
 10
133.258781
 20
246.159123
 11
133.258781
 21
245.159123
  0
ARC
  8
CSLAYER1
  6
CONTINUOUS
 62
     6
 10
132.273826
 20
245.159123
 40
1.000000
 50
270.000001
 51
359.999982
  0
LINE
  8
CSLAYER1
  6
CONTINUOUS
 62
     6
 10
132.273826
 20
244.159123
 11
128.699505
 21
243.971764
  0
ARC
  8
CSLAYER1
  6
CONTINUOUS
 62
     6
 10
128.788498
 20
242.274020
 40
1.700075
 50
93.000588
 51
267.000310
  0
LINE
  8
CSLAYER1
  6
CONTINUOUS
 62
     6
 10
128.699532
 20
240.576274
 11
136.279197
 21
240.179082
  0
ARC
  8
CSLAYER1
  6
CONTINUOUS
 62
     6
 10
136.258781
 20
239.179326
 40
1.000000
 50
0.000000
 51
88.830746
  0
LINE
  8
CSLAYER1
  6
CONTINUOUS
 62
     6
 10
137.258781
 20
239.179326
 11
137.258781
 21
203.138920
  0
ARC
  8
CSLAYER1
  6
CONTINUOUS
 62
     6
 10
136.258781
 20
203.138920
 40
1.000000
 50
271.169236
 51
359.999982
  0
LINE
  8
CSLAYER1
  6
CONTINUOUS
 62
     6
 10
136.279197
 20
202.139164
 11
128.699532
 21
201.741972
  0
ARC
  8
CSLAYER1
  6
CONTINUOUS
 62
     6
 10
128.788498
 20
200.044226
 40
1.700075
 50
92.999690
 51
266.999412
  0
LINE
  8
CSLAYER1
  6
CONTINUOUS
 62
     6
 10
128.699505
 20
198.346482
 11
132.273826
 21
198.159123
  0
ARC
  8
CSLAYER1
  6
CONTINUOUS
 62
     6
 10
132.273826
 20
197.159123
 40
1.000000
 50
0.000018
 51
89.999999
  0
LINE
  8
CSLAYER1
  6
CONTINUOUS
 62
     6
 10
133.258781
 20
197.159123
 11
133.258781
 21
196.159123
  0
ARC
  8
CSLAYER1
  6
CONTINUOUS
 62
     6
 10
132.258781
 20
196.159123
 40
1.000000
 50
270.000019
 51
360.000000
  0
LINE
  8
CSLAYER1
  6
CONTINUOUS
 62
     6
 10
132.258781
 20
195.159123
 11
123.410933
 21
194.695446
  0
ARC
  8
CSLAYER1
  6
CONTINUOUS
 62
     6
 10
88.258781
 20
221.159123
 40
45.000000
 50
301.184752
 51
324.085608
  0
ARC
  8
CSLAYER1
  6
CONTINUOUS
 62
     6
 10
111.099593
 20
175.559810
 40
6.000000
 50
56.246253
 51
79.435739
  0
LINE
  8
CSLAYER1
  6
CONTINUOUS
 62
     6
 10
114.433340
 20
180.548410
 11
126.591596
 21
172.423373
  0
ARC
  8
CSLAYER1
  6
CONTINUOUS
 62
     6
 10
130.758781
 20
178.659123
 40
7.500000
 50
-123.753747
 51
33.753747
  0
LINE
  8
CSLAYER1
  6
CONTINUOUS
 62
     6
 10
136.994530
 20
182.826307
 11
128.871468
 21
194.981609
  0
ARC
  8
CSLAYER1
  6
CONTINUOUS
 62
     6
 10
88.258781
 20
221.159123
 40
45.000000
 50
330.524210
 51
334.456908
  0
ARC
  8
CSLAYER1
  6
CONTINUOUS
 62
     6
 10
133.858093
 20
198.318311
 40
6.000000
 50
153.393594
 51
177.151140
  0
ARC
  8
CSLAYER1
  6
CONTINUOUS
 62
     6
 10
88.258781
 20
221.159123
 40
37.000000
 50
311.082333
 51
329.867278
  0
ARC
  8
CSLAYER1
  6
CONTINUOUS
 62
     6
 10
111.258781
 20
194.777311
 40
2.000000
 50
180.000000
 51
311.082333
  0
LINE
  8
CSLAYER1
  6
CONTINUOUS
 62
     6
 10
109.258781
 20
194.777311
 11
109.258781
 21
203.403842
  0
LINE
  8
CSLAYER1
  6
CONTINUOUS
 62
     6
 10
120.258781
 20
202.584947
 11
120.258781
 21
209.159123
  0
ARC
  8
CSLAYER1
  6
CONTINUOUS
 62
     6
 10
118.258781
 20
209.159123
 40
2.000000
 50
0.000000
 51
90.000000
  0
LINE
  8
CSLAYER1
  6
CONTINUOUS
 62
     6
 10
118.258781
 20
211.159123
 11
113.876157
 21
211.159123
  0
ARC
  8
CSLAYER1
  6
CONTINUOUS
 62
     6
 10
109.584013
 20
212.543178
 40
1.388889
 50
321.398438
 51
354.601572
  0
LINE
  8
CSLAYER1
  6
CONTINUOUS
 62
     6
 10
110.669427
 20
211.676647
 11
110.171227
 21
211.877932
  0
ARC
  8
CSLAYER1
  6
CONTINUOUS
 62
     6
 10
110.022579
 20
211.510017
 40
0.396825
 50
68.000001
 51
157.942691
  0
LINE
  8
CSLAYER1
  6
CONTINUOUS
 62
     6
 10
109.654645
 20
211.658672
 11
109.453343
 21
211.160434
  0
ARC
  8
CSLAYER1
  6
CONTINUOUS
 62
     6
 10
109.584013
 20
212.543178
 40
1.388889
 50
231.398422
 51
264.601583
  0
LINE
  8
CSLAYER1
  6
CONTINUOUS
 62
     6
 10
108.717474
 20
211.457744
 11
108.918775
 21
211.955983
  0
ARC
  8
CSLAYER1
  6
CONTINUOUS
 62
     6
 10
108.550841
 20
212.104638
 40
0.396825
 50
-21.999995
 51
67.942654
  0
LINE
  8
CSLAYER1
  6
CONTINUOUS
 62
     6
 10
108.699488
 20
212.472553
 11
108.201288
 21
212.673839
  0
ARC
  8
CSLAYER1
  6
CONTINUOUS
 62
     6
 10
109.584013
 20
212.543178
 40
1.388889
 50
141.398416
 51
174.601577
  0
LINE
  8
CSLAYER1
  6
CONTINUOUS
 62
     6
 10
108.498599
 20
213.409709
 11
108.996799
 21
213.208423
  0
ARC
  8
CSLAYER1
  6
CONTINUOUS
 62
     6
 10
109.145446
 20
213.576338
 40
0.396825
 50
248.000016
 51
338.000005
  0
LINE
  8
CSLAYER1
  6
CONTINUOUS
 62
     6
 10
109.513381
 20
213.427683
 11
109.714682
 21
213.925921
  0
ARC
  8
CSLAYER1
  6
CONTINUOUS
 62
     6
 10
109.584013
 20
212.543178
 40
1.388889
 50
51.398406
 51
84.601595
  0
LINE
  8
CSLAYER1
  6
CONTINUOUS
 62
     6
 10
110.450551
 20
213.628611
 11
110.249250
 21
213.130372
  0
ARC
  8
CSLAYER1
  6
CONTINUOUS
 62
     6
 10
110.617185
 20
212.981717
 40
0.396825
 50
158.000010
 51
248.000016
  0
LINE
  8
CSLAYER1
  6
CONTINUOUS
 62
     6
 10
110.468537
 20
212.613802
 11
110.966737
 21
212.412516
  0
CIRCLE
  8
CSLAYER1
  6
CONTINUOUS
 62
     6
 10
109.584021
 20
212.543174
 40
2.500000
  0
LINE
  8
CSLAYER1
  6
CONTINUOUS
 62
     6
 10
113.876157
 20
231.159123
 11
118.258781
 21
231.159123
  0
ARC
  8
CSLAYER1
  6
CONTINUOUS
 62
     6
 10
118.258781
 20
233.159123
 40
2.000000
 50
270.000000
 51
360.000000
  0
LINE
  8
CSLAYER1
  6
CONTINUOUS
 62
     6
 10
120.258781
 20
233.159123
 11
120.258781
 21
239.733299
  0
ARC
  8
CSLAYER1
  6
CONTINUOUS
 62
     6
 10
88.258781
 20
221.159123
 40
37.000000
 50
30.132722
 51
48.917667
  0
ARC
  8
CSLAYER1
  6
CONTINUOUS
 62
     6
 10
111.258781
 20
247.540935
 40
2.000000
 50
48.917667
 51
180.000000
  0
LINE
  8
CSLAYER1
  6
CONTINUOUS
 62
     6
 10
109.258781
 20
247.540935
 11
109.258781
 21
238.914404
  0
LINE
  8
CSLAYER1
  6
CONTINUOUS
 62
     6
 10
102.258781
 20
244.828724
 11
102.258781
 21
251.159123
  0
ARC
  8
CSLAYER1
  6
CONTINUOUS
 62
     6
 10
100.258781
 20
251.159123
 40
2.000000
 50
0.000000
 51
90.000000
  0
LINE
  8
CSLAYER1
  6
CONTINUOUS
 62
     6
 10
100.258781
 20
253.159123
 11
95.258781
 21
253.159123
  0
ARC
  8
CSLAYER1
  6
CONTINUOUS
 62
     6
 10
95.258781
 20
251.159123
 40
2.000000
 50
90.000000
 51
180.000000
  0
LINE
  8
CSLAYER1
  6
CONTINUOUS
 62
     6
 10
93.258781
 20
251.159123
 11
93.258781
 21
248.200758
  0
LINE
  8
CSLAYER1
  6
CONTINUOUS
 62
     6
 10
83.258781
 20
248.200758
 11
83.258781
 21
251.159123
  0
ARC
  8
CSLAYER1
  6
CONTINUOUS
 62
     6
 10
81.258781
 20
251.159123
 40
2.000000
 50
0.000000
 51
90.000000
  0
LINE
  8
CSLAYER1
  6
CONTINUOUS
 62
     6
 10
81.258781
 20
253.159123
 11
76.258781
 21
253.159123
  0
ARC
  8
CSLAYER1
  6
CONTINUOUS
 62
     6
 10
76.258781
 20
251.159123
 40
2.000000
 50
90.000000
 51
180.000000
  0
LINE
  8
CSLAYER1
  6
CONTINUOUS
 62
     6
 10
74.258781
 20
251.159123
 11
74.258781
 21
244.828724
  0
ARC
  8
CSLAYER1
  6
CONTINUOUS
 62
     6
 10
65.258781
 20
247.540935
 40
2.000000
 50
0.000000
 51
131.082333
  0
ARC
  8
CSLAYER1
  6
CONTINUOUS
 62
     6
 10
88.258781
 20
221.159123
 40
37.000000
 50
131.082333
 51
149.867278
  0
LINE
  8
CSLAYER1
  6
CONTINUOUS
 62
     6
 10
56.258781
 20
239.733299
 11
56.258781
 21
233.159123
  0
ARC
  8
CSLAYER1
  6
CONTINUOUS
 62
     6
 10
58.258781
 20
233.159123
 40
2.000000
 50
180.000000
 51
270.000000
  0
LINE
  8
CSLAYER1
  6
CONTINUOUS
 62
     6
 10
58.258781
 20
231.159123
 11
62.641404
 21
231.159123
  0
ARC
  8
CSLAYER1
  6
CONTINUOUS
 62
     6
 10
66.933558
 20
229.775080
 40
1.388889
 50
141.398416
 51
174.601577
  0
LINE
  8
CSLAYER1
  6
CONTINUOUS
 62
     6
 10
65.848143
 20
230.641611
 11
66.346344
 21
230.440325
  0
ARC
  8
CSLAYER1
  6
CONTINUOUS
 62
     6
 10
66.494991
 20
230.808241
 40
0.396825
 50
248.000016
 51
338.000005
  0
LINE
  8
CSLAYER1
  6
CONTINUOUS
 62
     6
 10
66.862926
 20
230.659585
 11
67.064227
 21
231.157824
  0
ARC
  8
CSLAYER1
  6
CONTINUOUS
 62
     6
 10
66.933558
 20
229.775080
 40
1.388889
 50
51.398406
 51
84.601595
  0
LINE
  8
CSLAYER1
  6
CONTINUOUS
 62
     6
 10
67.800096
 20
230.860513
 11
67.598795
 21
230.362275
  0
ARC
  8
CSLAYER1
  6
CONTINUOUS
 62
     6
 10
67.966730
 20
230.213620
 40
0.396825
 50
158.000010
 51
248.000016
  0
LINE
  8
CSLAYER1
  6
CONTINUOUS
 62
     6
 10
67.818082
 20
229.845704
 11
68.316282
 21
229.644418
  0
ARC
  8
CSLAYER1
  6
CONTINUOUS
 62
     6
 10
66.933558
 20
229.775080
 40
1.388889
 50
321.398438
 51
354.601572
  0
LINE
  8
CSLAYER1
  6
CONTINUOUS
 62
     6
 10
68.018972
 20
228.908549
 11
67.520772
 21
229.109835
  0
ARC
  8
CSLAYER1
  6
CONTINUOUS
 62
     6
 10
67.372124
 20
228.741919
 40
0.396825
 50
68.000001
 51
157.942691
  0
LINE
  8
CSLAYER1
  6
CONTINUOUS
 62
     6
 10
67.004189
 20
228.890575
 11
66.802888
 21
228.392336
  0
ARC
  8
CSLAYER1
  6
CONTINUOUS
 62
     6
 10
66.933558
 20
229.775080
 40
1.388889
 50
231.398422
 51
264.601583
  0
LINE
  8
CSLAYER1
  6
CONTINUOUS
 62
     6
 10
66.067019
 20
228.689647
 11
66.268320
 21
229.187885
  0
ARC
  8
CSLAYER1
  6
CONTINUOUS
 62
     6
 10
65.900386
 20
229.336540
 40
0.396825
 50
-21.999995
 51
67.942654
  0
LINE
  8
CSLAYER1
  6
CONTINUOUS
 62
     6
 10
66.049033
 20
229.704456
 11
65.550833
 21
229.905742
  0
CIRCLE
  8
CSLAYER1
  6
CONTINUOUS
 62
     6
 10
66.933566
 20
229.775076
 40
2.500000
  0
LINE
  8
CSLAYER1
  6
CONTINUOUS
 62
     6
 10
67.258781
 20
238.914404
 11
67.258781
 21
247.540935
  0
ARC
  8
CSLAYER1
  6
CONTINUOUS
 62
     6
 10
65.417968
 20
266.758435
 40
6.000000
 50
236.246253
 51
296.606406
  0
LINE
  8
CSLAYER1
  6
CONTINUOUS
 62
     6
 10
62.084221
 20
261.769836
 11
49.925965
 21
269.894873
  0
ARC
  8
CSLAYER1
  6
CONTINUOUS
 62
     6
 10
45.758781
 20
263.659123
 40
7.500000
 50
56.246253
 51
213.753747
  0
LINE
  8
CSLAYER1
  6
CONTINUOUS
 62
     6
 10
39.523031
 20
259.491938
 11
47.648068
 21
247.333683
  0
ARC
  8
CSLAYER1
  6
CONTINUOUS
 62
     6
 10
42.659468
 20
243.999935
 40
6.000000
 50
333.393594
 51
357.151140
  0
ARC
  8
CSLAYER1
  6
CONTINUOUS
 62
     6
 10
88.258781
 20
221.159123
 40
45.000000
 50
150.524210
 51
154.449420
  0
CIRCLE
  8
CSLAYER1
  6
CONTINUOUS
 62
     6
 10
45.758781
 20
263.659123
 40
3.500000
  0
LINE
  8
CSLAYER1
  6
CONTINUOUS
 62
     6
 10
38.258781
 20
263.659123
 11
38.258781
 21
178.659123
  0
LINE
  8
CSLAYER1
  6
CONTINUOUS
 62
     6
 10
39.523031
 20
182.826307
 11
47.648068
 21
194.984563
  0
ARC
  8
CSLAYER1
  6
CONTINUOUS
 62
     6
 10
42.659468
 20
198.318311
 40
6.000000
 50
2.848860
 51
26.606406
  0
ARC
  8
CSLAYER1
  6
CONTINUOUS
 62
     6
 10
88.258781
 20
221.159123
 40
45.000000
 50
205.543092
 51
209.475790
  0
LINE
  8
CSLAYER1
  6
CONTINUOUS
 62
     6
 10
56.258781
 20
202.584947
 11
56.258781
 21
209.159123
  0
ARC
  8
CSLAYER1
  6
CONTINUOUS
 62
     6
 10
58.258781
 20
209.159123
 40
2.000000
 50
90.000000
 51
180.000000
  0
LINE
  8
CSLAYER1
  6
CONTINUOUS
 62
     6
 10
58.258781
 20
211.159123
 11
62.641404
 21
211.159123
  0
CIRCLE
  8
CSLAYER1
  6
CONTINUOUS
 62
     6
 10
88.258783
 20
221.159119
 40
27.499998
  0
ARC
  8
CSLAYER1
  6
CONTINUOUS
 62
     6
 10
133.858093
 20
243.999935
 40
6.000000
 50
182.848860
 51
206.606406
  0
ARC
  8
CSLAYER1
  6
CONTINUOUS
 62
     6
 10
88.258781
 20
221.159123
 40
45.000000
 50
25.550580
 51
29.475790
  0
LINE
  8
CSLAYER1
  6
CONTINUOUS
 62
     6
 10
128.869493
 20
247.333683
 11
136.994530
 21
259.491938
  0
ARC
  8
CSLAYER1
  6
CONTINUOUS
 62
     6
 10
130.758781
 20
263.659123
 40
7.500000
 50
-33.753747
 51
123.753747
  0
LINE
  8
CSLAYER1
  6
CONTINUOUS
 62
     6
 10
126.591596
 20
269.894873
 11
114.433340
 21
261.769836
  0
ARC
  8
CSLAYER1
  6
CONTINUOUS
 62
     6
 10
111.099593
 20
266.758435
 40
6.000000
 50
243.393594
 51
303.753747
  0
LINE
  8
CSLAYER1
  6
CONTINUOUS
 62
     6
 10
45.758781
 20
271.159123
 11
130.758781
 21
271.159123
  0
CIRCLE
  8
CSLAYER1
  6
CONTINUOUS
 62
     6
 10
130.758781
 20
263.659123
 40
3.500000
  0
LINE
  8
CSLAYER1
  6
CONTINUOUS
 62
     6
 10
138.258781
 20
263.659123
 11
138.258781
 21
178.659123
  0
CIRCLE
  8
CSLAYER1
  6
CONTINUOUS
 62
     6
 10
130.758781
 20
178.659123
 40
3.500000
  0
LINE
  8
CSLAYER1
  6
CONTINUOUS
 62
     6
 10
130.758781
 20
171.159123
 11
116.349433
 21
171.159123
  0
LINE
  8
CSLAYER1
  6
CONTINUOUS
 62
     6
 10
115.495046
 20
167.771552
 11
115.794081
 21
164.613046
  0
LINE
  8
CSLAYER1
  6
CONTINUOUS
 62
     6
 10
115.226787
 20
164.422825
 11
115.383691
 21
163.429295
  0
LINE
  8
CSLAYER1
  6
CONTINUOUS
 62
     6
 10
114.596079
 20
164.421682
 11
114.671613
 21
167.867296
  0
LINE
  8
CSLAYER1
  6
CONTINUOUS
 62
     6
 10
113.848208
 20
167.963055
 11
113.443130
 21
164.774173
  0
LINE
  8
CSLAYER1
  6
CONTINUOUS
 62
     6
 10
113.064934
 20
164.647359
 11
112.812846
 21
163.584934
  0
LINE
  8
CSLAYER1
  6
CONTINUOUS
 62
     6
 10
112.270839
 20
163.556695
 11
112.712012
 21
164.682520
  0
LINE
  8
CSLAYER1
  6
CONTINUOUS
 62
     6
 10
112.312920
 20
164.804546
 11
113.024776
 21
168.058799
  0
LINE
  8
CSLAYER1
  6
CONTINUOUS
 62
     6
 10
112.201370
 20
168.154557
 11
111.192582
 21
165.025824
  0
LINE
  8
CSLAYER1
  6
CONTINUOUS
 62
     6
 10
111.610748
 20
164.728266
 11
111.148679
 21
163.851281
  0
LINE
  8
CSLAYER1
  6
CONTINUOUS
 62
     6
 10
111.462755
 20
163.609792
 11
111.915650
 21
164.853264
  0
LINE
  8
CSLAYER1
  6
CONTINUOUS
 62
     6
 10
114.177914
 20
164.719240
 11
113.900558
 21
163.494827
  0
ARC
  8
CSLAYER1
  6
CONTINUOUS
 62
     6
 10
100.100131
 20
169.561814
 40
11.353822
 50
-6.633120
 51
35.041553
  0
LINE
  8
CSLAYER1
  6
CONTINUOUS
 62
     6
 10
109.395936
 20
176.080807
 11
105.752819
 21
182.932506
  0
ARC
  8
CSLAYER1
  6
CONTINUOUS
 62
     6
 10
100.258781
 20
191.159123
 40
2.000000
 50
270.000000
 51
327.629366
  0
LINE
  8
CSLAYER1
  6
CONTINUOUS
 62
     6
 10
100.258781
 20
189.159123
 11
95.258781
 21
189.159123
  0
ARC
  8
CSLAYER1
  6
CONTINUOUS
 62
     6
 10
95.258781
 20
191.159123
 40
2.000000
 50
180.000000
 51
270.000000
  0
LINE
  8
CSLAYER1
  6
CONTINUOUS
 62
     6
 10
93.258781
 20
191.159123
 11
93.258781
 21
194.117485
  0
LINE
  8
CSLAYER1
  6
CONTINUOUS
 62
     6
 10
83.258781
 20
194.117486
 11
83.258781
 21
191.159123
  0
ARC
  8
CSLAYER1
  6
CONTINUOUS
 62
     6
 10
81.258781
 20
191.159123
 40
2.000000
 50
270.000000
 51
360.000000
  0
LINE
  8
CSLAYER1
  6
CONTINUOUS
 62
     6
 10
81.258781
 20
189.159123
 11
76.258781
 21
189.159123
  0
ARC
  8
CSLAYER1
  6
CONTINUOUS
 62
     6
 10
76.258781
 20
191.159123
 40
2.000000
 50
180.000000
 51
270.000000
  0
LINE
  8
CSLAYER1
  6
CONTINUOUS
 62
     6
 10
74.258781
 20
191.159123
 11
74.258781
 21
197.489522
  0
ARC
  8
CSLAYER1
  6
CONTINUOUS
 62
     6
 10
65.258781
 20
194.777311
 40
2.000000
 50
228.917667
 51
360.000000
  0
ARC
  8
CSLAYER1
  6
CONTINUOUS
 62
     6
 10
88.258781
 20
221.159123
 40
37.000000
 50
210.132722
 51
228.917667
  0
LINE
  8
CSLAYER1
  6
CONTINUOUS
 62
     6
 10
67.258781
 20
203.403842
 11
67.258781
 21
194.777311
  0
ARC
  8
CSLAYER1
  6
CONTINUOUS
 62
     6
 10
65.417968
 20
175.559810
 40
6.000000
 50
63.393594
 51
123.753747
  0
LINE
  8
CSLAYER1
  6
CONTINUOUS
 62
     6
 10
62.084221
 20
180.548410
 11
49.925965
 21
172.423373
  0
ARC
  8
CSLAYER1
  6
CONTINUOUS
 62
     6
 10
45.758781
 20
178.659123
 40
7.500000
 50
146.246253
 51
303.753747
  0
CIRCLE
  8
CSLAYER1
  6
CONTINUOUS
 62
     6
 10
45.758781
 20
178.659123
 40
3.500000
  0
ARC
  8
CSLAYER1
  6
CONTINUOUS
 62
     6
 10
86.383743
 20
167.192236
 40
1.250008
 50
240.000345
 51
300.000345
  0
ARC
  8
CSLAYER1
  6
CONTINUOUS
 62
     6
 10
86.383756
 20
165.027158
 40
1.250008
 50
60.000345
 51
120.000345
  0
LINE
  8
CSLAYER1
  6
CONTINUOUS
 62
     6
 10
85.758754
 20
166.109701
 11
85.758754
 21
164.662887
  0
ARC
  8
CSLAYER1
  6
CONTINUOUS
 62
     6
 10
70.350882
 20
164.662829
 40
15.407880
 50
332.536225
 51
359.942687
  0
LINE
  8
CSLAYER1
  6
CONTINUOUS
 62
     6
 10
84.022310
 20
157.556941
 11
86.240587
 21
156.403947
  0
ARC
  8
CSLAYER1
  6
CONTINUOUS
 62
     6
 10
70.350882
 20
164.662829
 40
17.907879
 50
332.536225
 51
359.942687
  0
LINE
  8
CSLAYER1
  6
CONTINUOUS
 62
     6
 10
88.258752
 20
164.644916
 11
88.258782
 21
166.109693
  0
ARC
  8
CSLAYER1
  6
CONTINUOUS
 62
     6
 10
88.883779
 20
167.192236
 40
1.250008
 50
240.000345
 51
300.000345
  0
ARC
  8
CSLAYER1
  6
CONTINUOUS
 62
     6
 10
88.883792
 20
165.027158
 40
1.250008
 50
60.000345
 51
120.000345
  0
ARC
  8
CSLAYER1
  6
CONTINUOUS
 62
     6
 10
87.633764
 20
165.027166
 40
1.250008
 50
60.000345
 51
120.000345
  0
ARC
  8
CSLAYER1
  6
CONTINUOUS
 62
     6
 10
106.166679
 20
164.662887
 40
17.907879
 50
180.000020
 51
207.463892
  0
LINE
  8
CSLAYER1
  6
CONTINUOUS
 62
     6
 10
90.276994
 20
156.403947
 11
92.495271
 21
157.556902
  0
ARC
  8
CSLAYER1
  6
CONTINUOUS
 62
     6
 10
106.166679
 20
164.662829
 40
15.407880
 50
179.999963
 51
207.463892
  0
LINE
  8
CSLAYER1
  6
CONTINUOUS
 62
     6
 10
90.758808
 20
164.662887
 11
90.758808
 21
166.109701
  0
ARC
  8
CSLAYER1
  6
CONTINUOUS
 62
     6
 10
90.133800
 20
165.027166
 40
1.250008
 50
60.000345
 51
120.000345
  0
LINE
  8
CSLAYER1
  6
CONTINUOUS
 62
     6
 10
91.958507
 20
157.277918
 11
93.772703
 21
154.285710
  0
LINE
  8
CSLAYER1
  6
CONTINUOUS
 62
     6
 10
93.035934
 20
153.773718
 11
91.386132
 21
156.980425
  0
LINE
  8
CSLAYER1
  6
CONTINUOUS
 62
     6
 10
90.811305
 20
156.687699
 11
92.191008
 21
153.471951
  0
LINE
  8
CSLAYER1
  6
CONTINUOUS
 62
     6
 10
85.724035
 20
156.672436
 11
84.157246
 21
153.261726
  0
LINE
  8
CSLAYER1
  6
CONTINUOUS
 62
     6
 10
83.370527
 20
153.548941
 11
85.131449
 21
156.980444
  0
LINE
  8
CSLAYER1
  6
CONTINUOUS
 62
     6
 10
84.535683
 20
157.282255
 11
82.678452
 21
154.020589
  0
LINE
  8
CSLAYER1
  6
CONTINUOUS
 62
     6
 10
176.885661
 20
195.659123
 11
176.885661
 21
246.659153
  0
ARC
  8
CSLAYER1
  6
CONTINUOUS
 62
     6
 10
178.885661
 20
246.659153
 40
2.000000
 50
89.999924
 51
180.000000
  0
LINE
  8
CSLAYER1
  6
CONTINUOUS
 62
     6
 10
178.885664
 20
248.659153
 11
201.885676
 21
248.659123
  0
LINE
  8
CSLAYER1
  6
CONTINUOUS
 62
     6
 10
214.885661
 20
246.159123
 11
214.885661
 21
245.159123
  0
ARC
  8
CSLAYER1
  6
CONTINUOUS
 62
     6
 10
215.885661
 20
245.159123
 40
1.000000
 50
180.000019
 51
270.000001
  0
LINE
  8
CSLAYER1
  6
CONTINUOUS
 62
     6
 10
215.885661
 20
244.159123
 11
251.885661
 21
244.159123
  0
ARC
  8
CSLAYER1
  6
CONTINUOUS
 62
     6
 10
251.885661
 20
245.159123
 40
1.000000
 50
270.000001
 51
359.942691
  0
LINE
  8
CSLAYER1
  6
CONTINUOUS
 62
     6
 10
252.885661
 20
245.159123
 11
252.885661
 21
246.159123
  0
ARC
  8
CSLAYER1
  6
CONTINUOUS
 62
     6
 10
251.885661
 20
246.159123
 40
1.000000
 50
0.000000
 51
90.000003
  0
LINE
  8
CSLAYER1
  6
CONTINUOUS
 62
     6
 10
251.885661
 20
247.159123
 11
215.885661
 21
247.159123
  0
ARC
  8
CSLAYER1
  6
CONTINUOUS
 62
     6
 10
215.885661
 20
246.159123
 40
1.000000
 50
90.000016
 51
180.000005
  0
ARC
  8
CSLAYER1
  6
CONTINUOUS
 62
     6
 10
215.885661
 20
239.159123
 40
1.000000
 50
90.000016
 51
180.000005
  0
LINE
  8
CSLAYER1
  6
CONTINUOUS
 62
     6
 10
214.885661
 20
239.159123
 11
214.885661
 21
238.159123
  0
ARC
  8
CSLAYER1
  6
CONTINUOUS
 62
     6
 10
215.885661
 20
238.159123
 40
1.000000
 50
180.000019
 51
270.000001
  0
LINE
  8
CSLAYER1
  6
CONTINUOUS
 62
     6
 10
215.885661
 20
237.159123
 11
220.656901
 21
237.159123
  0
ARC
  8
CSLAYER1
  6
CONTINUOUS
 62
     6
 10
220.656901
 20
236.159123
 40
1.000000
 50
-48.590366
 51
90.000019
  0
ARC
  8
CSLAYER1
  6
CONTINUOUS
 62
     6
 10
233.885661
 20
221.159123
 40
19.000000
 50
131.409657
 51
228.590367
  0
ARC
  8
CSLAYER1
  6
CONTINUOUS
 62
     6
 10
220.656901
 20
206.159123
 40
1.000000
 50
-89.999999
 51
48.590386
  0
LINE
  8
CSLAYER1
  6
CONTINUOUS
 62
     6
 10
220.656901
 20
205.159123
 11
215.885661
 21
205.159123
  0
ARC
  8
CSLAYER1
  6
CONTINUOUS
 62
     6
 10
215.885661
 20
204.159123
 40
1.000000
 50
89.999999
 51
179.999981
  0
LINE
  8
CSLAYER1
  6
CONTINUOUS
 62
     6
 10
214.885661
 20
204.159123
 11
214.885661
 21
203.159123
  0
ARC
  8
CSLAYER1
  6
CONTINUOUS
 62
     6
 10
215.885661
 20
203.159123
 40
1.000000
 50
179.999995
 51
269.999984
  0
LINE
  8
CSLAYER1
  6
CONTINUOUS
 62
     6
 10
215.885661
 20
202.159123
 11
251.885661
 21
202.159123
  0
ARC
  8
CSLAYER1
  6
CONTINUOUS
 62
     6
 10
251.885661
 20
203.159123
 40
1.000000
 50
269.999997
 51
360.000000
  0
LINE
  8
CSLAYER1
  6
CONTINUOUS
 62
     6
 10
252.885661
 20
203.159123
 11
252.885661
 21
204.159123
  0
ARC
  8
CSLAYER1
  6
CONTINUOUS
 62
     6
 10
251.885661
 20
204.159123
 40
1.000000
 50
0.057309
 51
89.999999
  0
LINE
  8
CSLAYER1
  6
CONTINUOUS
 62
     6
 10
251.885661
 20
205.159123
 11
247.114421
 21
205.159123
  0
ARC
  8
CSLAYER1
  6
CONTINUOUS
 62
     6
 10
247.114421
 20
206.159123
 40
1.000000
 50
131.409643
 51
270.000001
  0
ARC
  8
CSLAYER1
  6
CONTINUOUS
 62
     6
 10
233.885661
 20
221.159123
 40
19.000000
 50
-48.590366
 51
48.590386
  0
ARC
  8
CSLAYER1
  6
CONTINUOUS
 62
     6
 10
247.114421
 20
236.159123
 40
1.000000
 50
90.000003
 51
228.590367
  0
LINE
  8
CSLAYER1
  6
CONTINUOUS
 62
     6
 10
247.114421
 20
237.159123
 11
251.885661
 21
237.159123
  0
ARC
  8
CSLAYER1
  6
CONTINUOUS
 62
     6
 10
251.885661
 20
238.159123
 40
1.000000
 50
270.000001
 51
359.942691
  0
LINE
  8
CSLAYER1
  6
CONTINUOUS
 62
     6
 10
252.885661
 20
238.159123
 11
252.885661
 21
239.159123
  0
ARC
  8
CSLAYER1
  6
CONTINUOUS
 62
     6
 10
251.885661
 20
239.159123
 40
1.000000
 50
0.000000
 51
90.000003
  0
LINE
  8
CSLAYER1
  6
CONTINUOUS
 62
     6
 10
251.885661
 20
240.159123
 11
215.885661
 21
240.159123
  0
LINE
  8
CSLAYER1
  6
CONTINUOUS
 62
     6
 10
227.885661
 20
222.059117
 11
239.885661
 21
222.059117
  0
LINE
  8
CSLAYER1
  6
CONTINUOUS
 62
     6
 10
239.885661
 20
222.059117
 11
239.885661
 21
220.259129
  0
LINE
  8
CSLAYER1
  6
CONTINUOUS
 62
     6
 10
239.885661
 20
220.259129
 11
227.885661
 21
220.259129
  0
LINE
  8
CSLAYER1
  6
CONTINUOUS
 62
     6
 10
227.885661
 20
220.259129
 11
227.885661
 21
222.059117
  0
CIRCLE
  8
CSLAYER1
  6
CONTINUOUS
 62
     6
 10
233.885661
 20
221.159123
 40
12.000000
  0
CIRCLE
  8
CSLAYER1
  6
CONTINUOUS
 62
     6
 10
233.885661
 20
221.159123
 40
15.000000
  0
CIRCLE
  8
CSLAYER1
  6
CONTINUOUS
 62
     6
 10
233.885661
 20
221.159123
 40
16.000000
  0
LINE
  8
CSLAYER1
  6
CONTINUOUS
 62
     6
 10
254.885661
 20
265.047581
 11
202.885661
 21
265.047581
  0
LINE
  8
CSLAYER1
  6
CONTINUOUS
 62
     6
 10
202.885661
 20
265.047581
 11
201.885661
 21
264.047581
  0
LINE
  8
CSLAYER1
  6
CONTINUOUS
 62
     6
 10
201.885661
 20
264.047581
 11
201.885661
 21
178.159123
  0
LINE
  8
CSLAYER1
  6
CONTINUOUS
 62
     6
 10
201.885661
 20
178.159123
 11
202.885661
 21
177.159123
  0
LINE
  8
CSLAYER1
  6
CONTINUOUS
 62
     6
 10
202.885661
 20
177.159123
 11
202.885661
 21
265.047581
  0
LINE
  8
CSLAYER1
  6
CONTINUOUS
 62
     6
 10
215.786052
 20
297.159108
 11
251.985210
 21
297.159108
  0
ARC
  8
CSLAYER1
  6
CONTINUOUS
 62
     6
 10
251.985210
 20
298.159108
 40
1.000000
 50
270.000001
 51
354.000017
  0
LINE
  8
CSLAYER1
  6
CONTINUOUS
 62
     6
 10
252.979777
 20
298.054554
 11
253.627727
 21
304.219838
  0
ARC
  8
CSLAYER1
  6
CONTINUOUS
 62
     6
 10
254.622295
 20
304.115284
 40
1.000000
 50
90.000009
 51
173.999984
  0
LINE
  8
CSLAYER1
  6
CONTINUOUS
 62
     6
 10
254.885661
 20
302.159108
 11
253.410625
 21
302.159108
  0
LINE
  8
CSLAYER1
  6
CONTINUOUS
 62
     6
 10
252.979777
 20
302.054554
 11
253.677409
 21
308.692067
  0
ARC
  8
CSLAYER1
  6
CONTINUOUS
 62
     6
 10
254.671916
 20
308.587513
 40
1.000000
 50
90.000009
 51
173.999984
  0
LINE
  8
CSLAYER1
  6
CONTINUOUS
 62
     6
 10
249.528728
 20
309.765919
 11
217.571635
 21
309.765919
  0
LINE
  8
CSLAYER1
  6
CONTINUOUS
 62
     6
 10
214.093913
 20
308.692067
 11
214.791545
 21
302.054554
  0
ARC
  8
CSLAYER1
  6
CONTINUOUS
 62
     6
 10
215.786052
 20
302.159108
 40
1.000000
 50
186.000012
 51
270.000001
  0
LINE
  8
CSLAYER1
  6
CONTINUOUS
 62
     6
 10
215.786052
 20
301.159108
 11
251.985210
 21
301.159108
  0
ARC
  8
CSLAYER1
  6
CONTINUOUS
 62
     6
 10
251.985210
 20
302.159108
 40
1.000000
 50
270.000001
 51
354.000017
  0
LINE
  8
CSLAYER1
  6
CONTINUOUS
 62
     6
 10
254.885661
 20
301.159123
 11
254.885661
 21
391.159123
  0
LINE
  8
CSLAYER1
  6
CONTINUOUS
 62
     6
 10
254.885661
 20
391.159123
 11
370.885661
 21
391.159123
  0
LINE
  8
CSLAYER1
  6
CONTINUOUS
 62
     6
 10
369.885661
 20
391.159123
 11
369.885661
 21
301.159123
  0
LINE
  8
CSLAYER1
  6
CONTINUOUS
 62
     6
 10
370.885661
 20
301.159123
 11
254.885661
 21
301.159123
  0
LINE
  8
CSLAYER1
  6
CONTINUOUS
 62
     6
 10
254.885661
 20
266.159123
 11
370.885661
 21
266.159123
  0
LINE
  8
CSLAYER1
  6
CONTINUOUS
 62
     6
 10
369.885661
 20
266.159123
 11
369.885661
 21
176.159123
  0
LINE
  8
CSLAYER1
  6
CONTINUOUS
 62
     6
 10
370.885661
 20
176.159123
 11
254.885661
 21
176.159123
  0
LINE
  8
CSLAYER1
  6
CONTINUOUS
 62
     6
 10
254.885661
 20
176.159123
 11
254.885661
 21
266.159123
  0
ARC
  8
CSLAYER1
  6
CONTINUOUS
 62
     6
 10
215.786052
 20
298.159108
 40
1.000000
 50
186.000012
 51
270.000001
  0
LINE
  8
CSLAYER1
  6
CONTINUOUS
 62
     6
 10
214.791545
 20
298.054554
 11
214.143535
 21
304.219838
  0
ARC
  8
CSLAYER1
  6
CONTINUOUS
 62
     6
 10
213.149028
 20
304.115284
 40
1.000000
 50
6.000021
 51
90.000009
  0
LINE
  8
CSLAYER1
  6
CONTINUOUS
 62
     6
 10
214.360087
 20
302.159108
 11
202.885631
 21
302.159108
  0
LINE
  8
CSLAYER1
  6
CONTINUOUS
 62
     6
 10
202.885631
 20
302.159108
 11
201.885631
 21
303.159108
  0
LINE
  8
CSLAYER1
  6
CONTINUOUS
 62
     6
 10
201.885661
 20
303.159123
 11
201.885661
 21
389.159123
  0
LINE
  8
CSLAYER1
  6
CONTINUOUS
 62
     6
 10
201.885661
 20
389.159123
 11
202.885661
 21
390.159123
  0
LINE
  8
CSLAYER1
  6
CONTINUOUS
 62
     6
 10
202.885661
 20
390.159123
 11
202.885661
 21
302.159123
  0
LINE
  8
CSLAYER1
  6
CONTINUOUS
 62
     6
 10
202.885661
 20
302.159123
 11
201.885661
 21
303.159123
  0
LINE
  8
CSLAYER1
  6
CONTINUOUS
 62
     6
 10
195.551982
 20
304.729542
 11
191.459498
 21
307.556248
  0
ARC
  8
CSLAYER1
  6
CONTINUOUS
 62
     6
 10
182.117473
 20
314.008839
 40
11.353822
 50
-34.633120
 51
7.041553
  0
ARC
  8
CSLAYER1
  6
CONTINUOUS
 62
     6
 10
194.635661
 20
313.235630
 40
2.500000
 50
59.999995
 51
119.999990
  0
ARC
  8
CSLAYER1
  6
CONTINUOUS
 62
     6
 10
197.135661
 20
313.235630
 40
2.500000
 50
59.999995
 51
119.999990
  0
ARC
  8
CSLAYER1
  6
CONTINUOUS
 62
     6
 10
182.117473
 20
314.008839
 40
16.327621
 50
-34.633093
 51
4.890180
  0
LINE
  8
CSLAYER1
  6
CONTINUOUS
 62
     6
 10
194.869899
 20
305.200657
 11
193.651103
 21
302.271473
  0
LINE
  8
CSLAYER1
  6
CONTINUOUS
 62
     6
 10
193.060908
 20
302.369847
 11
192.733012
 21
301.418950
  0
LINE
  8
CSLAYER1
  6
CONTINUOUS
 62
     6
 10
192.503490
 20
302.664936
 11
194.187800
 21
305.671772
  0
LINE
  8
CSLAYER1
  6
CONTINUOUS
 62
     6
 10
193.505733
 20
306.142888
 11
191.650981
 21
303.517445
  0
LINE
  8
CSLAYER1
  6
CONTINUOUS
 62
     6
 10
191.257518
 20
303.583027
 11
190.536159
 21
302.763310
  0
LINE
  8
CSLAYER1
  6
CONTINUOUS
 62
     6
 10
190.044337
 20
302.992833
 11
190.962413
 21
303.779759
  0
LINE
  8
CSLAYER1
  6
CONTINUOUS
 62
     6
 10
190.667323
 20
304.074864
 11
192.823634
 21
306.614003
  0
LINE
  8
CSLAYER1
  6
CONTINUOUS
 62
     6
 10
192.141566
 20
307.085118
 11
189.782008
 21
304.796208
  0
LINE
  8
CSLAYER1
  6
CONTINUOUS
 62
     6
 10
190.011531
 20
304.337162
 11
189.191829
 21
303.779759
  0
LINE
  8
CSLAYER1
  6
CONTINUOUS
 62
     6
 10
189.355769
 20
303.419087
 11
190.339427
 21
304.304387
  0
LINE
  8
CSLAYER1
  6
CONTINUOUS
 62
     6
 10
192.273967
 20
303.123982
 11
191.454249
 21
302.173100
  0
ARC
  8
CSLAYER1
  6
CONTINUOUS
 62
     6
 10
213.099345
 20
308.587513
 40
1.000000
 50
6.000021
 51
90.000009
  0
LINE
  8
CSLAYER1
  6
CONTINUOUS
 62
     6
 10
201.885683
 20
317.700244
 11
201.885670
 21
374.618002
  0
LINE
  8
CSLAYER1
  6
CONTINUOUS
 62
     6
 10
201.885670
 20
373.659123
 11
178.885663
 21
373.659148
  0
ARC
  8
CSLAYER1
  6
CONTINUOUS
 62
     6
 10
178.885661
 20
371.659148
 40
2.000000
 50
89.999938
 51
180.000000
  0
LINE
  8
CSLAYER1
  6
CONTINUOUS
 62
     6
 10
176.885661
 20
371.659148
 11
176.885661
 21
320.659092
  0
ARC
  8
CSLAYER1
  6
CONTINUOUS
 62
     6
 10
178.885661
 20
320.659092
 40
2.000000
 50
180.000000
 51
270.000076
  0
LINE
  8
CSLAYER1
  6
CONTINUOUS
 62
     6
 10
178.885664
 20
318.659092
 11
201.885683
 21
318.659123
  0
LINE
  8
CSLAYER1
  6
CONTINUOUS
 62
     6
 10
198.385661
 20
318.659118
 11
198.385661
 21
317.772450
  0
ARC
  8
CSLAYER1
  6
CONTINUOUS
 62
     6
 10
197.135661
 20
319.937519
 40
2.500000
 50
240.000007
 51
299.999995
  0
ARC
  8
CSLAYER1
  6
CONTINUOUS
 62
     6
 10
194.635661
 20
319.937519
 40
2.500000
 50
240.000007
 51
299.999995
  0
LINE
  8
CSLAYER1
  6
CONTINUOUS
 62
     6
 10
193.385661
 20
317.772450
 11
193.385661
 21
318.659112
  0
ARC
  8
CSLAYER1
  6
CONTINUOUS
 62
     6
 10
197.135661
 20
315.607380
 40
2.500000
 50
60.000002
 51
120.000003
  0
ARC
  8
CSLAYER1
  6
CONTINUOUS
 62
     6
 10
194.635661
 20
317.565770
 40
2.500000
 50
240.000007
 51
299.999995
  0
ARC
  8
CSLAYER1
  6
CONTINUOUS
 62
     6
 10
213.099345
 20
383.730641
 40
1.000000
 50
270.000001
 51
353.999989
  0
LINE
  8
CSLAYER1
  6
CONTINUOUS
 62
     6
 10
214.093913
 20
383.626149
 11
214.791545
 21
390.263600
  0
ARC
  8
CSLAYER1
  6
CONTINUOUS
 62
     6
 10
215.786052
 20
390.159108
 40
1.000000
 50
90.000003
 51
173.999998
  0
LINE
  8
CSLAYER1
  6
CONTINUOUS
 62
     6
 10
215.786052
 20
391.159108
 11
251.985210
 21
391.159108
  0
ARC
  8
CSLAYER1
  6
CONTINUOUS
 62
     6
 10
251.985210
 20
390.159108
 40
1.000000
 50
6.000003
 51
90.000016
  0
LINE
  8
CSLAYER1
  6
CONTINUOUS
 62
     6
 10
252.979777
 20
390.263600
 11
253.677409
 21
383.626149
  0
ARC
  8
CSLAYER1
  6
CONTINUOUS
 62
     6
 10
254.671916
 20
383.730641
 40
1.000000
 50
186.000026
 51
270.000001
  0
ARC
  8
CSLAYER1
  6
CONTINUOUS
 62
     6
 10
254.622295
 20
388.202931
 40
1.000000
 50
186.000026
 51
270.000001
  0
LINE
  8
CSLAYER1
  6
CONTINUOUS
 62
     6
 10
253.627727
 20
388.098378
 11
252.979777
 21
394.263600
  0
ARC
  8
CSLAYER1
  6
CONTINUOUS
 62
     6
 10
251.985210
 20
394.159108
 40
1.000000
 50
6.000003
 51
90.000016
  0
LINE
  8
CSLAYER1
  6
CONTINUOUS
 62
     6
 10
251.985210
 20
395.159108
 11
215.786052
 21
395.159108
  0
ARC
  8
CSLAYER1
  6
CONTINUOUS
 62
     6
 10
215.786052
 20
394.159108
 40
1.000000
 50
90.000003
 51
173.999998
  0
LINE
  8
CSLAYER1
  6
CONTINUOUS
 62
     6
 10
214.791545
 20
394.263600
 11
214.143535
 21
388.098378
  0
ARC
  8
CSLAYER1
  6
CONTINUOUS
 62
     6
 10
213.149028
 20
388.202931
 40
1.000000
 50
270.000001
 51
353.999989
  0
LINE
  8
CSLAYER1
  6
CONTINUOUS
 62
     6
 10
214.360087
 20
390.159108
 11
202.885631
 21
390.159108
  0
LINE
  8
CSLAYER1
  6
CONTINUOUS
 62
     6
 10
202.885631
 20
390.159108
 11
201.885631
 21
389.159108
  0
LINE
  8
CSLAYER1
  6
CONTINUOUS
 62
     6
 10
217.571635
 20
382.552296
 11
249.528728
 21
382.552296
  0
LINE
  8
CSLAYER1
  6
CONTINUOUS
 62
     6
 10
253.410625
 20
390.159108
 11
254.885661
 21
390.159108
  0
LINE
  8
CSLAYER1
  6
CONTINUOUS
 62
     6
 10
370.885570
 20
396.159123
 11
380.885631
 21
396.159123
  0
LINE
  8
CSLAYER1
  6
CONTINUOUS
 62
     6
 10
380.885661
 20
396.159123
 11
380.885661
 21
296.159123
  0
LINE
  8
CSLAYER1
  6
CONTINUOUS
 62
     6
 10
380.885631
 20
296.159123
 11
370.885570
 21
296.159123
  0
LINE
  8
CSLAYER1
  6
CONTINUOUS
 62
     6
 10
370.885661
 20
296.159123
 11
370.885661
 21
319.097905
  0
LINE
  8
CSLAYER1
  6
CONTINUOUS
 62
     6
 10
380.885661
 20
316.159123
 11
383.885661
 21
316.159123
  0
LINE
  8
CSLAYER1
  6
CONTINUOUS
 62
     6
 10
383.885661
 20
316.159123
 11
383.885661
 21
376.159123
  0
LINE
  8
CSLAYER1
  6
CONTINUOUS
 62
     6
 10
383.885661
 20
376.159123
 11
380.885661
 21
376.159123
  0
LINE
  8
CSLAYER1
  6
CONTINUOUS
 62
     6
 10
370.885661
 20
373.220372
 11
370.885661
 21
396.159123
  0
LINE
  8
CSLAYER1
  6
CONTINUOUS
 62
     6
 10
376.885661
 20
386.159123
 11
376.885661
 21
306.159123
  0
LINE
  8
CSLAYER1
  6
CONTINUOUS
 62
     6
 10
380.885631
 20
271.159123
 11
370.885570
 21
271.159123
  0
LINE
  8
CSLAYER1
  6
CONTINUOUS
 62
     6
 10
370.885661
 20
271.159123
 11
370.885661
 21
248.220372
  0
LINE
  8
CSLAYER1
  6
CONTINUOUS
 62
     6
 10
380.885661
 20
251.159123
 11
383.885661
 21
251.159123
  0
LINE
  8
CSLAYER1
  6
CONTINUOUS
 62
     6
 10
383.885661
 20
251.159123
 11
383.885661
 21
191.159123
  0
LINE
  8
CSLAYER1
  6
CONTINUOUS
 62
     6
 10
383.885661
 20
191.159123
 11
380.885661
 21
191.159123
  0
LINE
  8
CSLAYER1
  6
CONTINUOUS
 62
     6
 10
370.885661
 20
194.097905
 11
370.885661
 21
171.159123
  0
LINE
  8
CSLAYER1
  6
CONTINUOUS
 62
     6
 10
370.885570
 20
171.159123
 11
380.885631
 21
171.159123
  0
LINE
  8
CSLAYER1
  6
CONTINUOUS
 62
     6
 10
380.885661
 20
171.159123
 11
380.885661
 21
271.159123
  0
LINE
  8
CSLAYER1
  6
CONTINUOUS
 62
     6
 10
376.885661
 20
261.159123
 11
376.885661
 21
181.159123
  0
LINE
  8
CSLAYER1
  6
CONTINUOUS
 62
     6
 10
380.885631
 20
136.159123
 11
370.885570
 21
136.159123
  0
LINE
  8
CSLAYER1
  6
CONTINUOUS
 62
     6
 10
370.885661
 20
136.159123
 11
370.885661
 21
113.220372
  0
LINE
  8
CSLAYER1
  6
CONTINUOUS
 62
     6
 10
380.885661
 20
116.159123
 11
383.885661
 21
116.159123
  0
LINE
  8
CSLAYER1
  6
CONTINUOUS
 62
     6
 10
383.885661
 20
116.159123
 11
383.885661
 21
56.159123
  0
LINE
  8
CSLAYER1
  6
CONTINUOUS
 62
     6
 10
383.885661
 20
56.159123
 11
380.885661
 21
56.159123
  0
LINE
  8
CSLAYER1
  6
CONTINUOUS
 62
     6
 10
370.885661
 20
59.097905
 11
370.885661
 21
36.159123
  0
LINE
  8
CSLAYER1
  6
CONTINUOUS
 62
     6
 10
370.885570
 20
36.159123
 11
380.885631
 21
36.159123
  0
LINE
  8
CSLAYER1
  6
CONTINUOUS
 62
     6
 10
380.885661
 20
36.159123
 11
380.885661
 21
136.159123
  0
LINE
  8
CSLAYER1
  6
CONTINUOUS
 62
     6
 10
376.885661
 20
126.159123
 11
376.885661
 21
46.159123
  0
LINE
  8
CSLAYER1
  6
CONTINUOUS
 62
     6
 10
370.885661
 20
41.159123
 11
254.885661
 21
41.159123
  0
LINE
  8
CSLAYER1
  6
CONTINUOUS
 62
     6
 10
254.885661
 20
41.159123
 11
254.885661
 21
131.159123
  0
LINE
  8
CSLAYER1
  6
CONTINUOUS
 62
     6
 10
254.885661
 20
131.159123
 11
370.885661
 21
131.159123
  0
LINE
  8
CSLAYER1
  6
CONTINUOUS
 62
     6
 10
369.885661
 20
131.159123
 11
369.885661
 21
41.159123
  0
LINE
  8
CSLAYER1
  6
CONTINUOUS
 62
     6
 10
383.885661
 20
80.159123
 11
420.885661
 21
80.159123
  0
LINE
  8
CSLAYER1
  6
CONTINUOUS
 62
     6
 10
420.885661
 20
80.159123
 11
420.885661
 21
92.159123
  0
LINE
  8
CSLAYER1
  6
CONTINUOUS
 62
     6
 10
420.885661
 20
92.159123
 11
383.885661
 21
92.159123
  0
ARC
  8
CSLAYER1
  6
CONTINUOUS
 62
     6
 10
254.671916
 20
123.730641
 40
1.000000
 50
186.000026
 51
270.000001
  0
LINE
  8
CSLAYER1
  6
CONTINUOUS
 62
     6
 10
253.677409
 20
123.626149
 11
252.979777
 21
130.263600
  0
ARC
  8
CSLAYER1
  6
CONTINUOUS
 62
     6
 10
251.985210
 20
130.159108
 40
1.000000
 50
6.000003
 51
90.000016
  0
LINE
  8
CSLAYER1
  6
CONTINUOUS
 62
     6
 10
251.985210
 20
131.159108
 11
215.786052
 21
131.159108
  0
ARC
  8
CSLAYER1
  6
CONTINUOUS
 62
     6
 10
215.786052
 20
130.159108
 40
1.000000
 50
90.000003
 51
173.999998
  0
LINE
  8
CSLAYER1
  6
CONTINUOUS
 62
     6
 10
214.791545
 20
130.263600
 11
214.093913
 21
123.626149
  0
ARC
  8
CSLAYER1
  6
CONTINUOUS
 62
     6
 10
213.099345
 20
123.730641
 40
1.000000
 50
270.000001
 51
353.999989
  0
ARC
  8
CSLAYER1
  6
CONTINUOUS
 62
     6
 10
213.149028
 20
128.202931
 40
1.000000
 50
270.000001
 51
353.999989
  0
LINE
  8
CSLAYER1
  6
CONTINUOUS
 62
     6
 10
214.143535
 20
128.098378
 11
214.791545
 21
134.263600
  0
ARC
  8
CSLAYER1
  6
CONTINUOUS
 62
     6
 10
215.786052
 20
134.159108
 40
1.000000
 50
90.000003
 51
173.999998
  0
LINE
  8
CSLAYER1
  6
CONTINUOUS
 62
     6
 10
215.786052
 20
135.159108
 11
251.985210
 21
135.159108
  0
ARC
  8
CSLAYER1
  6
CONTINUOUS
 62
     6
 10
251.985210
 20
134.159108
 40
1.000000
 50
6.000003
 51
90.000016
  0
LINE
  8
CSLAYER1
  6
CONTINUOUS
 62
     6
 10
252.979777
 20
134.263600
 11
253.627727
 21
128.098378
  0
ARC
  8
CSLAYER1
  6
CONTINUOUS
 62
     6
 10
254.622295
 20
128.202931
 40
1.000000
 50
186.000026
 51
270.000001
  0
LINE
  8
CSLAYER1
  6
CONTINUOUS
 62
     6
 10
254.885661
 20
130.159108
 11
253.410625
 21
130.159108
  0
LINE
  8
CSLAYER1
  6
CONTINUOUS
 62
     6
 10
249.528728
 20
122.552296
 11
217.571635
 21
122.552296
  0
LINE
  8
CSLAYER1
  6
CONTINUOUS
 62
     6
 10
214.360087
 20
130.159108
 11
202.885631
 21
130.159108
  0
LINE
  8
CSLAYER1
  6
CONTINUOUS
 62
     6
 10
202.885631
 20
130.159108
 11
201.885631
 21
129.159108
  0
LINE
  8
CSLAYER1
  6
CONTINUOUS
 62
     6
 10
201.885661
 20
129.159123
 11
201.885661
 21
43.159123
  0
LINE
  8
CSLAYER1
  6
CONTINUOUS
 62
     6
 10
201.885661
 20
43.159123
 11
202.885661
 21
42.159123
  0
LINE
  8
CSLAYER1
  6
CONTINUOUS
 62
     6
 10
202.885661
 20
42.159123
 11
202.885661
 21
130.159123
  0
LINE
  8
CSLAYER1
  6
CONTINUOUS
 62
     6
 10
195.551982
 20
127.588704
 11
191.459498
 21
124.761998
  0
ARC
  8
CSLAYER1
  6
CONTINUOUS
 62
     6
 10
182.117473
 20
118.309407
 40
11.353822
 50
-7.041553
 51
34.633120
  0
ARC
  8
CSLAYER1
  6
CONTINUOUS
 62
     6
 10
194.635661
 20
119.082615
 40
2.500000
 50
240.000010
 51
300.000005
  0
ARC
  8
CSLAYER1
  6
CONTINUOUS
 62
     6
 10
197.135661
 20
119.082615
 40
2.500000
 50
240.000010
 51
300.000005
  0
ARC
  8
CSLAYER1
  6
CONTINUOUS
 62
     6
 10
182.117473
 20
118.309407
 40
16.327621
 50
-4.890180
 51
34.633093
  0
LINE
  8
CSLAYER1
  6
CONTINUOUS
 62
     6
 10
194.869899
 20
127.117589
 11
193.651103
 21
130.046773
  0
LINE
  8
CSLAYER1
  6
CONTINUOUS
 62
     6
 10
193.060908
 20
129.948399
 11
192.733012
 21
130.899296
  0
LINE
  8
CSLAYER1
  6
CONTINUOUS
 62
     6
 10
192.503490
 20
129.653309
 11
194.187800
 21
126.646473
  0
LINE
  8
CSLAYER1
  6
CONTINUOUS
 62
     6
 10
193.505733
 20
126.175358
 11
191.650981
 21
128.800801
  0
LINE
  8
CSLAYER1
  6
CONTINUOUS
 62
     6
 10
191.257518
 20
128.735219
 11
190.536159
 21
129.554936
  0
LINE
  8
CSLAYER1
  6
CONTINUOUS
 62
     6
 10
190.044337
 20
129.325413
 11
190.962413
 21
128.538487
  0
LINE
  8
CSLAYER1
  6
CONTINUOUS
 62
     6
 10
190.667323
 20
128.243382
 11
192.823634
 21
125.704243
  0
LINE
  8
CSLAYER1
  6
CONTINUOUS
 62
     6
 10
192.141566
 20
125.233128
 11
189.782008
 21
127.522038
  0
LINE
  8
CSLAYER1
  6
CONTINUOUS
 62
     6
 10
190.011531
 20
127.981083
 11
189.191829
 21
128.538487
  0
LINE
  8
CSLAYER1
  6
CONTINUOUS
 62
     6
 10
189.355769
 20
128.899159
 11
190.339427
 21
128.013859
  0
LINE
  8
CSLAYER1
  6
CONTINUOUS
 62
     6
 10
192.273967
 20
129.194264
 11
191.454249
 21
130.145146
  0
ARC
  8
CSLAYER1
  6
CONTINUOUS
 62
     6
 10
194.635661
 20
114.752476
 40
2.500000
 50
60.000005
 51
119.999993
  0
ARC
  8
CSLAYER1
  6
CONTINUOUS
 62
     6
 10
197.135661
 20
116.710866
 40
2.500000
 50
239.999997
 51
299.999998
  0
LINE
  8
CSLAYER1
  6
CONTINUOUS
 62
     6
 10
198.385661
 20
114.545796
 11
198.385661
 21
99.773854
  0
LINE
  8
CSLAYER1
  6
CONTINUOUS
 62
     6
 10
193.385661
 20
99.773854
 11
193.385661
 21
114.545796
  0
ARC
  8
CSLAYER1
  6
CONTINUOUS
 62
     6
 10
194.635661
 20
112.380726
 40
2.500000
 50
60.000005
 51
119.999993
  0
ARC
  8
CSLAYER1
  6
CONTINUOUS
 62
     6
 10
197.135661
 20
112.380726
 40
2.500000
 50
60.000005
 51
119.999993
  0
LINE
  8
CSLAYER1
  6
CONTINUOUS
 62
     6
 10
198.385676
 20
113.659069
 11
201.885661
 21
113.659069
  0
LINE
  8
CSLAYER1
  6
CONTINUOUS
 62
     6
 10
193.385676
 20
113.659067
 11
178.885664
 21
113.659087
  0
ARC
  8
CSLAYER1
  6
CONTINUOUS
 62
     6
 10
178.885661
 20
111.659087
 40
2.000000
 50
89.999924
 51
180.000000
  0
LINE
  8
CSLAYER1
  6
CONTINUOUS
 62
     6
 10
176.885661
 20
111.659087
 11
176.885661
 21
60.659087
  0
ARC
  8
CSLAYER1
  6
CONTINUOUS
 62
     6
 10
178.885661
 20
60.659087
 40
2.000000
 50
180.000000
 51
270.000062
  0
LINE
  8
CSLAYER1
  6
CONTINUOUS
 62
     6
 10
178.885663
 20
58.659087
 11
201.885661
 21
58.659111
  0
ARC
  8
CSLAYER1
  6
CONTINUOUS
 62
     6
 10
213.099345
 20
48.587513
 40
1.000000
 50
6.000021
 51
90.000009
  0
LINE
  8
CSLAYER1
  6
CONTINUOUS
 62
     6
 10
214.093913
 20
48.692067
 11
214.791545
 21
42.054554
  0
ARC
  8
CSLAYER1
  6
CONTINUOUS
 62
     6
 10
215.786052
 20
42.159108
 40
1.000000
 50
186.000012
 51
270.000001
  0
LINE
  8
CSLAYER1
  6
CONTINUOUS
 62
     6
 10
215.786052
 20
41.159108
 11
251.985210
 21
41.159108
  0
ARC
  8
CSLAYER1
  6
CONTINUOUS
 62
     6
 10
251.985210
 20
42.159108
 40
1.000000
 50
270.000001
 51
354.000017
  0
LINE
  8
CSLAYER1
  6
CONTINUOUS
 62
     6
 10
252.979777
 20
42.054554
 11
253.677409
 21
48.692067
  0
ARC
  8
CSLAYER1
  6
CONTINUOUS
 62
     6
 10
254.671916
 20
48.587513
 40
1.000000
 50
90.000009
 51
173.999984
  0
ARC
  8
CSLAYER1
  6
CONTINUOUS
 62
     6
 10
254.622295
 20
44.115284
 40
1.000000
 50
90.000009
 51
173.999984
  0
LINE
  8
CSLAYER1
  6
CONTINUOUS
 62
     6
 10
253.627727
 20
44.219838
 11
252.979777
 21
38.054554
  0
ARC
  8
CSLAYER1
  6
CONTINUOUS
 62
     6
 10
251.985210
 20
38.159108
 40
1.000000
 50
270.000001
 51
354.000017
  0
LINE
  8
CSLAYER1
  6
CONTINUOUS
 62
     6
 10
251.985210
 20
37.159108
 11
215.786052
 21
37.159108
  0
ARC
  8
CSLAYER1
  6
CONTINUOUS
 62
     6
 10
215.786052
 20
38.159108
 40
1.000000
 50
186.000012
 51
270.000001
  0
LINE
  8
CSLAYER1
  6
CONTINUOUS
 62
     6
 10
214.791545
 20
38.054554
 11
214.143535
 21
44.219838
  0
ARC
  8
CSLAYER1
  6
CONTINUOUS
 62
     6
 10
213.149028
 20
44.115284
 40
1.000000
 50
6.000021
 51
90.000009
  0
LINE
  8
CSLAYER1
  6
CONTINUOUS
 62
     6
 10
214.360087
 20
42.159108
 11
202.885631
 21
42.159108
  0
LINE
  8
CSLAYER1
  6
CONTINUOUS
 62
     6
 10
202.885631
 20
42.159108
 11
201.885631
 21
43.159108
  0
LINE
  8
CSLAYER1
  6
CONTINUOUS
 62
     6
 10
217.571635
 20
49.765919
 11
249.528728
 21
49.765919
  0
LINE
  8
CSLAYER1
  6
CONTINUOUS
 62
     6
 10
253.410625
 20
42.159108
 11
254.885661
 21
42.159108
  0
ARC
  8
CSLAYER1
  6
CONTINUOUS
 62
     6
 10
239.885661
 20
70.159123
 40
2.000000
 50
270.000000
 51
360.000000
  0
LINE
  8
CSLAYER1
  6
CONTINUOUS
 62
     6
 10
241.885661
 20
70.159123
 11
241.885661
 21
102.159123
  0
ARC
  8
CSLAYER1
  6
CONTINUOUS
 62
     6
 10
239.885661
 20
102.159123
 40
2.000000
 50
0.000000
 51
90.000000
  0
LINE
  8
CSLAYER1
  6
CONTINUOUS
 62
     6
 10
239.885661
 20
104.159123
 11
217.885661
 21
104.159123
  0
ARC
  8
CSLAYER1
  6
CONTINUOUS
 62
     6
 10
217.885661
 20
102.159123
 40
2.000000
 50
90.000000
 51
180.000000
  0
LINE
  8
CSLAYER1
  6
CONTINUOUS
 62
     6
 10
215.885661
 20
102.159123
 11
215.885661
 21
89.787483
  0
LINE
  8
CSLAYER1
  6
CONTINUOUS
 62
     6
 10
215.811222
 20
89.790227
 11
216.245655
 21
89.774210
  0
LINE
  8
CSLAYER1
  6
CONTINUOUS
 62
     6
 10
216.245655
 20
89.774210
 11
216.677777
 21
89.746001
  0
LINE
  8
CSLAYER1
  6
CONTINUOUS
 62
     6
 10
216.677777
 20
89.746001
 11
217.105695
 21
89.707117
  0
LINE
  8
CSLAYER1
  6
CONTINUOUS
 62
     6
 10
217.105695
 20
89.707117
 11
217.527514
 21
89.659070
  0
LINE
  8
CSLAYER1
  6
CONTINUOUS
 62
     6
 10
217.527514
 20
89.659070
 11
217.941342
 21
89.603377
  0
LINE
  8
CSLAYER1
  6
CONTINUOUS
 62
     6
 10
217.941342
 20
89.603377
 11
218.345283
 21
89.541550
  0
LINE
  8
CSLAYER1
  6
CONTINUOUS
 62
     6
 10
218.345283
 20
89.541550
 11
218.608661
 21
89.501026
  0
LINE
  8
CSLAYER1
  6
CONTINUOUS
 62
     6
 10
218.608661
 20
89.501026
 11
218.879047
 21
89.463104
  0
LINE
  8
CSLAYER1
  6
CONTINUOUS
 62
     6
 10
218.879047
 20
89.463104
 11
219.154873
 21
89.427504
  0
LINE
  8
CSLAYER1
  6
CONTINUOUS
 62
     6
 10
219.154873
 20
89.427504
 11
219.434572
 21
89.393946
  0
LINE
  8
CSLAYER1
  6
CONTINUOUS
 62
     6
 10
219.434572
 20
89.393946
 11
219.716574
 21
89.362150
  0
LINE
  8
CSLAYER1
  6
CONTINUOUS
 62
     6
 10
219.716574
 20
89.362150
 11
219.999312
 21
89.331836
  0
LINE
  8
CSLAYER1
  6
CONTINUOUS
 62
     6
 10
219.999312
 20
89.331836
 11
220.281218
 21
89.302725
  0
LINE
  8
CSLAYER1
  6
CONTINUOUS
 62
     6
 10
220.281218
 20
89.302725
 11
220.560722
 21
89.274535
  0
LINE
  8
CSLAYER1
  6
CONTINUOUS
 62
     6
 10
220.560722
 20
89.274535
 11
220.836257
 21
89.246989
  0
LINE
  8
CSLAYER1
  6
CONTINUOUS
 62
     6
 10
220.836257
 20
89.246989
 11
221.106255
 21
89.219805
  0
LINE
  8
CSLAYER1
  6
CONTINUOUS
 62
     6
 10
221.106255
 20
89.219805
 11
221.369147
 21
89.192703
  0
LINE
  8
CSLAYER1
  6
CONTINUOUS
 62
     6
 10
221.369147
 20
89.192703
 11
221.616635
 21
89.168391
  0
LINE
  8
CSLAYER1
  6
CONTINUOUS
 62
     6
 10
221.616635
 20
89.168391
 11
221.873893
 21
89.146122
  0
LINE
  8
CSLAYER1
  6
CONTINUOUS
 62
     6
 10
221.873893
 20
89.146122
 11
222.138365
 21
89.125803
  0
LINE
  8
CSLAYER1
  6
CONTINUOUS
 62
     6
 10
222.138365
 20
89.125803
 11
222.407496
 21
89.107342
  0
LINE
  8
CSLAYER1
  6
CONTINUOUS
 62
     6
 10
222.407496
 20
89.107342
 11
222.678732
 21
89.090647
  0
LINE
  8
CSLAYER1
  6
CONTINUOUS
 62
     6
 10
222.678732
 20
89.090647
 11
222.949518
 21
89.075628
  0
LINE
  8
CSLAYER1
  6
CONTINUOUS
 62
     6
 10
222.949518
 20
89.075628
 11
223.217299
 21
89.062190
  0
LINE
  8
CSLAYER1
  6
CONTINUOUS
 62
     6
 10
223.217299
 20
89.062190
 11
223.479521
 21
89.050243
  0
LINE
  8
CSLAYER1
  6
CONTINUOUS
 62
     6
 10
223.479521
 20
89.050243
 11
223.733628
 21
89.039695
  0
LINE
  8
CSLAYER1
  6
CONTINUOUS
 62
     6
 10
223.733628
 20
89.039695
 11
223.977066
 21
89.030454
  0
LINE
  8
CSLAYER1
  6
CONTINUOUS
 62
     6
 10
223.977066
 20
89.030454
 11
224.207280
 21
89.022427
  0
ARC
  8
CSLAYER1
  6
CONTINUOUS
 62
     6
 10
224.117409
 20
87.525142
 40
1.500000
 50
-93.433378
 51
86.566642
  0
LINE
  8
CSLAYER1
  6
CONTINUOUS
 62
     6
 10
224.027608
 20
86.027751
 11
223.791258
 21
86.035825
  0
LINE
  8
CSLAYER1
  6
CONTINUOUS
 62
     6
 10
223.791258
 20
86.035825
 11
223.540841
 21
86.045141
  0
LINE
  8
CSLAYER1
  6
CONTINUOUS
 62
     6
 10
223.540841
 20
86.045141
 11
223.279107
 21
86.055809
  0
LINE
  8
CSLAYER1
  6
CONTINUOUS
 62
     6
 10
223.279107
 20
86.055809
 11
223.008804
 21
86.067939
  0
LINE
  8
CSLAYER1
  6
CONTINUOUS
 62
     6
 10
223.008804
 20
86.067939
 11
222.732678
 21
86.081639
  0
LINE
  8
CSLAYER1
  6
CONTINUOUS
 62
     6
 10
222.732678
 20
86.081639
 11
222.453479
 21
86.097020
  0
LINE
  8
CSLAYER1
  6
CONTINUOUS
 62
     6
 10
222.453479
 20
86.097020
 11
222.173954
 21
86.114192
  0
LINE
  8
CSLAYER1
  6
CONTINUOUS
 62
     6
 10
222.173954
 20
86.114192
 11
221.896851
 21
86.133263
  0
LINE
  8
CSLAYER1
  6
CONTINUOUS
 62
     6
 10
221.896851
 20
86.133263
 11
221.624918
 21
86.154343
  0
LINE
  8
CSLAYER1
  6
CONTINUOUS
 62
     6
 10
221.624918
 20
86.154343
 11
221.360903
 21
86.177542
  0
LINE
  8
CSLAYER1
  6
CONTINUOUS
 62
     6
 10
221.360903
 20
86.177542
 11
221.107554
 21
86.202970
  0
LINE
  8
CSLAYER1
  6
CONTINUOUS
 62
     6
 10
221.107554
 20
86.202970
 11
220.851092
 21
86.229890
  0
LINE
  8
CSLAYER1
  6
CONTINUOUS
 62
     6
 10
220.851092
 20
86.229890
 11
220.586954
 21
86.256647
  0
LINE
  8
CSLAYER1
  6
CONTINUOUS
 62
     6
 10
220.586954
 20
86.256647
 11
220.316831
 21
86.283573
  0
LINE
  8
CSLAYER1
  6
CONTINUOUS
 62
     6
 10
220.316831
 20
86.283573
 11
220.042413
 21
86.311002
  0
LINE
  8
CSLAYER1
  6
CONTINUOUS
 62
     6
 10
220.042413
 20
86.311002
 11
219.765389
 21
86.339266
  0
LINE
  8
CSLAYER1
  6
CONTINUOUS
 62
     6
 10
219.765389
 20
86.339266
 11
219.487450
 21
86.368697
  0
LINE
  8
CSLAYER1
  6
CONTINUOUS
 62
     6
 10
219.487450
 20
86.368697
 11
219.210286
 21
86.399627
  0
LINE
  8
CSLAYER1
  6
CONTINUOUS
 62
     6
 10
219.210286
 20
86.399627
 11
218.935588
 21
86.432390
  0
LINE
  8
CSLAYER1
  6
CONTINUOUS
 62
     6
 10
218.935588
 20
86.432390
 11
218.665044
 21
86.467317
  0
LINE
  8
CSLAYER1
  6
CONTINUOUS
 62
     6
 10
218.665044
 20
86.467317
 11
218.400347
 21
86.504742
  0
LINE
  8
CSLAYER1
  6
CONTINUOUS
 62
     6
 10
218.400347
 20
86.504742
 11
218.143185
 21
86.544996
  0
LINE
  8
CSLAYER1
  6
CONTINUOUS
 62
     6
 10
218.143185
 20
86.544996
 11
217.797371
 21
86.599004
  0
LINE
  8
CSLAYER1
  6
CONTINUOUS
 62
     6
 10
217.797371
 20
86.599004
 11
217.442426
 21
86.647570
  0
LINE
  8
CSLAYER1
  6
CONTINUOUS
 62
     6
 10
217.442426
 20
86.647570
 11
217.080084
 21
86.689390
  0
LINE
  8
CSLAYER1
  6
CONTINUOUS
 62
     6
 10
217.080084
 20
86.689390
 11
216.712079
 21
86.723164
  0
LINE
  8
CSLAYER1
  6
CONTINUOUS
 62
     6
 10
216.712079
 20
86.723164
 11
216.340148
 21
86.747589
  0
LINE
  8
CSLAYER1
  6
CONTINUOUS
 62
     6
 10
216.340148
 20
86.747589
 11
215.966023
 21
86.761362
  0
LINE
  8
CSLAYER1
  6
CONTINUOUS
 62
     6
 10
215.966023
 20
86.761362
 11
215.591440
 21
86.763181
  0
LINE
  8
CSLAYER1
  6
CONTINUOUS
 62
     6
 10
215.591440
 20
86.763181
 11
215.218134
 21
86.751744
  0
LINE
  8
CSLAYER1
  6
CONTINUOUS
 62
     6
 10
215.218134
 20
86.751744
 11
214.847840
 21
86.725749
  0
LINE
  8
CSLAYER1
  6
CONTINUOUS
 62
     6
 10
214.847840
 20
86.725749
 11
214.482292
 21
86.683893
  0
LINE
  8
CSLAYER1
  6
CONTINUOUS
 62
     6
 10
214.482292
 20
86.683893
 11
214.123225
 21
86.624874
  0
LINE
  8
CSLAYER1
  6
CONTINUOUS
 62
     6
 10
214.123225
 20
86.624874
 11
213.902796
 21
86.578712
  0
LINE
  8
CSLAYER1
  6
CONTINUOUS
 62
     6
 10
213.902796
 20
86.578712
 11
213.683617
 21
86.525388
  0
LINE
  8
CSLAYER1
  6
CONTINUOUS
 62
     6
 10
213.683617
 20
86.525388
 11
213.465564
 21
86.465620
  0
LINE
  8
CSLAYER1
  6
CONTINUOUS
 62
     6
 10
213.465564
 20
86.465620
 11
213.248511
 21
86.400123
  0
LINE
  8
CSLAYER1
  6
CONTINUOUS
 62
     6
 10
213.248511
 20
86.400123
 11
213.032334
 21
86.329612
  0
LINE
  8
CSLAYER1
  6
CONTINUOUS
 62
     6
 10
213.032334
 20
86.329612
 11
212.816906
 21
86.254805
  0
LINE
  8
CSLAYER1
  6
CONTINUOUS
 62
     6
 10
212.816906
 20
86.254805
 11
212.602104
 21
86.176418
  0
LINE
  8
CSLAYER1
  6
CONTINUOUS
 62
     6
 10
212.602104
 20
86.176418
 11
212.387802
 21
86.095166
  0
LINE
  8
CSLAYER1
  6
CONTINUOUS
 62
     6
 10
212.387802
 20
86.095166
 11
212.173875
 21
86.011765
  0
LINE
  8
CSLAYER1
  6
CONTINUOUS
 62
     6
 10
212.173875
 20
86.011765
 11
211.960198
 21
85.926933
  0
LINE
  8
CSLAYER1
  6
CONTINUOUS
 62
     6
 10
211.960198
 20
85.926933
 11
211.746647
 21
85.841384
  0
ARC
  8
CSLAYER1
  6
CONTINUOUS
 62
     6
 10
210.278154
 20
86.146929
 40
1.499994
 50
-11.754089
 51
48.245911
  0
ARC
  8
CSLAYER1
  6
CONTINUOUS
 62
     6
 10
212.275951
 20
88.384950
 40
1.499994
 50
168.245911
 51
228.245911
  0
LINE
  8
CSLAYER1
  6
CONTINUOUS
 62
     6
 10
210.807358
 20
88.690552
 11
211.064562
 21
88.793954
  0
LINE
  8
CSLAYER1
  6
CONTINUOUS
 62
     6
 10
211.064562
 20
88.793954
 11
211.321920
 21
88.896476
  0
LINE
  8
CSLAYER1
  6
CONTINUOUS
 62
     6
 10
211.321920
 20
88.896476
 11
211.579589
 21
88.997239
  0
LINE
  8
CSLAYER1
  6
CONTINUOUS
 62
     6
 10
211.579589
 20
88.997239
 11
211.837722
 21
89.095363
  0
LINE
  8
CSLAYER1
  6
CONTINUOUS
 62
     6
 10
211.837722
 20
89.095363
 11
212.096475
 21
89.189968
  0
LINE
  8
CSLAYER1
  6
CONTINUOUS
 62
     6
 10
212.096475
 20
89.189968
 11
212.356002
 21
89.280174
  0
LINE
  8
CSLAYER1
  6
CONTINUOUS
 62
     6
 10
212.356002
 20
89.280174
 11
212.616459
 21
89.365102
  0
LINE
  8
CSLAYER1
  6
CONTINUOUS
 62
     6
 10
212.616459
 20
89.365102
 11
212.878000
 21
89.443871
  0
LINE
  8
CSLAYER1
  6
CONTINUOUS
 62
     6
 10
212.878000
 20
89.443871
 11
213.140781
 21
89.515603
  0
LINE
  8
CSLAYER1
  6
CONTINUOUS
 62
     6
 10
213.140781
 20
89.515603
 11
213.404955
 21
89.579417
  0
LINE
  8
CSLAYER1
  6
CONTINUOUS
 62
     6
 10
213.404955
 20
89.579417
 11
213.670679
 21
89.634434
  0
LINE
  8
CSLAYER1
  6
CONTINUOUS
 62
     6
 10
213.670679
 20
89.634434
 11
214.088259
 21
89.702092
  0
LINE
  8
CSLAYER1
  6
CONTINUOUS
 62
     6
 10
214.088259
 20
89.702092
 11
214.512997
 21
89.749986
  0
LINE
  8
CSLAYER1
  6
CONTINUOUS
 62
     6
 10
214.512997
 20
89.749986
 11
214.943000
 21
89.779630
  0
LINE
  8
CSLAYER1
  6
CONTINUOUS
 62
     6
 10
214.943000
 20
89.779630
 11
215.376373
 21
89.792539
  0
LINE
  8
CSLAYER1
  6
CONTINUOUS
 62
     6
 10
215.376373
 20
89.792539
 11
215.811222
 21
89.790227
  0
ARC
  8
CSLAYER1
  6
CONTINUOUS
 62
     6
 10
222.885640
 20
86.159085
 40
6.750000
 50
-154.073524
 51
148.329015
  0
LINE
  8
CSLAYER1
  6
CONTINUOUS
 62
     6
 10
216.789470
 20
83.204506
 11
216.590926
 21
83.174957
  0
LINE
  8
CSLAYER1
  6
CONTINUOUS
 62
     6
 10
216.590926
 20
83.174957
 11
216.397814
 21
83.143190
  0
LINE
  8
CSLAYER1
  6
CONTINUOUS
 62
     6
 10
216.397814
 20
83.143190
 11
216.211560
 21
83.109844
  0
LINE
  8
CSLAYER1
  6
CONTINUOUS
 62
     6
 10
216.211560
 20
83.109844
 11
216.050029
 21
83.076469
  0
LINE
  8
CSLAYER1
  6
CONTINUOUS
 62
     6
 10
216.050029
 20
83.076469
 11
215.885809
 21
83.036150
  0
LINE
  8
CSLAYER1
  6
CONTINUOUS
 62
     6
 10
215.885809
 20
83.036150
 11
215.719619
 21
82.989342
  0
LINE
  8
CSLAYER1
  6
CONTINUOUS
 62
     6
 10
215.719619
 20
82.989342
 11
215.552177
 21
82.936495
  0
LINE
  8
CSLAYER1
  6
CONTINUOUS
 62
     6
 10
215.552177
 20
82.936495
 11
215.384201
 21
82.878062
  0
LINE
  8
CSLAYER1
  6
CONTINUOUS
 62
     6
 10
215.384201
 20
82.878062
 11
215.216409
 21
82.814495
  0
LINE
  8
CSLAYER1
  6
CONTINUOUS
 62
     6
 10
215.216409
 20
82.814495
 11
215.049519
 21
82.746246
  0
LINE
  8
CSLAYER1
  6
CONTINUOUS
 62
     6
 10
215.049519
 20
82.746246
 11
214.884250
 21
82.673767
  0
LINE
  8
CSLAYER1
  6
CONTINUOUS
 62
     6
 10
214.884250
 20
82.673767
 11
214.721321
 21
82.597510
  0
LINE
  8
CSLAYER1
  6
CONTINUOUS
 62
     6
 10
214.721321
 20
82.597510
 11
214.561448
 21
82.517929
  0
LINE
  8
CSLAYER1
  6
CONTINUOUS
 62
     6
 10
214.561448
 20
82.517929
 11
214.405351
 21
82.435474
  0
LINE
  8
CSLAYER1
  6
CONTINUOUS
 62
     6
 10
214.405351
 20
82.435474
 11
214.276646
 21
82.363681
  0
LINE
  8
CSLAYER1
  6
CONTINUOUS
 62
     6
 10
214.276646
 20
82.363681
 11
214.149457
 21
82.289351
  0
LINE
  8
CSLAYER1
  6
CONTINUOUS
 62
     6
 10
214.149457
 20
82.289351
 11
214.023631
 21
82.212737
  0
LINE
  8
CSLAYER1
  6
CONTINUOUS
 62
     6
 10
214.023631
 20
82.212737
 11
213.899018
 21
82.134094
  0
LINE
  8
CSLAYER1
  6
CONTINUOUS
 62
     6
 10
213.899018
 20
82.134094
 11
213.775466
 21
82.053674
  0
LINE
  8
CSLAYER1
  6
CONTINUOUS
 62
     6
 10
213.775466
 20
82.053674
 11
213.652823
 21
81.971731
  0
LINE
  8
CSLAYER1
  6
CONTINUOUS
 62
     6
 10
213.652823
 20
81.971731
 11
213.530937
 21
81.888520
  0
LINE
  8
CSLAYER1
  6
CONTINUOUS
 62
     6
 10
213.530937
 20
81.888520
 11
213.409658
 21
81.804294
  0
LINE
  8
CSLAYER1
  6
CONTINUOUS
 62
     6
 10
213.409658
 20
81.804294
 11
213.288833
 21
81.719307
  0
LINE
  8
CSLAYER1
  6
CONTINUOUS
 62
     6
 10
213.288833
 20
81.719307
 11
213.168312
 21
81.633812
  0
LINE
  8
CSLAYER1
  6
CONTINUOUS
 62
     6
 10
213.168312
 20
81.633812
 11
213.047942
 21
81.548063
  0
ARC
  8
CSLAYER1
  6
CONTINUOUS
 62
     6
 10
211.550280
 20
81.464847
 40
1.500006
 50
3.178280
 51
63.178280
  0
ARC
  8
CSLAYER1
  6
CONTINUOUS
 62
     6
 10
213.724805
 20
82.886639
 40
1.500006
 50
183.178280
 51
243.178280
  0
ARC
  8
CSLAYER1
  6
CONTINUOUS
 62
     6
 10
212.903933
 20
84.142101
 40
1.500006
 50
183.178280
 51
243.178280
  0
LINE
  8
CSLAYER1
  6
CONTINUOUS
 62
     6
 10
211.406200
 20
84.058991
 11
211.551626
 21
84.161930
  0
LINE
  8
CSLAYER1
  6
CONTINUOUS
 62
     6
 10
211.551626
 20
84.161930
 11
211.697221
 21
84.264587
  0
LINE
  8
CSLAYER1
  6
CONTINUOUS
 62
     6
 10
211.697221
 20
84.264587
 11
211.843154
 21
84.366678
  0
LINE
  8
CSLAYER1
  6
CONTINUOUS
 62
     6
 10
211.843154
 20
84.366678
 11
211.989594
 21
84.467921
  0
LINE
  8
CSLAYER1
  6
CONTINUOUS
 62
     6
 10
211.989594
 20
84.467921
 11
212.136709
 21
84.568034
  0
LINE
  8
CSLAYER1
  6
CONTINUOUS
 62
     6
 10
212.136709
 20
84.568034
 11
212.284669
 21
84.666734
  0
LINE
  8
CSLAYER1
  6
CONTINUOUS
 62
     6
 10
212.284669
 20
84.666734
 11
212.433642
 21
84.763737
  0
LINE
  8
CSLAYER1
  6
CONTINUOUS
 62
     6
 10
212.433642
 20
84.763737
 11
212.583798
 21
84.858763
  0
LINE
  8
CSLAYER1
  6
CONTINUOUS
 62
     6
 10
212.583798
 20
84.858763
 11
212.735304
 21
84.951527
  0
LINE
  8
CSLAYER1
  6
CONTINUOUS
 62
     6
 10
212.735304
 20
84.951527
 11
212.888331
 21
85.041748
  0
LINE
  8
CSLAYER1
  6
CONTINUOUS
 62
     6
 10
212.888331
 20
85.041748
 11
213.043047
 21
85.129143
  0
LINE
  8
CSLAYER1
  6
CONTINUOUS
 62
     6
 10
213.043047
 20
85.129143
 11
213.259538
 21
85.244974
  0
LINE
  8
CSLAYER1
  6
CONTINUOUS
 62
     6
 10
213.259538
 20
85.244974
 11
213.481533
 21
85.356514
  0
LINE
  8
CSLAYER1
  6
CONTINUOUS
 62
     6
 10
213.481533
 20
85.356514
 11
213.707992
 21
85.463157
  0
LINE
  8
CSLAYER1
  6
CONTINUOUS
 62
     6
 10
213.707992
 20
85.463157
 11
213.937872
 21
85.564294
  0
LINE
  8
CSLAYER1
  6
CONTINUOUS
 62
     6
 10
213.937872
 20
85.564294
 11
214.170132
 21
85.659319
  0
LINE
  8
CSLAYER1
  6
CONTINUOUS
 62
     6
 10
214.170132
 20
85.659319
 11
214.403731
 21
85.747624
  0
LINE
  8
CSLAYER1
  6
CONTINUOUS
 62
     6
 10
214.403731
 20
85.747624
 11
214.637627
 21
85.828603
  0
LINE
  8
CSLAYER1
  6
CONTINUOUS
 62
     6
 10
214.637627
 20
85.828603
 11
214.870779
 21
85.901648
  0
LINE
  8
CSLAYER1
  6
CONTINUOUS
 62
     6
 10
214.870779
 20
85.901648
 11
215.102146
 21
85.966152
  0
LINE
  8
CSLAYER1
  6
CONTINUOUS
 62
     6
 10
215.102146
 20
85.966152
 11
215.330685
 21
86.021509
  0
LINE
  8
CSLAYER1
  6
CONTINUOUS
 62
     6
 10
215.330685
 20
86.021509
 11
215.555356
 21
86.067111
  0
LINE
  8
CSLAYER1
  6
CONTINUOUS
 62
     6
 10
215.555356
 20
86.067111
 11
215.799599
 21
86.110116
  0
LINE
  8
CSLAYER1
  6
CONTINUOUS
 62
     6
 10
215.799599
 20
86.110116
 11
216.052644
 21
86.151351
  0
LINE
  8
CSLAYER1
  6
CONTINUOUS
 62
     6
 10
216.052644
 20
86.151351
 11
216.312704
 21
86.189927
  0
LINE
  8
CSLAYER1
  6
CONTINUOUS
 62
     6
 10
216.312704
 20
86.189927
 11
216.577993
 21
86.224952
  0
LINE
  8
CSLAYER1
  6
CONTINUOUS
 62
     6
 10
216.577993
 20
86.224952
 11
216.846721
 21
86.255536
  0
LINE
  8
CSLAYER1
  6
CONTINUOUS
 62
     6
 10
216.846721
 20
86.255536
 11
217.117101
 21
86.280789
  0
LINE
  8
CSLAYER1
  6
CONTINUOUS
 62
     6
 10
217.117101
 20
86.280789
 11
217.387346
 21
86.299820
  0
LINE
  8
CSLAYER1
  6
CONTINUOUS
 62
     6
 10
217.387346
 20
86.299820
 11
217.655668
 21
86.311739
  0
LINE
  8
CSLAYER1
  6
CONTINUOUS
 62
     6
 10
217.655668
 20
86.311739
 11
217.920280
 21
86.315656
  0
LINE
  8
CSLAYER1
  6
CONTINUOUS
 62
     6
 10
217.920280
 20
86.315656
 11
218.179393
 21
86.310679
  0
LINE
  8
CSLAYER1
  6
CONTINUOUS
 62
     6
 10
218.179393
 20
86.310679
 11
218.431221
 21
86.295919
  0
LINE
  8
CSLAYER1
  6
CONTINUOUS
 62
     6
 10
218.431221
 20
86.295919
 11
218.620366
 21
86.280647
  0
LINE
  8
CSLAYER1
  6
CONTINUOUS
 62
     6
 10
218.620366
 20
86.280647
 11
218.814106
 21
86.264821
  0
LINE
  8
CSLAYER1
  6
CONTINUOUS
 62
     6
 10
218.814106
 20
86.264821
 11
219.011408
 21
86.248354
  0
LINE
  8
CSLAYER1
  6
CONTINUOUS
 62
     6
 10
219.011408
 20
86.248354
 11
219.211237
 21
86.231153
  0
LINE
  8
CSLAYER1
  6
CONTINUOUS
 62
     6
 10
219.211237
 20
86.231153
 11
219.412558
 21
86.213129
  0
LINE
  8
CSLAYER1
  6
CONTINUOUS
 62
     6
 10
219.412558
 20
86.213129
 11
219.614336
 21
86.194192
  0
LINE
  8
CSLAYER1
  6
CONTINUOUS
 62
     6
 10
219.614336
 20
86.194192
 11
219.815538
 21
86.174252
  0
LINE
  8
CSLAYER1
  6
CONTINUOUS
 62
     6
 10
219.815538
 20
86.174252
 11
220.015128
 21
86.153219
  0
LINE
  8
CSLAYER1
  6
CONTINUOUS
 62
     6
 10
220.015128
 20
86.153219
 11
220.212072
 21
86.131002
  0
LINE
  8
CSLAYER1
  6
CONTINUOUS
 62
     6
 10
220.212072
 20
86.131002
 11
220.405336
 21
86.107511
  0
LINE
  8
CSLAYER1
  6
CONTINUOUS
 62
     6
 10
220.405336
 20
86.107511
 11
220.593885
 21
86.082657
  0
LINE
  8
CSLAYER1
  6
CONTINUOUS
 62
     6
 10
220.593885
 20
86.082657
 11
220.742505
 21
86.063006
  0
LINE
  8
CSLAYER1
  6
CONTINUOUS
 62
     6
 10
220.742505
 20
86.063006
 11
220.895223
 21
86.044390
  0
LINE
  8
CSLAYER1
  6
CONTINUOUS
 62
     6
 10
220.895223
 20
86.044390
 11
221.051097
 21
86.026953
  0
LINE
  8
CSLAYER1
  6
CONTINUOUS
 62
     6
 10
221.051097
 20
86.026953
 11
221.209185
 21
86.010841
  0
LINE
  8
CSLAYER1
  6
CONTINUOUS
 62
     6
 10
221.209185
 20
86.010841
 11
221.368547
 21
85.996199
  0
LINE
  8
CSLAYER1
  6
CONTINUOUS
 62
     6
 10
221.368547
 20
85.996199
 11
221.528242
 21
85.983171
  0
LINE
  8
CSLAYER1
  6
CONTINUOUS
 62
     6
 10
221.528242
 20
85.983171
 11
221.687328
 21
85.971903
  0
LINE
  8
CSLAYER1
  6
CONTINUOUS
 62
     6
 10
221.687328
 20
85.971903
 11
221.844864
 21
85.962540
  0
LINE
  8
CSLAYER1
  6
CONTINUOUS
 62
     6
 10
221.844864
 20
85.962540
 11
221.999910
 21
85.955227
  0
LINE
  8
CSLAYER1
  6
CONTINUOUS
 62
     6
 10
221.999910
 20
85.955227
 11
222.151523
 21
85.950109
  0
LINE
  8
CSLAYER1
  6
CONTINUOUS
 62
     6
 10
222.151523
 20
85.950109
 11
222.298764
 21
85.947331
  0
LINE
  8
CSLAYER1
  6
CONTINUOUS
 62
     6
 10
222.298764
 20
85.947331
 11
222.442738
 21
85.946738
  0
LINE
  8
CSLAYER1
  6
CONTINUOUS
 62
     6
 10
222.442738
 20
85.946738
 11
222.592723
 21
85.947934
  0
LINE
  8
CSLAYER1
  6
CONTINUOUS
 62
     6
 10
222.592723
 20
85.947934
 11
222.747165
 21
85.950840
  0
LINE
  8
CSLAYER1
  6
CONTINUOUS
 62
     6
 10
222.747165
 20
85.950840
 11
222.904506
 21
85.955376
  0
LINE
  8
CSLAYER1
  6
CONTINUOUS
 62
     6
 10
222.904506
 20
85.955376
 11
223.063192
 21
85.961463
  0
LINE
  8
CSLAYER1
  6
CONTINUOUS
 62
     6
 10
223.063192
 20
85.961463
 11
223.221667
 21
85.969021
  0
LINE
  8
CSLAYER1
  6
CONTINUOUS
 62
     6
 10
223.221667
 20
85.969021
 11
223.378376
 21
85.977970
  0
LINE
  8
CSLAYER1
  6
CONTINUOUS
 62
     6
 10
223.378376
 20
85.977970
 11
223.531763
 21
85.988230
  0
LINE
  8
CSLAYER1
  6
CONTINUOUS
 62
     6
 10
223.531763
 20
85.988230
 11
223.680273
 21
85.999724
  0
LINE
  8
CSLAYER1
  6
CONTINUOUS
 62
     6
 10
223.680273
 20
85.999724
 11
223.822350
 21
86.012369
  0
LINE
  8
CSLAYER1
  6
CONTINUOUS
 62
     6
 10
223.822350
 20
86.012369
 11
223.956439
 21
86.026088
  0
ARC
  8
CSLAYER1
  6
CONTINUOUS
 62
     6
 10
224.063157
 20
84.528665
 40
1.500000
 50
-88.640300
 51
91.359720
  0
LINE
  8
CSLAYER1
  6
CONTINUOUS
 62
     6
 10
224.098778
 20
83.029473
 11
223.949098
 21
83.014235
  0
LINE
  8
CSLAYER1
  6
CONTINUOUS
 62
     6
 10
223.949098
 20
83.014235
 11
223.790377
 21
83.000201
  0
LINE
  8
CSLAYER1
  6
CONTINUOUS
 62
     6
 10
223.790377
 20
83.000201
 11
223.624409
 21
82.987453
  0
LINE
  8
CSLAYER1
  6
CONTINUOUS
 62
     6
 10
223.624409
 20
82.987453
 11
223.452986
 21
82.976075
  0
LINE
  8
CSLAYER1
  6
CONTINUOUS
 62
     6
 10
223.452986
 20
82.976075
 11
223.277903
 21
82.966149
  0
LINE
  8
CSLAYER1
  6
CONTINUOUS
 62
     6
 10
223.277903
 20
82.966149
 11
223.100952
 21
82.957759
  0
LINE
  8
CSLAYER1
  6
CONTINUOUS
 62
     6
 10
223.100952
 20
82.957759
 11
222.923927
 21
82.950987
  0
LINE
  8
CSLAYER1
  6
CONTINUOUS
 62
     6
 10
222.923927
 20
82.950987
 11
222.748622
 21
82.945917
  0
LINE
  8
CSLAYER1
  6
CONTINUOUS
 62
     6
 10
222.748622
 20
82.945917
 11
222.576830
 21
82.942632
  0
LINE
  8
CSLAYER1
  6
CONTINUOUS
 62
     6
 10
222.576830
 20
82.942632
 11
222.410343
 21
82.941215
  0
LINE
  8
CSLAYER1
  6
CONTINUOUS
 62
     6
 10
222.410343
 20
82.941215
 11
222.250956
 21
82.941748
  0
LINE
  8
CSLAYER1
  6
CONTINUOUS
 62
     6
 10
222.250956
 20
82.941748
 11
222.085810
 21
82.944683
  0
LINE
  8
CSLAYER1
  6
CONTINUOUS
 62
     6
 10
222.085810
 20
82.944683
 11
221.915004
 21
82.950198
  0
LINE
  8
CSLAYER1
  6
CONTINUOUS
 62
     6
 10
221.915004
 20
82.950198
 11
221.739780
 21
82.958161
  0
LINE
  8
CSLAYER1
  6
CONTINUOUS
 62
     6
 10
221.739780
 20
82.958161
 11
221.561376
 21
82.968443
  0
LINE
  8
CSLAYER1
  6
CONTINUOUS
 62
     6
 10
221.561376
 20
82.968443
 11
221.381033
 21
82.980913
  0
LINE
  8
CSLAYER1
  6
CONTINUOUS
 62
     6
 10
221.381033
 20
82.980913
 11
221.199990
 21
82.995441
  0
LINE
  8
CSLAYER1
  6
CONTINUOUS
 62
     6
 10
221.199990
 20
82.995441
 11
221.019489
 21
83.011896
  0
LINE
  8
CSLAYER1
  6
CONTINUOUS
 62
     6
 10
221.019489
 20
83.011896
 11
220.840767
 21
83.030149
  0
LINE
  8
CSLAYER1
  6
CONTINUOUS
 62
     6
 10
220.840767
 20
83.030149
 11
220.665067
 21
83.050068
  0
LINE
  8
CSLAYER1
  6
CONTINUOUS
 62
     6
 10
220.665067
 20
83.050068
 11
220.493627
 21
83.071524
  0
LINE
  8
CSLAYER1
  6
CONTINUOUS
 62
     6
 10
220.493627
 20
83.071524
 11
220.327688
 21
83.094387
  0
LINE
  8
CSLAYER1
  6
CONTINUOUS
 62
     6
 10
220.327688
 20
83.094387
 11
220.161604
 21
83.117193
  0
LINE
  8
CSLAYER1
  6
CONTINUOUS
 62
     6
 10
220.161604
 20
83.117193
 11
219.990474
 21
83.138528
  0
LINE
  8
CSLAYER1
  6
CONTINUOUS
 62
     6
 10
219.990474
 20
83.138528
 11
219.815385
 21
83.158511
  0
LINE
  8
CSLAYER1
  6
CONTINUOUS
 62
     6
 10
219.815385
 20
83.158511
 11
219.637425
 21
83.177263
  0
LINE
  8
CSLAYER1
  6
CONTINUOUS
 62
     6
 10
219.637425
 20
83.177263
 11
219.457683
 21
83.194902
  0
LINE
  8
CSLAYER1
  6
CONTINUOUS
 62
     6
 10
219.457683
 20
83.194902
 11
219.277245
 21
83.211551
  0
LINE
  8
CSLAYER1
  6
CONTINUOUS
 62
     6
 10
219.277245
 20
83.211551
 11
219.097199
 21
83.227328
  0
LINE
  8
CSLAYER1
  6
CONTINUOUS
 62
     6
 10
219.097199
 20
83.227328
 11
218.918634
 21
83.242353
  0
LINE
  8
CSLAYER1
  6
CONTINUOUS
 62
     6
 10
218.918634
 20
83.242353
 11
218.742637
 21
83.256748
  0
LINE
  8
CSLAYER1
  6
CONTINUOUS
 62
     6
 10
218.742637
 20
83.256748
 11
218.570296
 21
83.270631
  0
LINE
  8
CSLAYER1
  6
CONTINUOUS
 62
     6
 10
218.570296
 20
83.270631
 11
218.402698
 21
83.284124
  0
LINE
  8
CSLAYER1
  6
CONTINUOUS
 62
     6
 10
218.402698
 20
83.284124
 11
218.211907
 21
83.295394
  0
LINE
  8
CSLAYER1
  6
CONTINUOUS
 62
     6
 10
218.211907
 20
83.295394
 11
218.015167
 21
83.299318
  0
LINE
  8
CSLAYER1
  6
CONTINUOUS
 62
     6
 10
218.015167
 20
83.299318
 11
217.813900
 21
83.296539
  0
LINE
  8
CSLAYER1
  6
CONTINUOUS
 62
     6
 10
217.813900
 20
83.296539
 11
217.609530
 21
83.287696
  0
LINE
  8
CSLAYER1
  6
CONTINUOUS
 62
     6
 10
217.609530
 20
83.287696
 11
217.403479
 21
83.273431
  0
LINE
  8
CSLAYER1
  6
CONTINUOUS
 62
     6
 10
217.403479
 20
83.273431
 11
217.197170
 21
83.254383
  0
LINE
  8
CSLAYER1
  6
CONTINUOUS
 62
     6
 10
217.197170
 20
83.254383
 11
216.992026
 21
83.231195
  0
LINE
  8
CSLAYER1
  6
CONTINUOUS
 62
     6
 10
216.992026
 20
83.231195
 11
216.789470
 21
83.204506
  0
LINE
  8
CSLAYER1
  6
CONTINUOUS
 62
     6
 10
215.885661
 20
83.036150
 11
215.885661
 21
70.159123
  0
ARC
  8
CSLAYER1
  6
CONTINUOUS
 62
     6
 10
217.885661
 20
70.159123
 40
2.000000
 50
180.000000
 51
270.000000
  0
LINE
  8
CSLAYER1
  6
CONTINUOUS
 62
     6
 10
217.885661
 20
68.159123
 11
239.885661
 21
68.159123
  0
ARC
  8
CSLAYER1
  6
CONTINUOUS
 62
     6
 10
228.885658
 20
71.159111
 40
1.527778
 50
-16.601572
 51
16.601562
  0
LINE
  8
CSLAYER1
  6
CONTINUOUS
 62
     6
 10
230.349743
 20
71.595624
 11
229.758684
 21
71.595624
  0
ARC
  8
CSLAYER1
  6
CONTINUOUS
 62
     6
 10
229.758684
 20
72.032115
 40
0.436508
 50
180.057309
 51
269.999999
  0
LINE
  8
CSLAYER1
  6
CONTINUOUS
 62
     6
 10
229.322171
 20
72.032115
 11
229.322171
 21
72.623219
  0
ARC
  8
CSLAYER1
  6
CONTINUOUS
 62
     6
 10
228.885658
 20
71.159111
 40
1.527778
 50
73.398417
 51
106.601578
  0
LINE
  8
CSLAYER1
  6
CONTINUOUS
 62
     6
 10
228.449144
 20
72.623219
 11
228.449144
 21
72.032115
  0
ARC
  8
CSLAYER1
  6
CONTINUOUS
 62
     6
 10
228.012631
 20
72.032115
 40
0.436508
 50
270.057346
 51
359.999995
  0
LINE
  8
CSLAYER1
  6
CONTINUOUS
 62
     6
 10
228.012631
 20
71.595624
 11
227.421572
 21
71.595624
  0
ARC
  8
CSLAYER1
  6
CONTINUOUS
 62
     6
 10
228.885658
 20
71.159111
 40
1.527778
 50
163.398423
 51
196.601584
  0
LINE
  8
CSLAYER1
  6
CONTINUOUS
 62
     6
 10
227.421572
 20
70.722597
 11
228.012631
 21
70.722597
  0
ARC
  8
CSLAYER1
  6
CONTINUOUS
 62
     6
 10
228.012631
 20
70.286107
 40
0.436508
 50
-0.000005
 51
89.999984
  0
LINE
  8
CSLAYER1
  6
CONTINUOUS
 62
     6
 10
228.449144
 20
70.286107
 11
228.449144
 21
69.695003
  0
ARC
  8
CSLAYER1
  6
CONTINUOUS
 62
     6
 10
228.885658
 20
71.159111
 40
1.527778
 50
253.398405
 51
286.601594
  0
LINE
  8
CSLAYER1
  6
CONTINUOUS
 62
     6
 10
229.322171
 20
69.695003
 11
229.322171
 21
70.286107
  0
ARC
  8
CSLAYER1
  6
CONTINUOUS
 62
     6
 10
229.758684
 20
70.286107
 40
0.436508
 50
89.999984
 51
179.999990
  0
LINE
  8
CSLAYER1
  6
CONTINUOUS
 62
     6
 10
229.758684
 20
70.722597
 11
230.349743
 21
70.722597
  0
CIRCLE
  8
CSLAYER1
  6
CONTINUOUS
 62
     6
 10
228.885668
 20
71.159111
 40
2.750000
  0
ARC
  8
CSLAYER1
  6
CONTINUOUS
 62
     6
 10
222.885640
 20
86.159085
 40
4.000000
 50
-129.735526
 51
128.465835
  0
ARC
  8
CSLAYER1
  6
CONTINUOUS
 62
     6
 10
222.885640
 20
86.159085
 40
4.000000
 50
176.007555
 51
178.572301
  0
ARC
  8
CSLAYER1
  6
CONTINUOUS
 62
     6
 10
222.885640
 20
86.159085
 40
6.750000
 50
174.942367
 51
179.961149
  0
LINE
  8
CSLAYER1
  6
CONTINUOUS
 62
     6
 10
215.885690
 20
86.760418
 11
215.885633
 21
86.159065
  0
LINE
  8
CSLAYER1
  6
CONTINUOUS
 62
     6
 10
215.885661
 20
86.124140
 11
215.885661
 21
86.761752
  0
ARC
  8
CSLAYER1
  6
CONTINUOUS
 62
     6
 10
212.745593
 20
86.960373
 40
1.499994
 50
168.245911
 51
228.245911
  0
ARC
  8
CSLAYER1
  6
CONTINUOUS
 62
     6
 10
209.574637
 20
87.390124
 40
1.499998
 50
182.735346
 51
242.735346
  0
ARC
  8
CSLAYER1
  6
CONTINUOUS
 62
     6
 10
207.389197
 20
85.985192
 40
1.499998
 50
2.735346
 51
62.735346
  0
ARC
  8
CSLAYER1
  6
CONTINUOUS
 62
     6
 10
208.200335
 20
84.723428
 40
1.499998
 50
2.735346
 51
62.735346
  0
LINE
  8
CSLAYER1
  6
CONTINUOUS
 62
     6
 10
209.698573
 20
84.794960
 11
209.572439
 21
84.733695
  0
LINE
  8
CSLAYER1
  6
CONTINUOUS
 62
     6
 10
209.572439
 20
84.733695
 11
209.441483
 21
84.664415
  0
LINE
  8
CSLAYER1
  6
CONTINUOUS
 62
     6
 10
209.441483
 20
84.664415
 11
209.306952
 21
84.588240
  0
LINE
  8
CSLAYER1
  6
CONTINUOUS
 62
     6
 10
209.306952
 20
84.588240
 11
209.170093
 21
84.506288
  0
LINE
  8
CSLAYER1
  6
CONTINUOUS
 62
     6
 10
209.170093
 20
84.506288
 11
209.032152
 21
84.419677
  0
LINE
  8
CSLAYER1
  6
CONTINUOUS
 62
     6
 10
209.032152
 20
84.419677
 11
208.894376
 21
84.329527
  0
LINE
  8
CSLAYER1
  6
CONTINUOUS
 62
     6
 10
208.894376
 20
84.329527
 11
208.758013
 21
84.236957
  0
LINE
  8
CSLAYER1
  6
CONTINUOUS
 62
     6
 10
208.758013
 20
84.236957
 11
208.624308
 21
84.143084
  0
LINE
  8
CSLAYER1
  6
CONTINUOUS
 62
     6
 10
208.624308
 20
84.143084
 11
208.494508
 21
84.049028
  0
LINE
  8
CSLAYER1
  6
CONTINUOUS
 62
     6
 10
208.494508
 20
84.049028
 11
208.369861
 21
83.955907
  0
LINE
  8
CSLAYER1
  6
CONTINUOUS
 62
     6
 10
208.369861
 20
83.955907
 11
208.251612
 21
83.864840
  0
LINE
  8
CSLAYER1
  6
CONTINUOUS
 62
     6
 10
208.251612
 20
83.864840
 11
208.159430
 21
83.789688
  0
LINE
  8
CSLAYER1
  6
CONTINUOUS
 62
     6
 10
208.159430
 20
83.789688
 11
208.068020
 21
83.709289
  0
LINE
  8
CSLAYER1
  6
CONTINUOUS
 62
     6
 10
208.068020
 20
83.709289
 11
207.977605
 21
83.624185
  0
LINE
  8
CSLAYER1
  6
CONTINUOUS
 62
     6
 10
207.977605
 20
83.624185
 11
207.888408
 21
83.534918
  0
LINE
  8
CSLAYER1
  6
CONTINUOUS
 62
     6
 10
207.888408
 20
83.534918
 11
207.800651
 21
83.442027
  0
LINE
  8
CSLAYER1
  6
CONTINUOUS
 62
     6
 10
207.800651
 20
83.442027
 11
207.714560
 21
83.346055
  0
LINE
  8
CSLAYER1
  6
CONTINUOUS
 62
     6
 10
207.714560
 20
83.346055
 11
207.630356
 21
83.247543
  0
LINE
  8
CSLAYER1
  6
CONTINUOUS
 62
     6
 10
207.630356
 20
83.247543
 11
207.548263
 21
83.147031
  0
LINE
  8
CSLAYER1
  6
CONTINUOUS
 62
     6
 10
207.548263
 20
83.147031
 11
207.468504
 21
83.045062
  0
LINE
  8
CSLAYER1
  6
CONTINUOUS
 62
     6
 10
207.468504
 20
83.045062
 11
207.391302
 21
82.942176
  0
LINE
  8
CSLAYER1
  6
CONTINUOUS
 62
     6
 10
207.391302
 20
82.942176
 11
207.316881
 21
82.838914
  0
LINE
  8
CSLAYER1
  6
CONTINUOUS
 62
     6
 10
207.316881
 20
82.838914
 11
207.223214
 21
82.702568
  0
LINE
  8
CSLAYER1
  6
CONTINUOUS
 62
     6
 10
207.223214
 20
82.702568
 11
207.133038
 21
82.564111
  0
LINE
  8
CSLAYER1
  6
CONTINUOUS
 62
     6
 10
207.133038
 20
82.564111
 11
207.046003
 21
82.423754
  0
LINE
  8
CSLAYER1
  6
CONTINUOUS
 62
     6
 10
207.046003
 20
82.423754
 11
206.961760
 21
82.281708
  0
LINE
  8
CSLAYER1
  6
CONTINUOUS
 62
     6
 10
206.961760
 20
82.281708
 11
206.879961
 21
82.138184
  0
LINE
  8
CSLAYER1
  6
CONTINUOUS
 62
     6
 10
206.879961
 20
82.138184
 11
206.800256
 21
81.993394
  0
LINE
  8
CSLAYER1
  6
CONTINUOUS
 62
     6
 10
206.800256
 20
81.993394
 11
206.722296
 21
81.847548
  0
LINE
  8
CSLAYER1
  6
CONTINUOUS
 62
     6
 10
206.722296
 20
81.847548
 11
206.645732
 21
81.700857
  0
LINE
  8
CSLAYER1
  6
CONTINUOUS
 62
     6
 10
206.645732
 20
81.700857
 11
206.570216
 21
81.553533
  0
LINE
  8
CSLAYER1
  6
CONTINUOUS
 62
     6
 10
206.570216
 20
81.553533
 11
206.495398
 21
81.405787
  0
LINE
  8
CSLAYER1
  6
CONTINUOUS
 62
     6
 10
206.495398
 20
81.405787
 11
206.420928
 21
81.257829
  0
ARC
  8
CSLAYER1
  6
CONTINUOUS
 62
     6
 10
206.408857
 20
82.757824
 40
1.499998
 50
210.461270
 51
270.461270
  0
ARC
  8
CSLAYER1
  6
CONTINUOUS
 62
     6
 10
205.127977
 20
80.497442
 40
1.499998
 50
30.461270
 51
90.461270
  0
LINE
  8
CSLAYER1
  6
CONTINUOUS
 62
     6
 10
205.547722
 20
81.594293
 11
204.655258
 21
78.312225
  0
LINE
  8
CSLAYER1
  6
CONTINUOUS
 62
     6
 10
203.791569
 20
78.600110
 11
204.885587
 21
81.795862
  0
ARC
  8
CSLAYER1
  6
CONTINUOUS
 62
     6
 10
205.103825
 20
83.497341
 40
1.499998
 50
210.461270
 51
270.461270
  0
LINE
  8
CSLAYER1
  6
CONTINUOUS
 62
     6
 10
203.810844
 20
82.736903
 11
203.900149
 21
82.911477
  0
LINE
  8
CSLAYER1
  6
CONTINUOUS
 62
     6
 10
203.900149
 20
82.911477
 11
203.989815
 21
83.085839
  0
LINE
  8
CSLAYER1
  6
CONTINUOUS
 62
     6
 10
203.989815
 20
83.085839
 11
204.080203
 21
83.259778
  0
LINE
  8
CSLAYER1
  6
CONTINUOUS
 62
     6
 10
204.080203
 20
83.259778
 11
204.171676
 21
83.433081
  0
LINE
  8
CSLAYER1
  6
CONTINUOUS
 62
     6
 10
204.171676
 20
83.433081
 11
204.264594
 21
83.605538
  0
LINE
  8
CSLAYER1
  6
CONTINUOUS
 62
     6
 10
204.264594
 20
83.605538
 11
204.359319
 21
83.776935
  0
LINE
  8
CSLAYER1
  6
CONTINUOUS
 62
     6
 10
204.359319
 20
83.776935
 11
204.456213
 21
83.947062
  0
LINE
  8
CSLAYER1
  6
CONTINUOUS
 62
     6
 10
204.456213
 20
83.947062
 11
204.555635
 21
84.115707
  0
LINE
  8
CSLAYER1
  6
CONTINUOUS
 62
     6
 10
204.555635
 20
84.115707
 11
204.657949
 21
84.282658
  0
LINE
  8
CSLAYER1
  6
CONTINUOUS
 62
     6
 10
204.657949
 20
84.282658
 11
204.763515
 21
84.447703
  0
LINE
  8
CSLAYER1
  6
CONTINUOUS
 62
     6
 10
204.763515
 20
84.447703
 11
204.872695
 21
84.610630
  0
LINE
  8
CSLAYER1
  6
CONTINUOUS
 62
     6
 10
204.872695
 20
84.610630
 11
204.984395
 21
84.769617
  0
LINE
  8
CSLAYER1
  6
CONTINUOUS
 62
     6
 10
204.984395
 20
84.769617
 11
205.100786
 21
84.927866
  0
LINE
  8
CSLAYER1
  6
CONTINUOUS
 62
     6
 10
205.100786
 20
84.927866
 11
205.221499
 21
85.084509
  0
LINE
  8
CSLAYER1
  6
CONTINUOUS
 62
     6
 10
205.221499
 20
85.084509
 11
205.346167
 21
85.238679
  0
LINE
  8
CSLAYER1
  6
CONTINUOUS
 62
     6
 10
205.346167
 20
85.238679
 11
205.474422
 21
85.389509
  0
LINE
  8
CSLAYER1
  6
CONTINUOUS
 62
     6
 10
205.474422
 20
85.389509
 11
205.605895
 21
85.536132
  0
LINE
  8
CSLAYER1
  6
CONTINUOUS
 62
     6
 10
205.605895
 20
85.536132
 11
205.740220
 21
85.677681
  0
LINE
  8
CSLAYER1
  6
CONTINUOUS
 62
     6
 10
205.740220
 20
85.677681
 11
205.877028
 21
85.813289
  0
LINE
  8
CSLAYER1
  6
CONTINUOUS
 62
     6
 10
205.877028
 20
85.813289
 11
206.015951
 21
85.942088
  0
LINE
  8
CSLAYER1
  6
CONTINUOUS
 62
     6
 10
206.015951
 20
85.942088
 11
206.156622
 21
86.063211
  0
LINE
  8
CSLAYER1
  6
CONTINUOUS
 62
     6
 10
206.156622
 20
86.063211
 11
206.298672
 21
86.175792
  0
LINE
  8
CSLAYER1
  6
CONTINUOUS
 62
     6
 10
206.298672
 20
86.175792
 11
206.445123
 21
86.285499
  0
LINE
  8
CSLAYER1
  6
CONTINUOUS
 62
     6
 10
206.445123
 20
86.285499
 11
206.598847
 21
86.398093
  0
LINE
  8
CSLAYER1
  6
CONTINUOUS
 62
     6
 10
206.598847
 20
86.398093
 11
206.758431
 21
86.512226
  0
LINE
  8
CSLAYER1
  6
CONTINUOUS
 62
     6
 10
206.758431
 20
86.512226
 11
206.922459
 21
86.626546
  0
LINE
  8
CSLAYER1
  6
CONTINUOUS
 62
     6
 10
206.922459
 20
86.626546
 11
207.089517
 21
86.739703
  0
LINE
  8
CSLAYER1
  6
CONTINUOUS
 62
     6
 10
207.089517
 20
86.739703
 11
207.258190
 21
86.850346
  0
LINE
  8
CSLAYER1
  6
CONTINUOUS
 62
     6
 10
207.258190
 20
86.850346
 11
207.427064
 21
86.957126
  0
LINE
  8
CSLAYER1
  6
CONTINUOUS
 62
     6
 10
207.427064
 20
86.957126
 11
207.594723
 21
87.058692
  0
LINE
  8
CSLAYER1
  6
CONTINUOUS
 62
     6
 10
207.594723
 20
87.058692
 11
207.759754
 21
87.153693
  0
LINE
  8
CSLAYER1
  6
CONTINUOUS
 62
     6
 10
207.759754
 20
87.153693
 11
207.920741
 21
87.240779
  0
LINE
  8
CSLAYER1
  6
CONTINUOUS
 62
     6
 10
207.920741
 20
87.240779
 11
208.076271
 21
87.318600
  0
LINE
  8
CSLAYER1
  6
CONTINUOUS
 62
     6
 10
209.320976
 20
82.360558
 11
209.218775
 21
82.271319
  0
LINE
  8
CSLAYER1
  6
CONTINUOUS
 62
     6
 10
209.218775
 20
82.271319
 11
209.114600
 21
82.174226
  0
LINE
  8
CSLAYER1
  6
CONTINUOUS
 62
     6
 10
209.114600
 20
82.174226
 11
209.009376
 21
82.070480
  0
LINE
  8
CSLAYER1
  6
CONTINUOUS
 62
     6
 10
209.009376
 20
82.070480
 11
208.904026
 21
81.961283
  0
LINE
  8
CSLAYER1
  6
CONTINUOUS
 62
     6
 10
208.904026
 20
81.961283
 11
208.799474
 21
81.847836
  0
LINE
  8
CSLAYER1
  6
CONTINUOUS
 62
     6
 10
208.799474
 20
81.847836
 11
208.696645
 21
81.731338
  0
LINE
  8
CSLAYER1
  6
CONTINUOUS
 62
     6
 10
208.696645
 20
81.731338
 11
208.596462
 21
81.612993
  0
LINE
  8
CSLAYER1
  6
CONTINUOUS
 62
     6
 10
208.596462
 20
81.612993
 11
208.499850
 21
81.494000
  0
LINE
  8
CSLAYER1
  6
CONTINUOUS
 62
     6
 10
208.499850
 20
81.494000
 11
208.407732
 21
81.375560
  0
LINE
  8
CSLAYER1
  6
CONTINUOUS
 62
     6
 10
208.407732
 20
81.375560
 11
208.321032
 21
81.258875
  0
LINE
  8
CSLAYER1
  6
CONTINUOUS
 62
     6
 10
208.321032
 20
81.258875
 11
208.240675
 21
81.145146
  0
LINE
  8
CSLAYER1
  6
CONTINUOUS
 62
     6
 10
208.240675
 20
81.145146
 11
208.159358
 21
81.019660
  0
LINE
  8
CSLAYER1
  6
CONTINUOUS
 62
     6
 10
208.159358
 20
81.019660
 11
208.082329
 21
80.886961
  0
LINE
  8
CSLAYER1
  6
CONTINUOUS
 62
     6
 10
208.082329
 20
80.886961
 11
208.009308
 21
80.747996
  0
LINE
  8
CSLAYER1
  6
CONTINUOUS
 62
     6
 10
208.009308
 20
80.747996
 11
207.940017
 21
80.603713
  0
LINE
  8
CSLAYER1
  6
CONTINUOUS
 62
     6
 10
207.940017
 20
80.603713
 11
207.874177
 21
80.455058
  0
LINE
  8
CSLAYER1
  6
CONTINUOUS
 62
     6
 10
207.874177
 20
80.455058
 11
207.811508
 21
80.302980
  0
LINE
  8
CSLAYER1
  6
CONTINUOUS
 62
     6
 10
207.811508
 20
80.302980
 11
207.751732
 21
80.148425
  0
LINE
  8
CSLAYER1
  6
CONTINUOUS
 62
     6
 10
207.751732
 20
80.148425
 11
207.694570
 21
79.992341
  0
LINE
  8
CSLAYER1
  6
CONTINUOUS
 62
     6
 10
207.694570
 20
79.992341
 11
207.639742
 21
79.835675
  0
LINE
  8
CSLAYER1
  6
CONTINUOUS
 62
     6
 10
207.639742
 20
79.835675
 11
207.586969
 21
79.679374
  0
LINE
  8
CSLAYER1
  6
CONTINUOUS
 62
     6
 10
207.586969
 20
79.679374
 11
207.535974
 21
79.524386
  0
LINE
  8
CSLAYER1
  6
CONTINUOUS
 62
     6
 10
207.535974
 20
79.524386
 11
207.489467
 21
79.380639
  0
LINE
  8
CSLAYER1
  6
CONTINUOUS
 62
     6
 10
207.489467
 20
79.380639
 11
207.443643
 21
79.236996
  0
LINE
  8
CSLAYER1
  6
CONTINUOUS
 62
     6
 10
207.443643
 20
79.236996
 11
207.398435
 21
79.093448
  0
LINE
  8
CSLAYER1
  6
CONTINUOUS
 62
     6
 10
207.398435
 20
79.093448
 11
207.353773
 21
78.949984
  0
LINE
  8
CSLAYER1
  6
CONTINUOUS
 62
     6
 10
207.353773
 20
78.949984
 11
207.309590
 21
78.806594
  0
LINE
  8
CSLAYER1
  6
CONTINUOUS
 62
     6
 10
207.309590
 20
78.806594
 11
207.265817
 21
78.663266
  0
LINE
  8
CSLAYER1
  6
CONTINUOUS
 62
     6
 10
207.265817
 20
78.663266
 11
207.222386
 21
78.519991
  0
LINE
  8
CSLAYER1
  6
CONTINUOUS
 62
     6
 10
207.222386
 20
78.519991
 11
207.179229
 21
78.376759
  0
LINE
  8
CSLAYER1
  6
CONTINUOUS
 62
     6
 10
207.179229
 20
78.376759
 11
207.136276
 21
78.233557
  0
LINE
  8
CSLAYER1
  6
CONTINUOUS
 62
     6
 10
207.136276
 20
78.233557
 11
207.093460
 21
78.090377
  0
LINE
  8
CSLAYER1
  6
CONTINUOUS
 62
     6
 10
207.093460
 20
78.090377
 11
207.050713
 21
77.947207
  0
ARC
  8
CSLAYER1
  6
CONTINUOUS
 62
     6
 10
208.149574
 20
78.968268
 40
1.500000
 50
222.897147
 51
282.897147
  0
ARC
  8
CSLAYER1
  6
CONTINUOUS
 62
     6
 10
209.583242
 20
78.527136
 40
1.500000
 50
222.897147
 51
282.897147
  0
ARC
  8
CSLAYER1
  6
CONTINUOUS
 62
     6
 10
208.819179
 20
76.043951
 40
1.500000
 50
42.897147
 51
102.897147
  0
LINE
  8
CSLAYER1
  6
CONTINUOUS
 62
     6
 10
208.398007
 20
77.534898
 11
207.591882
 21
74.454308
  0
LINE
  8
CSLAYER1
  6
CONTINUOUS
 62
     6
 10
206.872116
 20
74.972588
 11
207.678221
 21
77.390969
  0
LINE
  8
CSLAYER1
  6
CONTINUOUS
 62
     6
 10
209.117752
 20
77.016694
 11
208.455573
 21
74.080054
  0
LINE
  8
CSLAYER1
  6
CONTINUOUS
 62
     6
 10
209.918011
 20
77.064962
 11
209.956078
 21
77.193650
  0
LINE
  8
CSLAYER1
  6
CONTINUOUS
 62
     6
 10
209.956078
 20
77.193650
 11
209.994224
 21
77.322345
  0
LINE
  8
CSLAYER1
  6
CONTINUOUS
 62
     6
 10
209.994224
 20
77.322345
 11
210.032527
 21
77.451053
  0
LINE
  8
CSLAYER1
  6
CONTINUOUS
 62
     6
 10
210.032527
 20
77.451053
 11
210.071065
 21
77.579781
  0
LINE
  8
CSLAYER1
  6
CONTINUOUS
 62
     6
 10
210.071065
 20
77.579781
 11
210.109917
 21
77.708534
  0
LINE
  8
CSLAYER1
  6
CONTINUOUS
 62
     6
 10
210.109917
 20
77.708534
 11
210.149161
 21
77.837319
  0
LINE
  8
CSLAYER1
  6
CONTINUOUS
 62
     6
 10
210.149161
 20
77.837319
 11
210.188875
 21
77.966144
  0
LINE
  8
CSLAYER1
  6
CONTINUOUS
 62
     6
 10
210.188875
 20
77.966144
 11
210.229138
 21
78.095013
  0
LINE
  8
CSLAYER1
  6
CONTINUOUS
 62
     6
 10
210.229138
 20
78.095013
 11
210.270029
 21
78.223934
  0
LINE
  8
CSLAYER1
  6
CONTINUOUS
 62
     6
 10
210.270029
 20
78.223934
 11
210.311625
 21
78.352913
  0
LINE
  8
CSLAYER1
  6
CONTINUOUS
 62
     6
 10
210.311625
 20
78.352913
 11
210.354005
 21
78.481957
  0
LINE
  8
CSLAYER1
  6
CONTINUOUS
 62
     6
 10
210.354005
 20
78.481957
 11
210.386818
 21
78.580078
  0
LINE
  8
CSLAYER1
  6
CONTINUOUS
 62
     6
 10
210.386818
 20
78.580078
 11
210.420657
 21
78.678894
  0
LINE
  8
CSLAYER1
  6
CONTINUOUS
 62
     6
 10
210.420657
 20
78.678894
 11
210.455701
 21
78.777863
  0
LINE
  8
CSLAYER1
  6
CONTINUOUS
 62
     6
 10
210.455701
 20
78.777863
 11
210.492130
 21
78.876440
  0
LINE
  8
CSLAYER1
  6
CONTINUOUS
 62
     6
 10
210.492130
 20
78.876440
 11
210.530123
 21
78.974083
  0
LINE
  8
CSLAYER1
  6
CONTINUOUS
 62
     6
 10
210.530123
 20
78.974083
 11
210.569859
 21
79.070249
  0
LINE
  8
CSLAYER1
  6
CONTINUOUS
 62
     6
 10
210.569859
 20
79.070249
 11
210.611518
 21
79.164395
  0
LINE
  8
CSLAYER1
  6
CONTINUOUS
 62
     6
 10
210.611518
 20
79.164395
 11
210.655278
 21
79.255978
  0
LINE
  8
CSLAYER1
  6
CONTINUOUS
 62
     6
 10
210.655278
 20
79.255978
 11
210.701320
 21
79.344455
  0
LINE
  8
CSLAYER1
  6
CONTINUOUS
 62
     6
 10
210.701320
 20
79.344455
 11
210.749821
 21
79.429282
  0
LINE
  8
CSLAYER1
  6
CONTINUOUS
 62
     6
 10
210.749821
 20
79.429282
 11
210.800961
 21
79.509918
  0
LINE
  8
CSLAYER1
  6
CONTINUOUS
 62
     6
 10
210.800961
 20
79.509918
 11
210.857253
 21
79.591298
  0
LINE
  8
CSLAYER1
  6
CONTINUOUS
 62
     6
 10
210.857253
 20
79.591298
 11
210.918162
 21
79.674471
  0
LINE
  8
CSLAYER1
  6
CONTINUOUS
 62
     6
 10
210.918162
 20
79.674471
 11
210.983015
 21
79.758612
  0
LINE
  8
CSLAYER1
  6
CONTINUOUS
 62
     6
 10
210.983015
 20
79.758612
 11
211.051143
 21
79.842895
  0
LINE
  8
CSLAYER1
  6
CONTINUOUS
 62
     6
 10
211.051143
 20
79.842895
 11
211.121872
 21
79.926493
  0
LINE
  8
CSLAYER1
  6
CONTINUOUS
 62
     6
 10
211.121872
 20
79.926493
 11
211.194532
 21
80.008580
  0
LINE
  8
CSLAYER1
  6
CONTINUOUS
 62
     6
 10
211.194532
 20
80.008580
 11
211.268450
 21
80.088331
  0
LINE
  8
CSLAYER1
  6
CONTINUOUS
 62
     6
 10
211.268450
 20
80.088331
 11
211.342954
 21
80.164919
  0
LINE
  8
CSLAYER1
  6
CONTINUOUS
 62
     6
 10
211.342954
 20
80.164919
 11
211.417374
 21
80.237518
  0
LINE
  8
CSLAYER1
  6
CONTINUOUS
 62
     6
 10
211.417374
 20
80.237518
 11
211.491037
 21
80.305303
  0
LINE
  8
CSLAYER1
  6
CONTINUOUS
 62
     6
 10
211.491037
 20
80.305303
 11
211.563271
 21
80.367447
  0
ARC
  8
CSLAYER1
  6
CONTINUOUS
 62
     6
 10
210.139610
 20
79.894768
 40
1.500000
 50
18.366208
 51
78.366208
  0
ARC
  8
CSLAYER1
  6
CONTINUOUS
 62
     6
 10
210.744577
 20
82.833138
 40
1.500000
 50
198.366208
 51
258.366208
  0
ARC
  8
CSLAYER1
  6
CONTINUOUS
 62
     6
 10
209.018501
 20
80.891319
 40
1.500000
 50
18.366208
 51
78.366208
  0
LINE
  8
CSLAYER1
  6
CONTINUOUS
 62
     6
 10
204.338530
 20
82.256516
 11
202.899036
 21
79.147129
  0
ARC
  8
CSLAYER1
  6
CONTINUOUS
 62
     6
 10
228.885658
 20
101.159135
 40
1.527778
 50
163.398416
 51
196.601577
  0
LINE
  8
CSLAYER1
  6
CONTINUOUS
 62
     6
 10
227.421572
 20
101.595649
 11
228.012631
 21
101.595649
  0
ARC
  8
CSLAYER1
  6
CONTINUOUS
 62
     6
 10
228.012631
 20
102.032139
 40
0.436508
 50
-89.999984
 51
0.000005
  0
LINE
  8
CSLAYER1
  6
CONTINUOUS
 62
     6
 10
228.449144
 20
102.032139
 11
228.449144
 21
102.623243
  0
ARC
  8
CSLAYER1
  6
CONTINUOUS
 62
     6
 10
228.885658
 20
101.159135
 40
1.527778
 50
73.398406
 51
106.601595
  0
LINE
  8
CSLAYER1
  6
CONTINUOUS
 62
     6
 10
229.322171
 20
102.623243
 11
229.322171
 21
102.032139
  0
ARC
  8
CSLAYER1
  6
CONTINUOUS
 62
     6
 10
229.758684
 20
102.032139
 40
0.436508
 50
180.000010
 51
270.000016
  0
LINE
  8
CSLAYER1
  6
CONTINUOUS
 62
     6
 10
229.758684
 20
101.595649
 11
230.349743
 21
101.595649
  0
ARC
  8
CSLAYER1
  6
CONTINUOUS
 62
     6
 10
228.885658
 20
101.159135
 40
1.527778
 50
-16.601562
 51
16.601572
  0
LINE
  8
CSLAYER1
  6
CONTINUOUS
 62
     6
 10
230.349743
 20
100.722622
 11
229.758684
 21
100.722622
  0
ARC
  8
CSLAYER1
  6
CONTINUOUS
 62
     6
 10
229.758684
 20
100.286131
 40
0.436508
 50
90.000001
 51
179.942691
  0
LINE
  8
CSLAYER1
  6
CONTINUOUS
 62
     6
 10
229.322171
 20
100.286131
 11
229.322171
 21
99.695027
  0
ARC
  8
CSLAYER1
  6
CONTINUOUS
 62
     6
 10
228.885658
 20
101.159135
 40
1.527778
 50
253.398422
 51
286.601583
  0
LINE
  8
CSLAYER1
  6
CONTINUOUS
 62
     6
 10
228.449144
 20
99.695027
 11
228.449144
 21
100.286131
  0
ARC
  8
CSLAYER1
  6
CONTINUOUS
 62
     6
 10
228.012631
 20
100.286131
 40
0.436508
 50
0.000005
 51
89.942654
  0
LINE
  8
CSLAYER1
  6
CONTINUOUS
 62
     6
 10
228.012631
 20
100.722622
 11
227.421572
 21
100.722622
  0
CIRCLE
  8
CSLAYER1
  6
CONTINUOUS
 62
     6
 10
228.885668
 20
101.159135
 40
2.750000
  0
LINE
  8
CSLAYER1
  6
CONTINUOUS
 62
     6
 10
213.848810
 20
158.002873
 11
216.099741
 21
160.441379
  0
LINE
  8
CSLAYER1
  6
CONTINUOUS
 62
     6
 10
216.090070
 20
160.458458
 11
216.133406
 21
160.381926
  0
LINE
  8
CSLAYER1
  6
CONTINUOUS
 62
     6
 10
216.133406
 20
160.381926
 11
216.179004
 21
160.306837
  0
LINE
  8
CSLAYER1
  6
CONTINUOUS
 62
     6
 10
216.179004
 20
160.306837
 11
216.226614
 21
160.233033
  0
LINE
  8
CSLAYER1
  6
CONTINUOUS
 62
     6
 10
216.226614
 20
160.233033
 11
216.275984
 21
160.160351
  0
LINE
  8
CSLAYER1
  6
CONTINUOUS
 62
     6
 10
216.275984
 20
160.160351
 11
216.326863
 21
160.088633
  0
LINE
  8
CSLAYER1
  6
CONTINUOUS
 62
     6
 10
216.326863
 20
160.088633
 11
216.378999
 21
160.017716
  0
LINE
  8
CSLAYER1
  6
CONTINUOUS
 62
     6
 10
216.378999
 20
160.017716
 11
216.432141
 21
159.947442
  0
LINE
  8
CSLAYER1
  6
CONTINUOUS
 62
     6
 10
216.432141
 20
159.947442
 11
216.486037
 21
159.877649
  0
LINE
  8
CSLAYER1
  6
CONTINUOUS
 62
     6
 10
216.486037
 20
159.877649
 11
216.540436
 21
159.808177
  0
LINE
  8
CSLAYER1
  6
CONTINUOUS
 62
     6
 10
216.540436
 20
159.808177
 11
216.592509
 21
159.742134
  0
LINE
  8
CSLAYER1
  6
CONTINUOUS
 62
     6
 10
216.592509
 20
159.742134
 11
216.719856
 21
159.851435
  0
LINE
  8
CSLAYER1
  6
CONTINUOUS
 62
     6
 10
216.719856
 20
159.851435
 11
216.856571
 21
159.969468
  0
LINE
  8
CSLAYER1
  6
CONTINUOUS
 62
     6
 10
216.856571
 20
159.969468
 11
216.992459
 21
160.088172
  0
LINE
  8
CSLAYER1
  6
CONTINUOUS
 62
     6
 10
216.992459
 20
160.088172
 11
217.127105
 21
160.207883
  0
LINE
  8
CSLAYER1
  6
CONTINUOUS
 62
     6
 10
217.127105
 20
160.207883
 11
217.260096
 21
160.328938
  0
LINE
  8
CSLAYER1
  6
CONTINUOUS
 62
     6
 10
217.260096
 20
160.328938
 11
217.391019
 21
160.451671
  0
LINE
  8
CSLAYER1
  6
CONTINUOUS
 62
     6
 10
217.391019
 20
160.451671
 11
217.519459
 21
160.576419
  0
LINE
  8
CSLAYER1
  6
CONTINUOUS
 62
     6
 10
217.519459
 20
160.576419
 11
217.645002
 21
160.703517
  0
LINE
  8
CSLAYER1
  6
CONTINUOUS
 62
     6
 10
217.645002
 20
160.703517
 11
217.767235
 21
160.833300
  0
LINE
  8
CSLAYER1
  6
CONTINUOUS
 62
     6
 10
217.767235
 20
160.833300
 11
217.885745
 21
160.966106
  0
LINE
  8
CSLAYER1
  6
CONTINUOUS
 62
     6
 10
217.885745
 20
160.966106
 11
218.000116
 21
161.102269
  0
LINE
  8
CSLAYER1
  6
CONTINUOUS
 62
     6
 10
218.000116
 20
161.102269
 11
218.136612
 21
161.276495
  0
LINE
  8
CSLAYER1
  6
CONTINUOUS
 62
     6
 10
218.136612
 20
161.276495
 11
218.268955
 21
161.457171
  0
LINE
  8
CSLAYER1
  6
CONTINUOUS
 62
     6
 10
218.268955
 20
161.457171
 11
218.397427
 21
161.642941
  0
LINE
  8
CSLAYER1
  6
CONTINUOUS
 62
     6
 10
218.397427
 20
161.642941
 11
218.522308
 21
161.832449
  0
LINE
  8
CSLAYER1
  6
CONTINUOUS
 62
     6
 10
218.522308
 20
161.832449
 11
218.643880
 21
162.024337
  0
LINE
  8
CSLAYER1
  6
CONTINUOUS
 62
     6
 10
218.643880
 20
162.024337
 11
218.762425
 21
162.217250
  0
LINE
  8
CSLAYER1
  6
CONTINUOUS
 62
     6
 10
218.762425
 20
162.217250
 11
218.878223
 21
162.409830
  0
LINE
  8
CSLAYER1
  6
CONTINUOUS
 62
     6
 10
218.878223
 20
162.409830
 11
218.991555
 21
162.600721
  0
LINE
  8
CSLAYER1
  6
CONTINUOUS
 62
     6
 10
218.991555
 20
162.600721
 11
219.102704
 21
162.788566
  0
LINE
  8
CSLAYER1
  6
CONTINUOUS
 62
     6
 10
219.102704
 20
162.788566
 11
219.211950
 21
162.972009
  0
LINE
  8
CSLAYER1
  6
CONTINUOUS
 62
     6
 10
219.211950
 20
162.972009
 11
219.319574
 21
163.149693
  0
LINE
  8
CSLAYER1
  6
CONTINUOUS
 62
     6
 10
219.319574
 20
163.149693
 11
219.424900
 21
163.315380
  0
LINE
  8
CSLAYER1
  6
CONTINUOUS
 62
     6
 10
219.424900
 20
163.315380
 11
219.539629
 21
163.485269
  0
LINE
  8
CSLAYER1
  6
CONTINUOUS
 62
     6
 10
219.539629
 20
163.485269
 11
219.661929
 21
163.657932
  0
LINE
  8
CSLAYER1
  6
CONTINUOUS
 62
     6
 10
219.661929
 20
163.657932
 11
219.789971
 21
163.831942
  0
LINE
  8
CSLAYER1
  6
CONTINUOUS
 62
     6
 10
219.789971
 20
163.831942
 11
219.921923
 21
164.005872
  0
LINE
  8
CSLAYER1
  6
CONTINUOUS
 62
     6
 10
219.921923
 20
164.005872
 11
220.055955
 21
164.178293
  0
LINE
  8
CSLAYER1
  6
CONTINUOUS
 62
     6
 10
220.055955
 20
164.178293
 11
220.190236
 21
164.347778
  0
LINE
  8
CSLAYER1
  6
CONTINUOUS
 62
     6
 10
220.190236
 20
164.347778
 11
220.322935
 21
164.512900
  0
LINE
  8
CSLAYER1
  6
CONTINUOUS
 62
     6
 10
220.322935
 20
164.512900
 11
220.452221
 21
164.672230
  0
LINE
  8
CSLAYER1
  6
CONTINUOUS
 62
     6
 10
220.452221
 20
164.672230
 11
220.576263
 21
164.824342
  0
LINE
  8
CSLAYER1
  6
CONTINUOUS
 62
     6
 10
220.576263
 20
164.824342
 11
220.745520
 21
165.031943
  0
ARC
  8
CSLAYER1
  6
CONTINUOUS
 62
     6
 10
219.663270
 20
164.602171
 40
1.164461
 50
21.658505
 51
86.024005
  0
ARC
  8
CSLAYER1
  6
CONTINUOUS
 62
     6
 10
218.697616
 20
165.252925
 40
1.164461
 50
26.024005
 51
86.024005
  0
ARC
  8
CSLAYER1
  6
CONTINUOUS
 62
     6
 10
219.824754
 20
166.925487
 40
1.164461
 50
206.024005
 51
266.024005
  0
LINE
  8
CSLAYER1
  6
CONTINUOUS
 62
     6
 10
218.778344
 20
166.414586
 11
218.657163
 21
166.266672
  0
LINE
  8
CSLAYER1
  6
CONTINUOUS
 62
     6
 10
218.657163
 20
166.266672
 11
218.528153
 21
166.109273
  0
LINE
  8
CSLAYER1
  6
CONTINUOUS
 62
     6
 10
218.528153
 20
166.109273
 11
218.393351
 21
165.943961
  0
LINE
  8
CSLAYER1
  6
CONTINUOUS
 62
     6
 10
218.393351
 20
165.943961
 11
218.254794
 21
165.772309
  0
LINE
  8
CSLAYER1
  6
CONTINUOUS
 62
     6
 10
218.254794
 20
165.772309
 11
218.114519
 21
165.595887
  0
LINE
  8
CSLAYER1
  6
CONTINUOUS
 62
     6
 10
218.114519
 20
165.595887
 11
217.974561
 21
165.416269
  0
LINE
  8
CSLAYER1
  6
CONTINUOUS
 62
     6
 10
217.974561
 20
165.416269
 11
217.836958
 21
165.235026
  0
LINE
  8
CSLAYER1
  6
CONTINUOUS
 62
     6
 10
217.836958
 20
165.235026
 11
217.703746
 21
165.053729
  0
LINE
  8
CSLAYER1
  6
CONTINUOUS
 62
     6
 10
217.703746
 20
165.053729
 11
217.576962
 21
164.873952
  0
LINE
  8
CSLAYER1
  6
CONTINUOUS
 62
     6
 10
217.576962
 20
164.873952
 11
217.458643
 21
164.697266
  0
LINE
  8
CSLAYER1
  6
CONTINUOUS
 62
     6
 10
217.458643
 20
164.697266
 11
217.350824
 21
164.525242
  0
LINE
  8
CSLAYER1
  6
CONTINUOUS
 62
     6
 10
217.350824
 20
164.525242
 11
217.253185
 21
164.361481
  0
LINE
  8
CSLAYER1
  6
CONTINUOUS
 62
     6
 10
217.253185
 20
164.361481
 11
217.153556
 21
164.192214
  0
LINE
  8
CSLAYER1
  6
CONTINUOUS
 62
     6
 10
217.153556
 20
164.192214
 11
217.051730
 21
164.018743
  0
LINE
  8
CSLAYER1
  6
CONTINUOUS
 62
     6
 10
217.051730
 20
164.018743
 11
216.947500
 21
163.842370
  0
LINE
  8
CSLAYER1
  6
CONTINUOUS
 62
     6
 10
216.947500
 20
163.842370
 11
216.840660
 21
163.664397
  0
LINE
  8
CSLAYER1
  6
CONTINUOUS
 62
     6
 10
216.840660
 20
163.664397
 11
216.731002
 21
163.486128
  0
LINE
  8
CSLAYER1
  6
CONTINUOUS
 62
     6
 10
216.731002
 20
163.486128
 11
216.618322
 21
163.308863
  0
LINE
  8
CSLAYER1
  6
CONTINUOUS
 62
     6
 10
216.618322
 20
163.308863
 11
216.502411
 21
163.133905
  0
LINE
  8
CSLAYER1
  6
CONTINUOUS
 62
     6
 10
216.502411
 20
163.133905
 11
216.383064
 21
162.962557
  0
LINE
  8
CSLAYER1
  6
CONTINUOUS
 62
     6
 10
216.383064
 20
162.962557
 11
216.260074
 21
162.796121
  0
LINE
  8
CSLAYER1
  6
CONTINUOUS
 62
     6
 10
216.260074
 20
162.796121
 11
216.133233
 21
162.635899
  0
LINE
  8
CSLAYER1
  6
CONTINUOUS
 62
     6
 10
216.133233
 20
162.635899
 11
216.034412
 21
162.519386
  0
LINE
  8
CSLAYER1
  6
CONTINUOUS
 62
     6
 10
216.034412
 20
162.519386
 11
215.932200
 21
162.405627
  0
LINE
  8
CSLAYER1
  6
CONTINUOUS
 62
     6
 10
215.932200
 20
162.405627
 11
215.826936
 21
162.294346
  0
LINE
  8
CSLAYER1
  6
CONTINUOUS
 62
     6
 10
215.826936
 20
162.294346
 11
215.718959
 21
162.185268
  0
LINE
  8
CSLAYER1
  6
CONTINUOUS
 62
     6
 10
215.718959
 20
162.185268
 11
215.608608
 21
162.078117
  0
LINE
  8
CSLAYER1
  6
CONTINUOUS
 62
     6
 10
215.608608
 20
162.078117
 11
215.496222
 21
161.972619
  0
LINE
  8
CSLAYER1
  6
CONTINUOUS
 62
     6
 10
215.496222
 20
161.972619
 11
215.382141
 21
161.868497
  0
LINE
  8
CSLAYER1
  6
CONTINUOUS
 62
     6
 10
215.382141
 20
161.868497
 11
215.266704
 21
161.765477
  0
LINE
  8
CSLAYER1
  6
CONTINUOUS
 62
     6
 10
215.266704
 20
161.765477
 11
215.150249
 21
161.663282
  0
LINE
  8
CSLAYER1
  6
CONTINUOUS
 62
     6
 10
215.150249
 20
161.663282
 11
215.054222
 21
161.579954
  0
LINE
  8
CSLAYER1
  6
CONTINUOUS
 62
     6
 10
215.054222
 20
161.579954
 11
215.123370
 21
161.545426
  0
LINE
  8
CSLAYER1
  6
CONTINUOUS
 62
     6
 10
215.123370
 20
161.545426
 11
215.207846
 21
161.497809
  0
LINE
  8
CSLAYER1
  6
CONTINUOUS
 62
     6
 10
215.207846
 20
161.497809
 11
215.293778
 21
161.444059
  0
LINE
  8
CSLAYER1
  6
CONTINUOUS
 62
     6
 10
215.293778
 20
161.444059
 11
215.379898
 21
161.384835
  0
LINE
  8
CSLAYER1
  6
CONTINUOUS
 62
     6
 10
215.379898
 20
161.384835
 11
215.464933
 21
161.320797
  0
LINE
  8
CSLAYER1
  6
CONTINUOUS
 62
     6
 10
215.464933
 20
161.320797
 11
215.547616
 21
161.252606
  0
LINE
  8
CSLAYER1
  6
CONTINUOUS
 62
     6
 10
215.547616
 20
161.252606
 11
215.626675
 21
161.180923
  0
LINE
  8
CSLAYER1
  6
CONTINUOUS
 62
     6
 10
215.626675
 20
161.180923
 11
215.700841
 21
161.106407
  0
LINE
  8
CSLAYER1
  6
CONTINUOUS
 62
     6
 10
215.700841
 20
161.106407
 11
215.768844
 21
161.029720
  0
LINE
  8
CSLAYER1
  6
CONTINUOUS
 62
     6
 10
215.768844
 20
161.029720
 11
215.829414
 21
160.951521
  0
LINE
  8
CSLAYER1
  6
CONTINUOUS
 62
     6
 10
215.829414
 20
160.951521
 11
215.881280
 21
160.872471
  0
LINE
  8
CSLAYER1
  6
CONTINUOUS
 62
     6
 10
215.881280
 20
160.872471
 11
215.897187
 21
160.844865
  0
LINE
  8
CSLAYER1
  6
CONTINUOUS
 62
     6
 10
215.897187
 20
160.844865
 11
215.912840
 21
160.816171
  0
LINE
  8
CSLAYER1
  6
CONTINUOUS
 62
     6
 10
215.912840
 20
160.816171
 11
215.928282
 21
160.786558
  0
LINE
  8
CSLAYER1
  6
CONTINUOUS
 62
     6
 10
215.928282
 20
160.786558
 11
215.943555
 21
160.756192
  0
LINE
  8
CSLAYER1
  6
CONTINUOUS
 62
     6
 10
215.943555
 20
160.756192
 11
215.958701
 21
160.725240
  0
LINE
  8
CSLAYER1
  6
CONTINUOUS
 62
     6
 10
215.958701
 20
160.725240
 11
215.973761
 21
160.693870
  0
LINE
  8
CSLAYER1
  6
CONTINUOUS
 62
     6
 10
215.973761
 20
160.693870
 11
215.988778
 21
160.662248
  0
LINE
  8
CSLAYER1
  6
CONTINUOUS
 62
     6
 10
215.988778
 20
160.662248
 11
216.003793
 21
160.630543
  0
LINE
  8
CSLAYER1
  6
CONTINUOUS
 62
     6
 10
216.003793
 20
160.630543
 11
216.018849
 21
160.598921
  0
LINE
  8
CSLAYER1
  6
CONTINUOUS
 62
     6
 10
216.018849
 20
160.598921
 11
216.033987
 21
160.567549
  0
LINE
  8
CSLAYER1
  6
CONTINUOUS
 62
     6
 10
216.033987
 20
160.567549
 11
216.049249
 21
160.536595
  0
LINE
  8
CSLAYER1
  6
CONTINUOUS
 62
     6
 10
216.049249
 20
160.536595
 11
216.090070
 21
160.458458
  0
LINE
  8
CSLAYER1
  6
CONTINUOUS
 62
     6
 10
215.819271
 20
160.964616
 11
213.376275
 21
158.569981
  0
LINE
  8
CSLAYER1
  6
CONTINUOUS
 62
     6
 10
212.761926
 20
158.782628
 11
215.507773
 21
161.285466
  0
LINE
  8
CSLAYER1
  6
CONTINUOUS
 62
     6
 10
212.692220
 20
165.758623
 11
212.850738
 21
165.865978
  0
LINE
  8
CSLAYER1
  6
CONTINUOUS
 62
     6
 10
212.850738
 20
165.865978
 11
213.002534
 21
165.975472
  0
LINE
  8
CSLAYER1
  6
CONTINUOUS
 62
     6
 10
213.002534
 20
165.975472
 11
213.145673
 21
166.088058
  0
LINE
  8
CSLAYER1
  6
CONTINUOUS
 62
     6
 10
213.145673
 20
166.088058
 11
213.278222
 21
166.204686
  0
LINE
  8
CSLAYER1
  6
CONTINUOUS
 62
     6
 10
213.278222
 20
166.204686
 11
213.381227
 21
166.307701
  0
LINE
  8
CSLAYER1
  6
CONTINUOUS
 62
     6
 10
213.381227
 20
166.307701
 11
213.482891
 21
166.421137
  0
LINE
  8
CSLAYER1
  6
CONTINUOUS
 62
     6
 10
213.482891
 20
166.421137
 11
213.582645
 21
166.543304
  0
LINE
  8
CSLAYER1
  6
CONTINUOUS
 62
     6
 10
213.582645
 20
166.543304
 11
213.679924
 21
166.672513
  0
LINE
  8
CSLAYER1
  6
CONTINUOUS
 62
     6
 10
213.679924
 20
166.672513
 11
213.774158
 21
166.807073
  0
LINE
  8
CSLAYER1
  6
CONTINUOUS
 62
     6
 10
213.774158
 20
166.807073
 11
213.864783
 21
166.945295
  0
LINE
  8
CSLAYER1
  6
CONTINUOUS
 62
     6
 10
213.864783
 20
166.945295
 11
213.951229
 21
167.085488
  0
LINE
  8
CSLAYER1
  6
CONTINUOUS
 62
     6
 10
213.951229
 20
167.085488
 11
214.032930
 21
167.225962
  0
LINE
  8
CSLAYER1
  6
CONTINUOUS
 62
     6
 10
214.032930
 20
167.225962
 11
214.109319
 21
167.365029
  0
LINE
  8
CSLAYER1
  6
CONTINUOUS
 62
     6
 10
214.109319
 20
167.365029
 11
214.179828
 21
167.500997
  0
LINE
  8
CSLAYER1
  6
CONTINUOUS
 62
     6
 10
214.179828
 20
167.500997
 11
214.285088
 21
167.716537
  0
ARC
  8
CSLAYER1
  6
CONTINUOUS
 62
     6
 10
213.358977
 20
167.160459
 40
1.080690
 50
30.945197
 51
90.945197
  0
ARC
  8
CSLAYER1
  6
CONTINUOUS
 62
     6
 10
212.414286
 20
167.685292
 40
1.080690
 50
30.945197
 51
90.945197
  0
ARC
  8
CSLAYER1
  6
CONTINUOUS
 62
     6
 10
213.323323
 20
169.321545
 40
1.080690
 50
210.945197
 51
270.945197
  0
LINE
  8
CSLAYER1
  6
CONTINUOUS
 62
     6
 10
212.396478
 20
168.765812
 11
212.251776
 21
168.626466
  0
LINE
  8
CSLAYER1
  6
CONTINUOUS
 62
     6
 10
212.251776
 20
168.626466
 11
212.097861
 21
168.476716
  0
LINE
  8
CSLAYER1
  6
CONTINUOUS
 62
     6
 10
212.097861
 20
168.476716
 11
211.936510
 21
168.318888
  0
LINE
  8
CSLAYER1
  6
CONTINUOUS
 62
     6
 10
211.936510
 20
168.318888
 11
211.769500
 21
168.155306
  0
LINE
  8
CSLAYER1
  6
CONTINUOUS
 62
     6
 10
211.769500
 20
168.155306
 11
211.598605
 21
167.988295
  0
LINE
  8
CSLAYER1
  6
CONTINUOUS
 62
     6
 10
211.598605
 20
167.988295
 11
211.425602
 21
167.820179
  0
LINE
  8
CSLAYER1
  6
CONTINUOUS
 62
     6
 10
211.425602
 20
167.820179
 11
211.252267
 21
167.653284
  0
LINE
  8
CSLAYER1
  6
CONTINUOUS
 62
     6
 10
211.252267
 20
167.653284
 11
211.080375
 21
167.489935
  0
LINE
  8
CSLAYER1
  6
CONTINUOUS
 62
     6
 10
211.080375
 20
167.489935
 11
210.911702
 21
167.332456
  0
LINE
  8
CSLAYER1
  6
CONTINUOUS
 62
     6
 10
210.911702
 20
167.332456
 11
210.748025
 21
167.183171
  0
LINE
  8
CSLAYER1
  6
CONTINUOUS
 62
     6
 10
210.748025
 20
167.183171
 11
210.591119
 21
167.044407
  0
LINE
  8
CSLAYER1
  6
CONTINUOUS
 62
     6
 10
210.591119
 20
167.044407
 11
210.449888
 21
166.921610
  0
LINE
  8
CSLAYER1
  6
CONTINUOUS
 62
     6
 10
210.449888
 20
166.921610
 11
210.303705
 21
166.793724
  0
LINE
  8
CSLAYER1
  6
CONTINUOUS
 62
     6
 10
210.303705
 20
166.793724
 11
210.153712
 21
166.661217
  0
LINE
  8
CSLAYER1
  6
CONTINUOUS
 62
     6
 10
210.153712
 20
166.661217
 11
210.001050
 21
166.524558
  0
LINE
  8
CSLAYER1
  6
CONTINUOUS
 62
     6
 10
210.001050
 20
166.524558
 11
209.846863
 21
166.384213
  0
LINE
  8
CSLAYER1
  6
CONTINUOUS
 62
     6
 10
209.846863
 20
166.384213
 11
209.692293
 21
166.240650
  0
LINE
  8
CSLAYER1
  6
CONTINUOUS
 62
     6
 10
209.692293
 20
166.240650
 11
209.538482
 21
166.094338
  0
LINE
  8
CSLAYER1
  6
CONTINUOUS
 62
     6
 10
209.538482
 20
166.094338
 11
209.386571
 21
165.945743
  0
LINE
  8
CSLAYER1
  6
CONTINUOUS
 62
     6
 10
209.386571
 20
165.945743
 11
209.237704
 21
165.795333
  0
LINE
  8
CSLAYER1
  6
CONTINUOUS
 62
     6
 10
209.237704
 20
165.795333
 11
209.093022
 21
165.643577
  0
LINE
  8
CSLAYER1
  6
CONTINUOUS
 62
     6
 10
209.093022
 20
165.643577
 11
208.953668
 21
165.490941
  0
LINE
  8
CSLAYER1
  6
CONTINUOUS
 62
     6
 10
208.953668
 20
165.490941
 11
208.898144
 21
165.427997
  0
LINE
  8
CSLAYER1
  6
CONTINUOUS
 62
     6
 10
208.898144
 20
165.427997
 11
208.843216
 21
165.364497
  0
LINE
  8
CSLAYER1
  6
CONTINUOUS
 62
     6
 10
208.843216
 20
165.364497
 11
208.788825
 21
165.300495
  0
LINE
  8
CSLAYER1
  6
CONTINUOUS
 62
     6
 10
208.788825
 20
165.300495
 11
208.734912
 21
165.236049
  0
LINE
  8
CSLAYER1
  6
CONTINUOUS
 62
     6
 10
208.734912
 20
165.236049
 11
208.681416
 21
165.171213
  0
LINE
  8
CSLAYER1
  6
CONTINUOUS
 62
     6
 10
208.681416
 20
165.171213
 11
208.628278
 21
165.106043
  0
LINE
  8
CSLAYER1
  6
CONTINUOUS
 62
     6
 10
208.628278
 20
165.106043
 11
208.575438
 21
165.040595
  0
LINE
  8
CSLAYER1
  6
CONTINUOUS
 62
     6
 10
208.575438
 20
165.040595
 11
208.522837
 21
164.974925
  0
LINE
  8
CSLAYER1
  6
CONTINUOUS
 62
     6
 10
208.522837
 20
164.974925
 11
208.470415
 21
164.909087
  0
LINE
  8
CSLAYER1
  6
CONTINUOUS
 62
     6
 10
208.470415
 20
164.909087
 11
208.418112
 21
164.843139
  0
LINE
  8
CSLAYER1
  6
CONTINUOUS
 62
     6
 10
208.418112
 20
164.843139
 11
208.289557
 21
164.680721
  0
LINE
  8
CSLAYER1
  6
CONTINUOUS
 62
     6
 10
208.289557
 20
164.680721
 11
208.318295
 21
164.633866
  0
LINE
  8
CSLAYER1
  6
CONTINUOUS
 62
     6
 10
208.318295
 20
164.633866
 11
208.358887
 21
164.573985
  0
LINE
  8
CSLAYER1
  6
CONTINUOUS
 62
     6
 10
208.358887
 20
164.573985
 11
208.403169
 21
164.514117
  0
LINE
  8
CSLAYER1
  6
CONTINUOUS
 62
     6
 10
208.403169
 20
164.514117
 11
208.450620
 21
164.454844
  0
LINE
  8
CSLAYER1
  6
CONTINUOUS
 62
     6
 10
208.450620
 20
164.454844
 11
208.500719
 21
164.396746
  0
LINE
  8
CSLAYER1
  6
CONTINUOUS
 62
     6
 10
208.500719
 20
164.396746
 11
208.552943
 21
164.340406
  0
LINE
  8
CSLAYER1
  6
CONTINUOUS
 62
     6
 10
208.552943
 20
164.340406
 11
208.606772
 21
164.286402
  0
LINE
  8
CSLAYER1
  6
CONTINUOUS
 62
     6
 10
208.606772
 20
164.286402
 11
208.661682
 21
164.235317
  0
LINE
  8
CSLAYER1
  6
CONTINUOUS
 62
     6
 10
208.661682
 20
164.235317
 11
208.717153
 21
164.187731
  0
LINE
  8
CSLAYER1
  6
CONTINUOUS
 62
     6
 10
208.717153
 20
164.187731
 11
208.772664
 21
164.144226
  0
LINE
  8
CSLAYER1
  6
CONTINUOUS
 62
     6
 10
208.772664
 20
164.144226
 11
208.827691
 21
164.105381
  0
LINE
  8
CSLAYER1
  6
CONTINUOUS
 62
     6
 10
208.827691
 20
164.105381
 11
208.884177
 21
164.071087
  0
LINE
  8
CSLAYER1
  6
CONTINUOUS
 62
     6
 10
208.884177
 20
164.071087
 11
208.944779
 21
164.040120
  0
LINE
  8
CSLAYER1
  6
CONTINUOUS
 62
     6
 10
208.944779
 20
164.040120
 11
209.008940
 21
164.012131
  0
LINE
  8
CSLAYER1
  6
CONTINUOUS
 62
     6
 10
209.008940
 20
164.012131
 11
209.076102
 21
163.986770
  0
LINE
  8
CSLAYER1
  6
CONTINUOUS
 62
     6
 10
209.076102
 20
163.986770
 11
209.145708
 21
163.963688
  0
LINE
  8
CSLAYER1
  6
CONTINUOUS
 62
     6
 10
209.145708
 20
163.963688
 11
209.217202
 21
163.942534
  0
LINE
  8
CSLAYER1
  6
CONTINUOUS
 62
     6
 10
209.217202
 20
163.942534
 11
209.290027
 21
163.922960
  0
LINE
  8
CSLAYER1
  6
CONTINUOUS
 62
     6
 10
209.290027
 20
163.922960
 11
209.363625
 21
163.904615
  0
LINE
  8
CSLAYER1
  6
CONTINUOUS
 62
     6
 10
209.363625
 20
163.904615
 11
209.437440
 21
163.887149
  0
LINE
  8
CSLAYER1
  6
CONTINUOUS
 62
     6
 10
209.437440
 20
163.887149
 11
209.510914
 21
163.870214
  0
LINE
  8
CSLAYER1
  6
CONTINUOUS
 62
     6
 10
209.510914
 20
163.870214
 11
209.583490
 21
163.853459
  0
LINE
  8
CSLAYER1
  6
CONTINUOUS
 62
     6
 10
209.583490
 20
163.853459
 11
209.657714
 21
163.835859
  0
LINE
  8
CSLAYER1
  6
CONTINUOUS
 62
     6
 10
209.657714
 20
163.835859
 11
209.731450
 21
163.817834
  0
LINE
  8
CSLAYER1
  6
CONTINUOUS
 62
     6
 10
209.731450
 20
163.817834
 11
209.804746
 21
163.799428
  0
LINE
  8
CSLAYER1
  6
CONTINUOUS
 62
     6
 10
209.804746
 20
163.799428
 11
209.877652
 21
163.780683
  0
LINE
  8
CSLAYER1
  6
CONTINUOUS
 62
     6
 10
209.877652
 20
163.780683
 11
209.950216
 21
163.761640
  0
LINE
  8
CSLAYER1
  6
CONTINUOUS
 62
     6
 10
209.950216
 20
163.761640
 11
210.022487
 21
163.742344
  0
LINE
  8
CSLAYER1
  6
CONTINUOUS
 62
     6
 10
210.022487
 20
163.742344
 11
210.094514
 21
163.722835
  0
LINE
  8
CSLAYER1
  6
CONTINUOUS
 62
     6
 10
210.094514
 20
163.722835
 11
210.166346
 21
163.703157
  0
LINE
  8
CSLAYER1
  6
CONTINUOUS
 62
     6
 10
210.166346
 20
163.703157
 11
210.238031
 21
163.683351
  0
LINE
  8
CSLAYER1
  6
CONTINUOUS
 62
     6
 10
210.238031
 20
163.683351
 11
210.309619
 21
163.663461
  0
LINE
  8
CSLAYER1
  6
CONTINUOUS
 62
     6
 10
210.309619
 20
163.663461
 11
210.390238
 21
163.640998
  0
LINE
  8
CSLAYER1
  6
CONTINUOUS
 62
     6
 10
210.390238
 20
163.640998
 11
210.517494
 21
163.813148
  0
LINE
  8
CSLAYER1
  6
CONTINUOUS
 62
     6
 10
210.517494
 20
163.813148
 11
210.612274
 21
163.940311
  0
LINE
  8
CSLAYER1
  6
CONTINUOUS
 62
     6
 10
210.612274
 20
163.940311
 11
210.707925
 21
164.066542
  0
LINE
  8
CSLAYER1
  6
CONTINUOUS
 62
     6
 10
210.707925
 20
164.066542
 11
210.804884
 21
164.191378
  0
LINE
  8
CSLAYER1
  6
CONTINUOUS
 62
     6
 10
210.804884
 20
164.191378
 11
210.903586
 21
164.314353
  0
LINE
  8
CSLAYER1
  6
CONTINUOUS
 62
     6
 10
210.903586
 20
164.314353
 11
211.004467
 21
164.435001
  0
LINE
  8
CSLAYER1
  6
CONTINUOUS
 62
     6
 10
211.004467
 20
164.435001
 11
211.107964
 21
164.552858
  0
LINE
  8
CSLAYER1
  6
CONTINUOUS
 62
     6
 10
211.107964
 20
164.552858
 11
211.214511
 21
164.667458
  0
LINE
  8
CSLAYER1
  6
CONTINUOUS
 62
     6
 10
211.214511
 20
164.667458
 11
211.324545
 21
164.778336
  0
LINE
  8
CSLAYER1
  6
CONTINUOUS
 62
     6
 10
211.324545
 20
164.778336
 11
211.438502
 21
164.885027
  0
LINE
  8
CSLAYER1
  6
CONTINUOUS
 62
     6
 10
211.438502
 20
164.885027
 11
211.556817
 21
164.987065
  0
LINE
  8
CSLAYER1
  6
CONTINUOUS
 62
     6
 10
211.556817
 20
164.987065
 11
211.708242
 21
165.106103
  0
LINE
  8
CSLAYER1
  6
CONTINUOUS
 62
     6
 10
211.708242
 20
165.106103
 11
211.866482
 21
165.220615
  0
LINE
  8
CSLAYER1
  6
CONTINUOUS
 62
     6
 10
211.866482
 20
165.220615
 11
212.029602
 21
165.331555
  0
LINE
  8
CSLAYER1
  6
CONTINUOUS
 62
     6
 10
212.029602
 20
165.331555
 11
212.195671
 21
165.439874
  0
LINE
  8
CSLAYER1
  6
CONTINUOUS
 62
     6
 10
212.195671
 20
165.439874
 11
212.362752
 21
165.546523
  0
LINE
  8
CSLAYER1
  6
CONTINUOUS
 62
     6
 10
212.362752
 20
165.546523
 11
212.528913
 21
165.652456
  0
LINE
  8
CSLAYER1
  6
CONTINUOUS
 62
     6
 10
212.528913
 20
165.652456
 11
212.692220
 21
165.758623
  0
LINE
  8
CSLAYER1
  6
CONTINUOUS
 62
     6
 10
209.648052
 20
163.838150
 11
207.421930
 21
160.861912
  0
LINE
  8
CSLAYER1
  6
CONTINUOUS
 62
     6
 10
206.736688
 20
161.310856
 11
209.082219
 21
163.984742
  0
LINE
  8
CSLAYER1
  6
CONTINUOUS
 62
     6
 10
208.665001
 20
164.232470
 11
206.193231
 21
161.830662
  0
ARC
  8
CSLAYER1
  6
CONTINUOUS
 62
     6
 10
214.870419
 20
170.169660
 40
1.095863
 50
203.568976
 51
263.568976
  0
ARC
  8
CSLAYER1
  6
CONTINUOUS
 62
     6
 10
215.752120
 20
169.518877
 40
1.095863
 50
203.568976
 51
263.568976
  0
ARC
  8
CSLAYER1
  6
CONTINUOUS
 62
     6
 10
214.624930
 20
167.991726
 40
1.095863
 50
23.568976
 51
83.568976
  0
LINE
  8
CSLAYER1
  6
CONTINUOUS
 62
     6
 10
214.119103
 20
169.911447
 11
213.865991
 21
169.731480
  0
LINE
  8
CSLAYER1
  6
CONTINUOUS
 62
     6
 10
214.119103
 20
169.911447
 11
214.371964
 21
170.091767
  0
LINE
  8
CSLAYER1
  6
CONTINUOUS
 62
     6
 10
214.371964
 20
170.091767
 11
214.624324
 21
170.272793
  0
LINE
  8
CSLAYER1
  6
CONTINUOUS
 62
     6
 10
214.624324
 20
170.272793
 11
214.875932
 21
170.454877
  0
LINE
  8
CSLAYER1
  6
CONTINUOUS
 62
     6
 10
214.875932
 20
170.454877
 11
215.126537
 21
170.638372
  0
LINE
  8
CSLAYER1
  6
CONTINUOUS
 62
     6
 10
215.126537
 20
170.638372
 11
215.375890
 21
170.823631
  0
LINE
  8
CSLAYER1
  6
CONTINUOUS
 62
     6
 10
215.375890
 20
170.823631
 11
215.623739
 21
171.011006
  0
LINE
  8
CSLAYER1
  6
CONTINUOUS
 62
     6
 10
215.623739
 20
171.011006
 11
215.869834
 21
171.200851
  0
LINE
  8
CSLAYER1
  6
CONTINUOUS
 62
     6
 10
215.869834
 20
171.200851
 11
216.113924
 21
171.393519
  0
LINE
  8
CSLAYER1
  6
CONTINUOUS
 62
     6
 10
216.113924
 20
171.393519
 11
216.355758
 21
171.589361
  0
LINE
  8
CSLAYER1
  6
CONTINUOUS
 62
     6
 10
216.355758
 20
171.589361
 11
216.595086
 21
171.788731
  0
LINE
  8
CSLAYER1
  6
CONTINUOUS
 62
     6
 10
216.595086
 20
171.788731
 11
216.752351
 21
171.923028
  0
LINE
  8
CSLAYER1
  6
CONTINUOUS
 62
     6
 10
216.752351
 20
171.923028
 11
216.909400
 21
172.060052
  0
LINE
  8
CSLAYER1
  6
CONTINUOUS
 62
     6
 10
216.909400
 20
172.060052
 11
217.065491
 21
172.199612
  0
LINE
  8
CSLAYER1
  6
CONTINUOUS
 62
     6
 10
217.065491
 20
172.199612
 11
217.219881
 21
172.341514
  0
LINE
  8
CSLAYER1
  6
CONTINUOUS
 62
     6
 10
217.219881
 20
172.341514
 11
217.371825
 21
172.485567
  0
LINE
  8
CSLAYER1
  6
CONTINUOUS
 62
     6
 10
217.371825
 20
172.485567
 11
217.520582
 21
172.631577
  0
LINE
  8
CSLAYER1
  6
CONTINUOUS
 62
     6
 10
217.520582
 20
172.631577
 11
217.665408
 21
172.779352
  0
LINE
  8
CSLAYER1
  6
CONTINUOUS
 62
     6
 10
217.665408
 20
172.779352
 11
217.805561
 21
172.928699
  0
LINE
  8
CSLAYER1
  6
CONTINUOUS
 62
     6
 10
217.805561
 20
172.928699
 11
217.940297
 21
173.079427
  0
LINE
  8
CSLAYER1
  6
CONTINUOUS
 62
     6
 10
217.940297
 20
173.079427
 11
218.068872
 21
173.231342
  0
LINE
  8
CSLAYER1
  6
CONTINUOUS
 62
     6
 10
218.068872
 20
173.231342
 11
218.190545
 21
173.384251
  0
LINE
  8
CSLAYER1
  6
CONTINUOUS
 62
     6
 10
218.190545
 20
173.384251
 11
218.305000
 21
173.535577
  0
LINE
  8
CSLAYER1
  6
CONTINUOUS
 62
     6
 10
218.305000
 20
173.535577
 11
218.420301
 21
173.692831
  0
LINE
  8
CSLAYER1
  6
CONTINUOUS
 62
     6
 10
218.420301
 20
173.692831
 11
218.535914
 21
173.854889
  0
LINE
  8
CSLAYER1
  6
CONTINUOUS
 62
     6
 10
218.535914
 20
173.854889
 11
218.651307
 21
174.020629
  0
LINE
  8
CSLAYER1
  6
CONTINUOUS
 62
     6
 10
218.651307
 20
174.020629
 11
218.765947
 21
174.188928
  0
LINE
  8
CSLAYER1
  6
CONTINUOUS
 62
     6
 10
218.765947
 20
174.188928
 11
218.879301
 21
174.358664
  0
LINE
  8
CSLAYER1
  6
CONTINUOUS
 62
     6
 10
218.879301
 20
174.358664
 11
218.990836
 21
174.528715
  0
LINE
  8
CSLAYER1
  6
CONTINUOUS
 62
     6
 10
218.990836
 20
174.528715
 11
219.100021
 21
174.697957
  0
LINE
  8
CSLAYER1
  6
CONTINUOUS
 62
     6
 10
219.100021
 20
174.697957
 11
219.206320
 21
174.865269
  0
LINE
  8
CSLAYER1
  6
CONTINUOUS
 62
     6
 10
219.206320
 20
174.865269
 11
219.309203
 21
175.029528
  0
LINE
  8
CSLAYER1
  6
CONTINUOUS
 62
     6
 10
219.309203
 20
175.029528
 11
219.408136
 21
175.189610
  0
LINE
  8
CSLAYER1
  6
CONTINUOUS
 62
     6
 10
219.408136
 20
175.189610
 11
219.494610
 21
175.327836
  0
LINE
  8
CSLAYER1
  6
CONTINUOUS
 62
     6
 10
219.494610
 20
175.327836
 11
219.586562
 21
175.470294
  0
LINE
  8
CSLAYER1
  6
CONTINUOUS
 62
     6
 10
219.586562
 20
175.470294
 11
219.682762
 21
175.615774
  0
LINE
  8
CSLAYER1
  6
CONTINUOUS
 62
     6
 10
219.682762
 20
175.615774
 11
219.781981
 21
175.763064
  0
LINE
  8
CSLAYER1
  6
CONTINUOUS
 62
     6
 10
219.781981
 20
175.763064
 11
219.882989
 21
175.910954
  0
LINE
  8
CSLAYER1
  6
CONTINUOUS
 62
     6
 10
219.882989
 20
175.910954
 11
219.984557
 21
176.058233
  0
LINE
  8
CSLAYER1
  6
CONTINUOUS
 62
     6
 10
219.984557
 20
176.058233
 11
220.085455
 21
176.203689
  0
LINE
  8
CSLAYER1
  6
CONTINUOUS
 62
     6
 10
220.085455
 20
176.203689
 11
220.184454
 21
176.346113
  0
LINE
  8
CSLAYER1
  6
CONTINUOUS
 62
     6
 10
220.184454
 20
176.346113
 11
220.280323
 21
176.484293
  0
LINE
  8
CSLAYER1
  6
CONTINUOUS
 62
     6
 10
220.280323
 20
176.484293
 11
220.400865
 21
176.659123
  0
ARC
  8
CSLAYER1
  6
CONTINUOUS
 62
     6
 10
218.135661
 20
178.659123
 40
2.000000
 50
180.000000
 51
270.000000
  0
LINE
  8
CSLAYER1
  6
CONTINUOUS
 62
     6
 10
216.135661
 20
178.659123
 11
216.135661
 21
179.159123
  0
LINE
  8
CSLAYER1
  6
CONTINUOUS
 62
     6
 10
215.885661
 20
179.159123
 11
241.885661
 21
179.159123
  0
LINE
  8
CSLAYER1
  6
CONTINUOUS
 62
     6
 10
241.885661
 20
181.159123
 11
215.885661
 21
181.159123
  0
LINE
  8
CSLAYER1
  6
CONTINUOUS
 62
     6
 10
215.885661
 20
181.159123
 11
215.885661
 21
177.159123
  0
LINE
  8
CSLAYER1
  6
CONTINUOUS
 62
     6
 10
215.885661
 20
177.159123
 11
202.885661
 21
177.159123
  0
ARC
  8
CSLAYER1
  6
CONTINUOUS
 62
     6
 10
197.135661
 20
176.503512
 40
2.500000
 50
59.999995
 51
119.999990
  0
ARC
  8
CSLAYER1
  6
CONTINUOUS
 62
     6
 10
194.635661
 20
176.503512
 40
2.500000
 50
59.999995
 51
119.999990
  0
ARC
  8
CSLAYER1
  6
CONTINUOUS
 62
     6
 10
182.117473
 20
177.276721
 40
11.353822
 50
-34.633120
 51
7.041553
  0
LINE
  8
CSLAYER1
  6
CONTINUOUS
 62
     6
 10
191.459498
 20
170.824130
 11
195.551982
 21
167.997424
  0
ARC
  8
CSLAYER1
  6
CONTINUOUS
 62
     6
 10
182.117473
 20
177.276721
 40
16.327621
 50
-34.633093
 51
4.890180
  0
ARC
  8
CSLAYER1
  6
CONTINUOUS
 62
     6
 10
197.135661
 20
178.875262
 40
2.500000
 50
60.000002
 51
120.000003
  0
ARC
  8
CSLAYER1
  6
CONTINUOUS
 62
     6
 10
197.135661
 20
183.205401
 40
2.500000
 50
240.000007
 51
299.999995
  0
LINE
  8
CSLAYER1
  6
CONTINUOUS
 62
     6
 10
198.385661
 20
181.040331
 11
198.385661
 21
195.869383
  0
LINE
  8
CSLAYER1
  6
CONTINUOUS
 62
     6
 10
198.950309
 20
193.659123
 11
201.885661
 21
193.659123
  0
LINE
  8
CSLAYER1
  6
CONTINUOUS
 62
     6
 10
201.135661
 20
195.553539
 11
201.135661
 21
196.877383
  0
LINE
  8
CSLAYER1
  6
CONTINUOUS
 62
     6
 10
193.385661
 20
195.869383
 11
193.385661
 21
181.040331
  0
ARC
  8
CSLAYER1
  6
CONTINUOUS
 62
     6
 10
194.635661
 20
183.205401
 40
2.500000
 50
240.000007
 51
299.999995
  0
ARC
  8
CSLAYER1
  6
CONTINUOUS
 62
     6
 10
194.635661
 20
180.833651
 40
2.500000
 50
240.000007
 51
299.999995
  0
LINE
  8
CSLAYER1
  6
CONTINUOUS
 62
     6
 10
192.141566
 20
170.352999
 11
189.782008
 21
168.064089
  0
LINE
  8
CSLAYER1
  6
CONTINUOUS
 62
     6
 10
190.011531
 20
167.605044
 11
189.191829
 21
167.047640
  0
LINE
  8
CSLAYER1
  6
CONTINUOUS
 62
     6
 10
189.355769
 20
166.686968
 11
190.339427
 21
167.572268
  0
LINE
  8
CSLAYER1
  6
CONTINUOUS
 62
     6
 10
190.667323
 20
167.342745
 11
192.823634
 21
169.881884
  0
LINE
  8
CSLAYER1
  6
CONTINUOUS
 62
     6
 10
193.505733
 20
169.410769
 11
191.650981
 21
166.785326
  0
LINE
  8
CSLAYER1
  6
CONTINUOUS
 62
     6
 10
191.257518
 20
166.850909
 11
190.536159
 21
166.031191
  0
LINE
  8
CSLAYER1
  6
CONTINUOUS
 62
     6
 10
190.044337
 20
166.260714
 11
190.962413
 21
167.047640
  0
LINE
  8
CSLAYER1
  6
CONTINUOUS
 62
     6
 10
192.273967
 20
166.391863
 11
191.454249
 21
165.440981
  0
LINE
  8
CSLAYER1
  6
CONTINUOUS
 62
     6
 10
192.503490
 20
165.932818
 11
194.187800
 21
168.939654
  0
LINE
  8
CSLAYER1
  6
CONTINUOUS
 62
     6
 10
194.869899
 20
168.468539
 11
193.651103
 21
165.539355
  0
LINE
  8
CSLAYER1
  6
CONTINUOUS
 62
     6
 10
193.060908
 20
165.637728
 11
192.733012
 21
164.686831
  0
LINE
  8
CSLAYER1
  6
CONTINUOUS
 62
     6
 10
215.629388
 20
168.429905
 11
215.732342
 21
168.470206
  0
LINE
  8
CSLAYER1
  6
CONTINUOUS
 62
     6
 10
215.732342
 20
168.470206
 11
215.835110
 21
168.510783
  0
LINE
  8
CSLAYER1
  6
CONTINUOUS
 62
     6
 10
215.835110
 20
168.510783
 11
215.937507
 21
168.551909
  0
LINE
  8
CSLAYER1
  6
CONTINUOUS
 62
     6
 10
215.937507
 20
168.551909
 11
216.039346
 21
168.593861
  0
LINE
  8
CSLAYER1
  6
CONTINUOUS
 62
     6
 10
216.039346
 20
168.593861
 11
216.140442
 21
168.636912
  0
LINE
  8
CSLAYER1
  6
CONTINUOUS
 62
     6
 10
216.140442
 20
168.636912
 11
216.240608
 21
168.681338
  0
LINE
  8
CSLAYER1
  6
CONTINUOUS
 62
     6
 10
216.240608
 20
168.681338
 11
216.339660
 21
168.727415
  0
LINE
  8
CSLAYER1
  6
CONTINUOUS
 62
     6
 10
216.339660
 20
168.727415
 11
216.437411
 21
168.775416
  0
LINE
  8
CSLAYER1
  6
CONTINUOUS
 62
     6
 10
216.437411
 20
168.775416
 11
216.533676
 21
168.825617
  0
LINE
  8
CSLAYER1
  6
CONTINUOUS
 62
     6
 10
216.533676
 20
168.825617
 11
216.628268
 21
168.878294
  0
LINE
  8
CSLAYER1
  6
CONTINUOUS
 62
     6
 10
216.628268
 20
168.878294
 11
216.721002
 21
168.933720
  0
LINE
  8
CSLAYER1
  6
CONTINUOUS
 62
     6
 10
216.721002
 20
168.933720
 11
216.891285
 21
169.046253
  0
LINE
  8
CSLAYER1
  6
CONTINUOUS
 62
     6
 10
216.891285
 20
169.046253
 11
217.057589
 21
169.169193
  0
LINE
  8
CSLAYER1
  6
CONTINUOUS
 62
     6
 10
217.057589
 20
169.169193
 11
217.219813
 21
169.300983
  0
LINE
  8
CSLAYER1
  6
CONTINUOUS
 62
     6
 10
217.219813
 20
169.300983
 11
217.377854
 21
169.440068
  0
LINE
  8
CSLAYER1
  6
CONTINUOUS
 62
     6
 10
217.377854
 20
169.440068
 11
217.531610
 21
169.584892
  0
LINE
  8
CSLAYER1
  6
CONTINUOUS
 62
     6
 10
217.531610
 20
169.584892
 11
217.680981
 21
169.733899
  0
LINE
  8
CSLAYER1
  6
CONTINUOUS
 62
     6
 10
217.680981
 20
169.733899
 11
217.825864
 21
169.885532
  0
LINE
  8
CSLAYER1
  6
CONTINUOUS
 62
     6
 10
217.825864
 20
169.885532
 11
217.966157
 21
170.038237
  0
LINE
  8
CSLAYER1
  6
CONTINUOUS
 62
     6
 10
217.966157
 20
170.038237
 11
218.101760
 21
170.190457
  0
LINE
  8
CSLAYER1
  6
CONTINUOUS
 62
     6
 10
218.101760
 20
170.190457
 11
218.232569
 21
170.340635
  0
LINE
  8
CSLAYER1
  6
CONTINUOUS
 62
     6
 10
218.232569
 20
170.340635
 11
218.358484
 21
170.487217
  0
LINE
  8
CSLAYER1
  6
CONTINUOUS
 62
     6
 10
218.358484
 20
170.487217
 11
218.497012
 21
170.643407
  0
LINE
  8
CSLAYER1
  6
CONTINUOUS
 62
     6
 10
218.497012
 20
170.643407
 11
218.645028
 21
170.800583
  0
LINE
  8
CSLAYER1
  6
CONTINUOUS
 62
     6
 10
218.645028
 20
170.800583
 11
218.800567
 21
170.958435
  0
LINE
  8
CSLAYER1
  6
CONTINUOUS
 62
     6
 10
218.800567
 20
170.958435
 11
218.961664
 21
171.116655
  0
LINE
  8
CSLAYER1
  6
CONTINUOUS
 62
     6
 10
218.961664
 20
171.116655
 11
219.126354
 21
171.274935
  0
LINE
  8
CSLAYER1
  6
CONTINUOUS
 62
     6
 10
219.126354
 20
171.274935
 11
219.292672
 21
171.432966
  0
LINE
  8
CSLAYER1
  6
CONTINUOUS
 62
     6
 10
219.292672
 20
171.432966
 11
219.458652
 21
171.590440
  0
LINE
  8
CSLAYER1
  6
CONTINUOUS
 62
     6
 10
219.458652
 20
171.590440
 11
219.622329
 21
171.747048
  0
LINE
  8
CSLAYER1
  6
CONTINUOUS
 62
     6
 10
219.622329
 20
171.747048
 11
219.781738
 21
171.902481
  0
LINE
  8
CSLAYER1
  6
CONTINUOUS
 62
     6
 10
219.781738
 20
171.902481
 11
219.934913
 21
172.056432
  0
LINE
  8
CSLAYER1
  6
CONTINUOUS
 62
     6
 10
219.934913
 20
172.056432
 11
220.079889
 21
172.208592
  0
LINE
  8
CSLAYER1
  6
CONTINUOUS
 62
     6
 10
220.079889
 20
172.208592
 11
220.202104
 21
172.341021
  0
LINE
  8
CSLAYER1
  6
CONTINUOUS
 62
     6
 10
220.202104
 20
172.341021
 11
220.327703
 21
172.478671
  0
LINE
  8
CSLAYER1
  6
CONTINUOUS
 62
     6
 10
220.327703
 20
172.478671
 11
220.455552
 21
172.620643
  0
LINE
  8
CSLAYER1
  6
CONTINUOUS
 62
     6
 10
220.455552
 20
172.620643
 11
220.584519
 21
172.766038
  0
LINE
  8
CSLAYER1
  6
CONTINUOUS
 62
     6
 10
220.584519
 20
172.766038
 11
220.713472
 21
172.913956
  0
LINE
  8
CSLAYER1
  6
CONTINUOUS
 62
     6
 10
220.713472
 20
172.913956
 11
220.841277
 21
173.063499
  0
LINE
  8
CSLAYER1
  6
CONTINUOUS
 62
     6
 10
220.841277
 20
173.063499
 11
220.966803
 21
173.213767
  0
LINE
  8
CSLAYER1
  6
CONTINUOUS
 62
     6
 10
220.966803
 20
173.213767
 11
221.088917
 21
173.363861
  0
LINE
  8
CSLAYER1
  6
CONTINUOUS
 62
     6
 10
221.088917
 20
173.363861
 11
221.206485
 21
173.512883
  0
LINE
  8
CSLAYER1
  6
CONTINUOUS
 62
     6
 10
221.206485
 20
173.512883
 11
221.318376
 21
173.659933
  0
LINE
  8
CSLAYER1
  6
CONTINUOUS
 62
     6
 10
221.318376
 20
173.659933
 11
221.423456
 21
173.804112
  0
LINE
  8
CSLAYER1
  6
CONTINUOUS
 62
     6
 10
221.423456
 20
173.804112
 11
221.551701
 21
173.986326
  0
LINE
  8
CSLAYER1
  6
CONTINUOUS
 62
     6
 10
221.551701
 20
173.986326
 11
221.684232
 21
174.178351
  0
LINE
  8
CSLAYER1
  6
CONTINUOUS
 62
     6
 10
221.684232
 20
174.178351
 11
221.819468
 21
174.378001
  0
LINE
  8
CSLAYER1
  6
CONTINUOUS
 62
     6
 10
221.819468
 20
174.378001
 11
221.955829
 21
174.583088
  0
LINE
  8
CSLAYER1
  6
CONTINUOUS
 62
     6
 10
221.955829
 20
174.583088
 11
222.091731
 21
174.791428
  0
LINE
  8
CSLAYER1
  6
CONTINUOUS
 62
     6
 10
222.091731
 20
174.791428
 11
222.225593
 21
175.000834
  0
LINE
  8
CSLAYER1
  6
CONTINUOUS
 62
     6
 10
222.225593
 20
175.000834
 11
222.355835
 21
175.209119
  0
LINE
  8
CSLAYER1
  6
CONTINUOUS
 62
     6
 10
222.355835
 20
175.209119
 11
222.480873
 21
175.414099
  0
LINE
  8
CSLAYER1
  6
CONTINUOUS
 62
     6
 10
222.480873
 20
175.414099
 11
222.599127
 21
175.613586
  0
LINE
  8
CSLAYER1
  6
CONTINUOUS
 62
     6
 10
222.599127
 20
175.613586
 11
222.709014
 21
175.805395
  0
LINE
  8
CSLAYER1
  6
CONTINUOUS
 62
     6
 10
222.709014
 20
175.805395
 11
222.757261
 21
175.893229
  0
LINE
  8
CSLAYER1
  6
CONTINUOUS
 62
     6
 10
222.753154
 20
175.870326
 11
222.692125
 21
175.557015
  0
LINE
  8
CSLAYER1
  6
CONTINUOUS
 62
     6
 10
222.692125
 20
175.557015
 11
222.625768
 21
175.237927
  0
LINE
  8
CSLAYER1
  6
CONTINUOUS
 62
     6
 10
222.625768
 20
175.237927
 11
222.555216
 21
174.916316
  0
LINE
  8
CSLAYER1
  6
CONTINUOUS
 62
     6
 10
222.555216
 20
174.916316
 11
222.481600
 21
174.595434
  0
LINE
  8
CSLAYER1
  6
CONTINUOUS
 62
     6
 10
222.481600
 20
174.595434
 11
222.406054
 21
174.278534
  0
LINE
  8
CSLAYER1
  6
CONTINUOUS
 62
     6
 10
222.406054
 20
174.278534
 11
222.329710
 21
173.968869
  0
LINE
  8
CSLAYER1
  6
CONTINUOUS
 62
     6
 10
222.329710
 20
173.968869
 11
222.253702
 21
173.669690
  0
LINE
  8
CSLAYER1
  6
CONTINUOUS
 62
     6
 10
222.253702
 20
173.669690
 11
222.179162
 21
173.384251
  0
LINE
  8
CSLAYER1
  6
CONTINUOUS
 62
     6
 10
222.179162
 20
173.384251
 11
222.103692
 21
173.114758
  0
LINE
  8
CSLAYER1
  6
CONTINUOUS
 62
     6
 10
222.103692
 20
173.114758
 11
222.018846
 21
172.840043
  0
LINE
  8
CSLAYER1
  6
CONTINUOUS
 62
     6
 10
222.018846
 20
172.840043
 11
221.925401
 21
172.561237
  0
LINE
  8
CSLAYER1
  6
CONTINUOUS
 62
     6
 10
221.925401
 20
172.561237
 11
221.824136
 21
172.279472
  0
LINE
  8
CSLAYER1
  6
CONTINUOUS
 62
     6
 10
221.824136
 20
172.279472
 11
221.715827
 21
171.995879
  0
LINE
  8
CSLAYER1
  6
CONTINUOUS
 62
     6
 10
221.715827
 20
171.995879
 11
221.601252
 21
171.711589
  0
LINE
  8
CSLAYER1
  6
CONTINUOUS
 62
     6
 10
221.601252
 20
171.711589
 11
221.481189
 21
171.427733
  0
LINE
  8
CSLAYER1
  6
CONTINUOUS
 62
     6
 10
221.481189
 20
171.427733
 11
221.356415
 21
171.145443
  0
LINE
  8
CSLAYER1
  6
CONTINUOUS
 62
     6
 10
221.356415
 20
171.145443
 11
221.227707
 21
170.865850
  0
LINE
  8
CSLAYER1
  6
CONTINUOUS
 62
     6
 10
221.227707
 20
170.865850
 11
221.095844
 21
170.590085
  0
LINE
  8
CSLAYER1
  6
CONTINUOUS
 62
     6
 10
221.095844
 20
170.590085
 11
220.961603
 21
170.319279
  0
LINE
  8
CSLAYER1
  6
CONTINUOUS
 62
     6
 10
220.961603
 20
170.319279
 11
220.841458
 21
170.084851
  0
LINE
  8
CSLAYER1
  6
CONTINUOUS
 62
     6
 10
220.841458
 20
170.084851
 11
220.718561
 21
169.851970
  0
LINE
  8
CSLAYER1
  6
CONTINUOUS
 62
     6
 10
220.718561
 20
169.851970
 11
220.593187
 21
169.620480
  0
LINE
  8
CSLAYER1
  6
CONTINUOUS
 62
     6
 10
220.593187
 20
169.620480
 11
220.465611
 21
169.390228
  0
LINE
  8
CSLAYER1
  6
CONTINUOUS
 62
     6
 10
220.465611
 20
169.390228
 11
220.336109
 21
169.161058
  0
LINE
  8
CSLAYER1
  6
CONTINUOUS
 62
     6
 10
220.336109
 20
169.161058
 11
220.204956
 21
168.932816
  0
LINE
  8
CSLAYER1
  6
CONTINUOUS
 62
     6
 10
220.204956
 20
168.932816
 11
220.072426
 21
168.705348
  0
LINE
  8
CSLAYER1
  6
CONTINUOUS
 62
     6
 10
220.072426
 20
168.705348
 11
219.938796
 21
168.478498
  0
LINE
  8
CSLAYER1
  6
CONTINUOUS
 62
     6
 10
219.938796
 20
168.478498
 11
219.804339
 21
168.252112
  0
LINE
  8
CSLAYER1
  6
CONTINUOUS
 62
     6
 10
219.804339
 20
168.252112
 11
219.669333
 21
168.026036
  0
LINE
  8
CSLAYER1
  6
CONTINUOUS
 62
     6
 10
219.669333
 20
168.026036
 11
219.534051
 21
167.800114
  0
ARC
  8
CSLAYER1
  6
CONTINUOUS
 62
     6
 10
220.568454
 20
168.408469
 40
1.200008
 50
210.461486
 51
270.461486
  0
ARC
  8
CSLAYER1
  6
CONTINUOUS
 62
     6
 10
221.612490
 20
167.816855
 40
1.200008
 50
210.461486
 51
270.461486
  0
ARC
  8
CSLAYER1
  6
CONTINUOUS
 62
     6
 10
220.587785
 20
166.008531
 40
1.200008
 50
30.461486
 51
90.461486
  0
LINE
  8
CSLAYER1
  6
CONTINUOUS
 62
     6
 10
221.622156
 20
166.616887
 11
221.764942
 21
166.855783
  0
LINE
  8
CSLAYER1
  6
CONTINUOUS
 62
     6
 10
221.764942
 20
166.855783
 11
221.907447
 21
167.094837
  0
LINE
  8
CSLAYER1
  6
CONTINUOUS
 62
     6
 10
221.907447
 20
167.094837
 11
222.049391
 21
167.334209
  0
LINE
  8
CSLAYER1
  6
CONTINUOUS
 62
     6
 10
222.049391
 20
167.334209
 11
222.190493
 21
167.574056
  0
LINE
  8
CSLAYER1
  6
CONTINUOUS
 62
     6
 10
222.190493
 20
167.574056
 11
222.330471
 21
167.814538
  0
LINE
  8
CSLAYER1
  6
CONTINUOUS
 62
     6
 10
222.330471
 20
167.814538
 11
222.469046
 21
168.055813
  0
LINE
  8
CSLAYER1
  6
CONTINUOUS
 62
     6
 10
222.469046
 20
168.055813
 11
222.605936
 21
168.298040
  0
LINE
  8
CSLAYER1
  6
CONTINUOUS
 62
     6
 10
222.605936
 20
168.298040
 11
222.740861
 21
168.541377
  0
LINE
  8
CSLAYER1
  6
CONTINUOUS
 62
     6
 10
222.740861
 20
168.541377
 11
222.873540
 21
168.785983
  0
LINE
  8
CSLAYER1
  6
CONTINUOUS
 62
     6
 10
222.873540
 20
168.785983
 11
223.003692
 21
169.032017
  0
LINE
  8
CSLAYER1
  6
CONTINUOUS
 62
     6
 10
223.003692
 20
169.032017
 11
223.131036
 21
169.279637
  0
LINE
  8
CSLAYER1
  6
CONTINUOUS
 62
     6
 10
223.131036
 20
169.279637
 11
223.280710
 21
169.580458
  0
LINE
  8
CSLAYER1
  6
CONTINUOUS
 62
     6
 10
223.280710
 20
169.580458
 11
223.427665
 21
169.886840
  0
LINE
  8
CSLAYER1
  6
CONTINUOUS
 62
     6
 10
223.427665
 20
169.886840
 11
223.571032
 21
170.197522
  0
LINE
  8
CSLAYER1
  6
CONTINUOUS
 62
     6
 10
223.571032
 20
170.197522
 11
223.709941
 21
170.511246
  0
LINE
  8
CSLAYER1
  6
CONTINUOUS
 62
     6
 10
223.709941
 20
170.511246
 11
223.843523
 21
170.826752
  0
LINE
  8
CSLAYER1
  6
CONTINUOUS
 62
     6
 10
223.843523
 20
170.826752
 11
223.970910
 21
171.142780
  0
LINE
  8
CSLAYER1
  6
CONTINUOUS
 62
     6
 10
223.970910
 20
171.142780
 11
224.091232
 21
171.458071
  0
LINE
  8
CSLAYER1
  6
CONTINUOUS
 62
     6
 10
224.091232
 20
171.458071
 11
224.203620
 21
171.771367
  0
LINE
  8
CSLAYER1
  6
CONTINUOUS
 62
     6
 10
224.203620
 20
171.771367
 11
224.307206
 21
172.081406
  0
LINE
  8
CSLAYER1
  6
CONTINUOUS
 62
     6
 10
224.307206
 20
172.081406
 11
224.401119
 21
172.386930
  0
LINE
  8
CSLAYER1
  6
CONTINUOUS
 62
     6
 10
224.401119
 20
172.386930
 11
224.484491
 21
172.686680
  0
LINE
  8
CSLAYER1
  6
CONTINUOUS
 62
     6
 10
224.484491
 20
172.686680
 11
224.562908
 21
172.989097
  0
LINE
  8
CSLAYER1
  6
CONTINUOUS
 62
     6
 10
224.562908
 20
172.989097
 11
224.642973
 21
173.305898
  0
LINE
  8
CSLAYER1
  6
CONTINUOUS
 62
     6
 10
224.642973
 20
173.305898
 11
224.723489
 21
173.633689
  0
LINE
  8
CSLAYER1
  6
CONTINUOUS
 62
     6
 10
224.723489
 20
173.633689
 11
224.803263
 21
173.969075
  0
LINE
  8
CSLAYER1
  6
CONTINUOUS
 62
     6
 10
224.803263
 20
173.969075
 11
224.881099
 21
174.308659
  0
LINE
  8
CSLAYER1
  6
CONTINUOUS
 62
     6
 10
224.881099
 20
174.308659
 11
224.955802
 21
174.649046
  0
LINE
  8
CSLAYER1
  6
CONTINUOUS
 62
     6
 10
224.955802
 20
174.649046
 11
225.026178
 21
174.986843
  0
LINE
  8
CSLAYER1
  6
CONTINUOUS
 62
     6
 10
225.026178
 20
174.986843
 11
225.091031
 21
175.318652
  0
LINE
  8
CSLAYER1
  6
CONTINUOUS
 62
     6
 10
225.091031
 20
175.318652
 11
225.149166
 21
175.641079
  0
LINE
  8
CSLAYER1
  6
CONTINUOUS
 62
     6
 10
225.149166
 20
175.641079
 11
225.314284
 21
176.659123
  0
LINE
  8
CSLAYER1
  6
CONTINUOUS
 62
     6
 10
226.209758
 20
177.611882
 11
226.154674
 21
178.241704
  0
ARC
  8
CSLAYER1
  6
CONTINUOUS
 62
     6
 10
226.353923
 20
178.259129
 40
0.200000
 50
90.000003
 51
185.000154
  0
ARC
  8
CSLAYER1
  6
CONTINUOUS
 62
     6
 10
226.085673
 20
178.559117
 40
0.100000
 50
180.000005
 51
270.000001
  0
LINE
  8
CSLAYER1
  6
CONTINUOUS
 62
     6
 10
225.985637
 20
178.559117
 11
225.985637
 21
179.059117
  0
ARC
  8
CSLAYER1
  6
CONTINUOUS
 62
     6
 10
226.085673
 20
179.059117
 40
0.100000
 50
90.000003
 51
180.000005
  0
LINE
  8
CSLAYER1
  6
CONTINUOUS
 62
     6
 10
226.085673
 20
178.459111
 11
228.885661
 21
178.459111
  0
LINE
  8
CSLAYER1
  6
CONTINUOUS
 62
     6
 10
228.885661
 20
178.459111
 11
231.685649
 21
178.459141
  0
ARC
  8
CSLAYER1
  6
CONTINUOUS
 62
     6
 10
231.685649
 20
178.559117
 40
0.100000
 50
270.000001
 51
359.942691
  0
LINE
  8
CSLAYER1
  6
CONTINUOUS
 62
     6
 10
231.785625
 20
178.559117
 11
231.785625
 21
179.059117
  0
ARC
  8
CSLAYER1
  6
CONTINUOUS
 62
     6
 10
231.685649
 20
179.059117
 40
0.100000
 50
0.000010
 51
90.000016
  0
ARC
  8
CSLAYER1
  6
CONTINUOUS
 62
     6
 10
231.417399
 20
178.259129
 40
0.200000
 50
-5.000126
 51
90.000019
  0
LINE
  8
CSLAYER1
  6
CONTINUOUS
 62
     6
 10
231.616618
 20
178.241704
 11
231.561503
 21
177.611882
  0
ARC
  8
CSLAYER1
  6
CONTINUOUS
 62
     6
 10
230.565318
 20
177.699040
 40
1.000000
 50
286.257408
 51
354.999902
  0
ARC
  8
CSLAYER1
  6
CONTINUOUS
 62
     6
 10
228.885661
 20
183.459111
 40
7.000000
 50
253.743003
 51
286.257026
  0
ARC
  8
CSLAYER1
  6
CONTINUOUS
 62
     6
 10
227.205974
 20
177.699040
 40
1.000000
 50
185.000113
 51
253.742620
  0
LINE
  8
CSLAYER1
  6
CONTINUOUS
 62
     6
 10
227.224286
 20
176.659123
 11
218.135661
 21
176.659123
  0
LINE
  8
CSLAYER1
  6
CONTINUOUS
 62
     6
 10
222.753154
 20
175.870326
 11
222.807720
 21
176.174609
  0
LINE
  8
CSLAYER1
  6
CONTINUOUS
 62
     6
 10
222.807720
 20
176.174609
 11
222.885661
 21
176.659123
  0
LINE
  8
CSLAYER1
  6
CONTINUOUS
 62
     6
 10
228.537700
 20
179.159123
 11
228.981578
 21
178.459141
  0
LINE
  8
CSLAYER1
  6
CONTINUOUS
 62
     6
 10
229.481578
 20
178.459141
 11
229.037700
 21
179.159123
  0
LINE
  8
CSLAYER1
  6
CONTINUOUS
 62
     6
 10
241.885661
 20
181.159123
 11
241.885661
 21
177.159123
  0
LINE
  8
CSLAYER1
  6
CONTINUOUS
 62
     6
 10
241.885661
 20
177.159123
 11
254.885661
 21
177.159123
  0
LINE
  8
CSLAYER1
  6
CONTINUOUS
 62
     6
 10
251.885661
 20
195.159123
 11
215.885661
 21
195.159123
  0
ARC
  8
CSLAYER1
  6
CONTINUOUS
 62
     6
 10
215.885661
 20
196.159123
 40
1.000000
 50
179.999995
 51
269.999984
  0
LINE
  8
CSLAYER1
  6
CONTINUOUS
 62
     6
 10
214.885661
 20
196.159123
 11
214.885661
 21
197.159123
  0
ARC
  8
CSLAYER1
  6
CONTINUOUS
 62
     6
 10
215.885661
 20
197.159123
 40
1.000000
 50
89.999999
 51
179.999981
  0
LINE
  8
CSLAYER1
  6
CONTINUOUS
 62
     6
 10
215.885661
 20
198.159123
 11
251.885661
 21
198.159123
  0
ARC
  8
CSLAYER1
  6
CONTINUOUS
 62
     6
 10
251.885661
 20
197.159123
 40
1.000000
 50
0.057309
 51
89.999999
  0
LINE
  8
CSLAYER1
  6
CONTINUOUS
 62
     6
 10
252.885661
 20
197.159123
 11
252.885661
 21
196.159123
  0
ARC
  8
CSLAYER1
  6
CONTINUOUS
 62
     6
 10
251.885661
 20
196.159123
 40
1.000000
 50
269.999997
 51
360.000000
  0
LINE
  8
CSLAYER1
  6
CONTINUOUS
 62
     6
 10
192.821013
 20
193.659123
 11
178.885661
 21
193.659123
  0
ARC
  8
CSLAYER1
  6
CONTINUOUS
 62
     6
 10
178.885661
 20
195.659123
 40
2.000000
 50
180.000000
 51
270.000000
  0
LINE
  8
CSLAYER1
  6
CONTINUOUS
 62
     6
 10
190.635661
 20
195.553539
 11
190.635661
 21
196.877383
  0
LINE
  8
CSLAYER1
  6
CONTINUOUS
 62
     6
 10
383.885661
 20
215.159123
 11
420.885661
 21
215.159123
  0
LINE
  8
CSLAYER1
  6
CONTINUOUS
 62
     6
 10
420.885661
 20
215.159123
 11
420.885661
 21
227.159123
  0
LINE
  8
CSLAYER1
  6
CONTINUOUS
 62
     6
 10
420.885661
 20
227.159123
 11
383.885661
 21
227.159123
  0
ARC
  8
CSLAYER1
  6
CONTINUOUS
 62
     6
 10
464.474454
 20
263.659123
 40
7.500000
 50
90.000000
 51
180.000000
  0
LINE
  8
CSLAYER1
  6
CONTINUOUS
 62
     6
 10
464.474454
 20
271.159123
 11
549.474454
 21
271.159123
  0
ARC
  8
CSLAYER1
  6
CONTINUOUS
 62
     6
 10
549.474454
 20
263.659123
 40
7.500000
 50
0.000000
 51
90.000000
  0
LINE
  8
CSLAYER1
  6
CONTINUOUS
 62
     6
 10
556.974454
 20
263.659123
 11
556.974454
 21
178.659123
  0
ARC
  8
CSLAYER1
  6
CONTINUOUS
 62
     6
 10
549.474454
 20
178.659123
 40
7.500000
 50
270.000000
 51
360.000000
  0
LINE
  8
CSLAYER1
  6
CONTINUOUS
 62
     6
 10
549.474454
 20
171.159123
 11
464.474454
 21
171.159123
  0
ARC
  8
CSLAYER1
  6
CONTINUOUS
 62
     6
 10
464.474454
 20
178.659123
 40
7.500000
 50
180.000000
 51
270.000000
  0
LINE
  8
CSLAYER1
  6
CONTINUOUS
 62
     6
 10
456.974454
 20
178.659123
 11
456.974454
 21
263.659123
  0
CIRCLE
  8
CSLAYER1
  6
CONTINUOUS
 62
     6
 10
464.474454
 20
263.659123
 40
3.500000
  0
ARC
  8
CSLAYER1
  6
CONTINUOUS
 62
     6
 10
506.974448
 20
258.159146
 40
2.916667
 50
163.398416
 51
196.601577
  0
LINE
  8
CSLAYER1
  6
CONTINUOUS
 62
     6
 10
504.179376
 20
257.325803
 11
505.307761
 21
257.325803
  0
ARC
  8
CSLAYER1
  6
CONTINUOUS
 62
     6
 10
505.307761
 20
256.492503
 40
0.833333
 50
0.000005
 51
89.942654
  0
LINE
  8
CSLAYER1
  6
CONTINUOUS
 62
     6
 10
506.141104
 20
256.492503
 11
506.141104
 21
255.364031
  0
ARC
  8
CSLAYER1
  6
CONTINUOUS
 62
     6
 10
506.974448
 20
258.159146
 40
2.916667
 50
253.398422
 51
286.601583
  0
LINE
  8
CSLAYER1
  6
CONTINUOUS
 62
     6
 10
507.807791
 20
255.364031
 11
507.807791
 21
256.492503
  0
ARC
  8
CSLAYER1
  6
CONTINUOUS
 62
     6
 10
508.641135
 20
256.492503
 40
0.833333
 50
90.000001
 51
179.942691
  0
LINE
  8
CSLAYER1
  6
CONTINUOUS
 62
     6
 10
508.641135
 20
257.325803
 11
509.769520
 21
257.325803
  0
ARC
  8
CSLAYER1
  6
CONTINUOUS
 62
     6
 10
506.974448
 20
258.159146
 40
2.916667
 50
-16.601562
 51
16.601572
  0
LINE
  8
CSLAYER1
  6
CONTINUOUS
 62
     6
 10
509.769520
 20
258.992490
 11
508.641135
 21
258.992490
  0
ARC
  8
CSLAYER1
  6
CONTINUOUS
 62
     6
 10
508.641135
 20
259.825790
 40
0.833333
 50
180.000010
 51
270.000016
  0
LINE
  8
CSLAYER1
  6
CONTINUOUS
 62
     6
 10
507.807791
 20
259.825790
 11
507.807791
 21
260.954262
  0
ARC
  8
CSLAYER1
  6
CONTINUOUS
 62
     6
 10
506.974448
 20
258.159146
 40
2.916667
 50
73.398406
 51
106.601595
  0
LINE
  8
CSLAYER1
  6
CONTINUOUS
 62
     6
 10
506.141104
 20
260.954262
 11
506.141104
 21
259.825790
  0
ARC
  8
CSLAYER1
  6
CONTINUOUS
 62
     6
 10
505.307761
 20
259.825790
 40
0.833333
 50
-89.999984
 51
0.000005
  0
LINE
  8
CSLAYER1
  6
CONTINUOUS
 62
     6
 10
505.307761
 20
258.992490
 11
504.179376
 21
258.992490
  0
CIRCLE
  8
CSLAYER1
  6
CONTINUOUS
 62
     6
 10
506.974454
 20
258.159123
 40
7.500000
  0
CIRCLE
  8
CSLAYER1
  6
CONTINUOUS
 62
     6
 10
506.974467
 20
258.159145
 40
5.250000
  0
ARC
  8
CSLAYER1
  6
CONTINUOUS
 62
     6
 10
506.974454
 20
221.159123
 40
30.000000
 50
-85.368215
 51
85.368215
  0
LINE
  8
CSLAYER1
  6
CONTINUOUS
 62
     6
 10
507.807791
 20
186.954215
 11
507.807791
 21
185.825743
  0
ARC
  8
CSLAYER1
  6
CONTINUOUS
 62
     6
 10
508.641135
 20
185.825743
 40
0.833333
 50
180.057309
 51
269.999999
  0
LINE
  8
CSLAYER1
  6
CONTINUOUS
 62
     6
 10
508.641135
 20
184.992443
 11
509.769520
 21
184.992443
  0
ARC
  8
CSLAYER1
  6
CONTINUOUS
 62
     6
 10
506.974448
 20
184.159099
 40
2.916667
 50
-16.601572
 51
16.601562
  0
LINE
  8
CSLAYER1
  6
CONTINUOUS
 62
     6
 10
509.769520
 20
183.325756
 11
508.641135
 21
183.325756
  0
ARC
  8
CSLAYER1
  6
CONTINUOUS
 62
     6
 10
508.641135
 20
182.492456
 40
0.833333
 50
89.999984
 51
179.999990
  0
LINE
  8
CSLAYER1
  6
CONTINUOUS
 62
     6
 10
507.807791
 20
182.492456
 11
507.807791
 21
181.363984
  0
ARC
  8
CSLAYER1
  6
CONTINUOUS
 62
     6
 10
506.974448
 20
184.159099
 40
2.916667
 50
253.398405
 51
286.601594
  0
LINE
  8
CSLAYER1
  6
CONTINUOUS
 62
     6
 10
506.141104
 20
181.363984
 11
506.141104
 21
182.492456
  0
ARC
  8
CSLAYER1
  6
CONTINUOUS
 62
     6
 10
505.307761
 20
182.492456
 40
0.833333
 50
-0.000005
 51
89.999984
  0
LINE
  8
CSLAYER1
  6
CONTINUOUS
 62
     6
 10
505.307761
 20
183.325756
 11
504.179376
 21
183.325756
  0
ARC
  8
CSLAYER1
  6
CONTINUOUS
 62
     6
 10
506.974448
 20
184.159099
 40
2.916667
 50
163.398423
 51
196.601584
  0
LINE
  8
CSLAYER1
  6
CONTINUOUS
 62
     6
 10
504.179376
 20
184.992443
 11
505.307761
 21
184.992443
  0
ARC
  8
CSLAYER1
  6
CONTINUOUS
 62
     6
 10
505.307761
 20
185.825743
 40
0.833333
 50
270.057346
 51
359.999995
  0
LINE
  8
CSLAYER1
  6
CONTINUOUS
 62
     6
 10
506.141104
 20
185.825743
 11
506.141104
 21
186.954215
  0
ARC
  8
CSLAYER1
  6
CONTINUOUS
 62
     6
 10
506.974448
 20
184.159099
 40
2.916667
 50
73.398417
 51
106.601578
  0
CIRCLE
  8
CSLAYER1
  6
CONTINUOUS
 62
     6
 10
506.974454
 20
184.159123
 40
7.500000
  0
CIRCLE
  8
CSLAYER1
  6
CONTINUOUS
 62
     6
 10
506.974467
 20
184.159100
 40
5.250000
  0
ARC
  8
CSLAYER1
  6
CONTINUOUS
 62
     6
 10
506.974454
 20
221.159123
 40
30.000000
 50
94.631785
 51
265.368215
  0
CIRCLE
  8
CSLAYER1
  6
CONTINUOUS
 62
     6
 10
506.974454
 20
221.159123
 40
6.000000
  0
CIRCLE
  8
CSLAYER1
  6
CONTINUOUS
 62
     6
 10
506.974454
 20
221.159123
 40
16.000000
  0
CIRCLE
  8
CSLAYER1
  6
CONTINUOUS
 62
     6
 10
506.974454
 20
221.159123
 40
7.500000
  0
ARC
  8
CSLAYER1
  6
CONTINUOUS
 62
     6
 10
516.823648
 20
212.644912
 40
1.454544
 50
230.236329
 51
322.096590
  0
ARC
  8
CSLAYER1
  6
CONTINUOUS
 62
     6
 10
506.974454
 20
220.313126
 40
13.936877
 50
-37.903067
 51
217.903051
  0
ARC
  8
CSLAYER1
  6
CONTINUOUS
 62
     6
 10
497.125248
 20
212.644912
 40
1.454544
 50
217.903413
 51
309.763730
  0
ARC
  8
CSLAYER1
  6
CONTINUOUS
 62
     6
 10
500.049517
 20
209.130605
 40
3.117293
 50
-23.481547
 51
129.764151
  0
LINE
  8
CSLAYER1
  6
CONTINUOUS
 62
     6
 10
502.908659
 20
207.888515
 11
502.287491
 21
205.861027
  0
CIRCLE
  8
CSLAYER1
  6
CONTINUOUS
 62
     6
 10
500.049517
 20
209.130605
 40
1.454544
  0
LINE
  8
CSLAYER1
  6
CONTINUOUS
 62
     6
 10
511.040237
 20
207.888515
 11
511.661405
 21
205.861027
  0
ARC
  8
CSLAYER1
  6
CONTINUOUS
 62
     6
 10
513.899382
 20
209.130605
 40
3.117293
 50
50.235851
 51
203.481549
  0
CIRCLE
  8
CSLAYER1
  6
CONTINUOUS
 62
     6
 10
549.474454
 20
263.659123
 40
3.500000
  0
CIRCLE
  8
CSLAYER1
  6
CONTINUOUS
 62
     6
 10
513.899382
 20
209.130605
 40
1.454544
  0
CIRCLE
  8
CSLAYER1
  6
CONTINUOUS
 62
     6
 10
549.474454
 20
178.659123
 40
3.500000
  0
CIRCLE
  8
CSLAYER1
  6
CONTINUOUS
 62
     6
 10
464.474454
 20
178.659123
 40
3.500000
  0
LINE
  8
CSLAYER1
  6
CONTINUOUS
 62
     6
 10
420.885661
 20
340.159123
 11
420.885661
 21
352.159123
  0
LINE
  8
CSLAYER1
  6
CONTINUOUS
 62
     6
 10
420.885661
 20
352.159123
 11
383.885661
 21
352.159123
  0
LINE
  8
CSLAYER1
  6
CONTINUOUS
 62
     6
 10
383.885661
 20
340.159123
 11
420.885661
 21
340.159123
  0
POLYLINE
  8
CSLAYER1
  6
CONTINUOUS
 62
     6
 66
     1
 10
0.0
 20
0.0
 30
0.0
  0
VERTEX
  8
CSLAYER1
  6
CONTINUOUS
 62
     6
 10
190.635661
 20
195.553539
 30
0.0
  0
VERTEX
  8
CSLAYER1
  6
CONTINUOUS
 62
     6
 10
190.655639
 20
195.350187
 30
0.0
  0
VERTEX
  8
CSLAYER1
  6
CONTINUOUS
 62
     6
 10
190.715420
 20
195.148383
 30
0.0
  0
VERTEX
  8
CSLAYER1
  6
CONTINUOUS
 62
     6
 10
190.814551
 20
194.949662
 30
0.0
  0
VERTEX
  8
CSLAYER1
  6
CONTINUOUS
 62
     6
 10
190.952275
 20
194.755537
 30
0.0
  0
VERTEX
  8
CSLAYER1
  6
CONTINUOUS
 62
     6
 10
191.127545
 20
194.567486
 30
0.0
  0
VERTEX
  8
CSLAYER1
  6
CONTINUOUS
 62
     6
 10
191.339028
 20
194.386939
 30
0.0
  0
VERTEX
  8
CSLAYER1
  6
CONTINUOUS
 62
     6
 10
191.585113
 20
194.215270
 30
0.0
  0
VERTEX
  8
CSLAYER1
  6
CONTINUOUS
 62
     6
 10
191.863928
 20
194.053787
 30
0.0
  0
VERTEX
  8
CSLAYER1
  6
CONTINUOUS
 62
     6
 10
192.173351
 20
193.903717
 30
0.0
  0
VERTEX
  8
CSLAYER1
  6
CONTINUOUS
 62
     6
 10
192.511026
 20
193.766204
 30
0.0
  0
VERTEX
  8
CSLAYER1
  6
CONTINUOUS
 62
     6
 10
192.874385
 20
193.642293
 30
0.0
  0
VERTEX
  8
CSLAYER1
  6
CONTINUOUS
 62
     6
 10
193.260661
 20
193.532928
 30
0.0
  0
VERTEX
  8
CSLAYER1
  6
CONTINUOUS
 62
     6
 10
193.385661
 20
193.501858
 30
0.0
  0
SEQEND
  0
POLYLINE
  8
CSLAYER1
  6
CONTINUOUS
 62
     6
 66
     1
 10
0.0
 20
0.0
 30
0.0
  0
VERTEX
  8
CSLAYER1
  6
CONTINUOUS
 62
     6
 10
198.385661
 20
195.869383
 30
0.0
  0
VERTEX
  8
CSLAYER1
  6
CONTINUOUS
 62
     6
 10
198.376148
 20
195.957236
 30
0.0
  0
VERTEX
  8
CSLAYER1
  6
CONTINUOUS
 62
     6
 10
198.347681
 20
196.044420
 30
0.0
  0
VERTEX
  8
CSLAYER1
  6
CONTINUOUS
 62
     6
 10
198.300476
 20
196.130272
 30
0.0
  0
VERTEX
  8
CSLAYER1
  6
CONTINUOUS
 62
     6
 10
198.234893
 20
196.214139
 30
0.0
  0
VERTEX
  8
CSLAYER1
  6
CONTINUOUS
 62
     6
 10
198.151431
 20
196.295382
 30
0.0
  0
VERTEX
  8
CSLAYER1
  6
CONTINUOUS
 62
     6
 10
198.050725
 20
196.373383
 30
0.0
  0
VERTEX
  8
CSLAYER1
  6
CONTINUOUS
 62
     6
 10
197.933541
 20
196.447548
 30
0.0
  0
VERTEX
  8
CSLAYER1
  6
CONTINUOUS
 62
     6
 10
197.800772
 20
196.517312
 30
0.0
  0
VERTEX
  8
CSLAYER1
  6
CONTINUOUS
 62
     6
 10
197.653428
 20
196.582146
 30
0.0
  0
VERTEX
  8
CSLAYER1
  6
CONTINUOUS
 62
     6
 10
197.492630
 20
196.641555
 30
0.0
  0
VERTEX
  8
CSLAYER1
  6
CONTINUOUS
 62
     6
 10
197.319602
 20
196.695088
 30
0.0
  0
VERTEX
  8
CSLAYER1
  6
CONTINUOUS
 62
     6
 10
197.135661
 20
196.742336
 30
0.0
  0
VERTEX
  8
CSLAYER1
  6
CONTINUOUS
 62
     6
 10
196.942207
 20
196.782941
 30
0.0
  0
VERTEX
  8
CSLAYER1
  6
CONTINUOUS
 62
     6
 10
196.740712
 20
196.816593
 30
0.0
  0
VERTEX
  8
CSLAYER1
  6
CONTINUOUS
 62
     6
 10
196.532709
 20
196.843036
 30
0.0
  0
VERTEX
  8
CSLAYER1
  6
CONTINUOUS
 62
     6
 10
196.319782
 20
196.862069
 30
0.0
  0
VERTEX
  8
CSLAYER1
  6
CONTINUOUS
 62
     6
 10
196.103551
 20
196.873547
 30
0.0
  0
VERTEX
  8
CSLAYER1
  6
CONTINUOUS
 62
     6
 10
195.885661
 20
196.877383
 30
0.0
  0
VERTEX
  8
CSLAYER1
  6
CONTINUOUS
 62
     6
 10
195.667772
 20
196.873547
 30
0.0
  0
VERTEX
  8
CSLAYER1
  6
CONTINUOUS
 62
     6
 10
195.451541
 20
196.862069
 30
0.0
  0
VERTEX
  8
CSLAYER1
  6
CONTINUOUS
 62
     6
 10
195.238614
 20
196.843036
 30
0.0
  0
VERTEX
  8
CSLAYER1
  6
CONTINUOUS
 62
     6
 10
195.030611
 20
196.816593
 30
0.0
  0
VERTEX
  8
CSLAYER1
  6
CONTINUOUS
 62
     6
 10
194.829116
 20
196.782941
 30
0.0
  0
VERTEX
  8
CSLAYER1
  6
CONTINUOUS
 62
     6
 10
194.635661
 20
196.742336
 30
0.0
  0
VERTEX
  8
CSLAYER1
  6
CONTINUOUS
 62
     6
 10
194.451720
 20
196.695088
 30
0.0
  0
VERTEX
  8
CSLAYER1
  6
CONTINUOUS
 62
     6
 10
194.278692
 20
196.641555
 30
0.0
  0
VERTEX
  8
CSLAYER1
  6
CONTINUOUS
 62
     6
 10
194.117894
 20
196.582146
 30
0.0
  0
VERTEX
  8
CSLAYER1
  6
CONTINUOUS
 62
     6
 10
193.970550
 20
196.517312
 30
0.0
  0
VERTEX
  8
CSLAYER1
  6
CONTINUOUS
 62
     6
 10
193.837781
 20
196.447548
 30
0.0
  0
VERTEX
  8
CSLAYER1
  6
CONTINUOUS
 62
     6
 10
193.720598
 20
196.373383
 30
0.0
  0
VERTEX
  8
CSLAYER1
  6
CONTINUOUS
 62
     6
 10
193.619892
 20
196.295382
 30
0.0
  0
VERTEX
  8
CSLAYER1
  6
CONTINUOUS
 62
     6
 10
193.536430
 20
196.214139
 30
0.0
  0
VERTEX
  8
CSLAYER1
  6
CONTINUOUS
 62
     6
 10
193.470847
 20
196.130272
 30
0.0
  0
VERTEX
  8
CSLAYER1
  6
CONTINUOUS
 62
     6
 10
193.423642
 20
196.044420
 30
0.0
  0
VERTEX
  8
CSLAYER1
  6
CONTINUOUS
 62
     6
 10
193.395174
 20
195.957236
 30
0.0
  0
VERTEX
  8
CSLAYER1
  6
CONTINUOUS
 62
     6
 10
193.385661
 20
195.869383
 30
0.0
  0
SEQEND
  0
POLYLINE
  8
CSLAYER1
  6
CONTINUOUS
 62
     6
 66
     1
 10
0.0
 20
0.0
 30
0.0
  0
VERTEX
  8
CSLAYER1
  6
CONTINUOUS
 62
     6
 10
198.385661
 20
193.501858
 30
0.0
  0
VERTEX
  8
CSLAYER1
  6
CONTINUOUS
 62
     6
 10
198.778506
 20
193.606499
 30
0.0
  0
VERTEX
  8
CSLAYER1
  6
CONTINUOUS
 62
     6
 10
199.149335
 20
193.725959
 30
0.0
  0
VERTEX
  8
CSLAYER1
  6
CONTINUOUS
 62
     6
 10
199.495326
 20
193.859327
 30
0.0
  0
VERTEX
  8
CSLAYER1
  6
CONTINUOUS
 62
     6
 10
199.813845
 20
194.005590
 30
0.0
  0
VERTEX
  8
CSLAYER1
  6
CONTINUOUS
 62
     6
 10
200.102467
 20
194.163633
 30
0.0
  0
VERTEX
  8
CSLAYER1
  6
CONTINUOUS
 62
     6
 10
200.358998
 20
194.332255
 30
0.0
  0
VERTEX
  8
CSLAYER1
  6
CONTINUOUS
 62
     6
 10
200.581484
 20
194.510171
 30
0.0
  0
VERTEX
  8
CSLAYER1
  6
CONTINUOUS
 62
     6
 10
200.768231
 20
194.696028
 30
0.0
  0
VERTEX
  8
CSLAYER1
  6
CONTINUOUS
 62
     6
 10
200.917819
 20
194.888410
 30
0.0
  0
VERTEX
  8
CSLAYER1
  6
CONTINUOUS
 62
     6
 10
201.029110
 20
195.085855
 30
0.0
  0
VERTEX
  8
CSLAYER1
  6
CONTINUOUS
 62
     6
 10
201.101256
 20
195.286860
 30
0.0
  0
VERTEX
  8
CSLAYER1
  6
CONTINUOUS
 62
     6
 10
201.133708
 20
195.489894
 30
0.0
  0
VERTEX
  8
CSLAYER1
  6
CONTINUOUS
 62
     6
 10
201.135661
 20
195.553539
 30
0.0
  0
SEQEND
  0
POLYLINE
  8
CSLAYER1
  6
CONTINUOUS
 62
     6
 66
     1
 10
0.0
 20
0.0
 30
0.0
  0
VERTEX
  8
CSLAYER1
  6
CONTINUOUS
 62
     6
 10
201.135661
 20
196.877383
 30
0.0
  0
VERTEX
  8
CSLAYER1
  6
CONTINUOUS
 62
     6
 10
201.115683
 20
197.117241
 30
0.0
  0
VERTEX
  8
CSLAYER1
  6
CONTINUOUS
 62
     6
 10
201.055902
 20
197.355274
 30
0.0
  0
VERTEX
  8
CSLAYER1
  6
CONTINUOUS
 62
     6
 10
200.956772
 20
197.589671
 30
0.0
  0
VERTEX
  8
CSLAYER1
  6
CONTINUOUS
 62
     6
 10
200.819047
 20
197.818646
 30
0.0
  0
VERTEX
  8
CSLAYER1
  6
CONTINUOUS
 62
     6
 10
200.643777
 20
198.040458
 30
0.0
  0
VERTEX
  8
CSLAYER1
  6
CONTINUOUS
 62
     6
 10
200.432295
 20
198.253418
 30
0.0
  0
VERTEX
  8
CSLAYER1
  6
CONTINUOUS
 62
     6
 10
200.186209
 20
198.455905
 30
0.0
  0
VERTEX
  8
CSLAYER1
  6
CONTINUOUS
 62
     6
 10
199.907395
 20
198.646379
 30
0.0
  0
VERTEX
  8
CSLAYER1
  6
CONTINUOUS
 62
     6
 10
199.597972
 20
198.823390
 30
0.0
  0
VERTEX
  8
CSLAYER1
  6
CONTINUOUS
 62
     6
 10
199.260296
 20
198.985590
 30
0.0
  0
VERTEX
  8
CSLAYER1
  6
CONTINUOUS
 62
     6
 10
198.896937
 20
199.131746
 30
0.0
  0
VERTEX
  8
CSLAYER1
  6
CONTINUOUS
 62
     6
 10
198.510661
 20
199.260745
 30
0.0
  0
VERTEX
  8
CSLAYER1
  6
CONTINUOUS
 62
     6
 10
198.104407
 20
199.371605
 30
0.0
  0
VERTEX
  8
CSLAYER1
  6
CONTINUOUS
 62
     6
 10
197.681267
 20
199.463482
 30
0.0
  0
VERTEX
  8
CSLAYER1
  6
CONTINUOUS
 62
     6
 10
197.244461
 20
199.535678
 30
0.0
  0
VERTEX
  8
CSLAYER1
  6
CONTINUOUS
 62
     6
 10
196.797314
 20
199.587642
 30
0.0
  0
VERTEX
  8
CSLAYER1
  6
CONTINUOUS
 62
     6
 10
196.343229
 20
199.618980
 30
0.0
  0
VERTEX
  8
CSLAYER1
  6
CONTINUOUS
 62
     6
 10
195.885661
 20
199.629453
 30
0.0
  0
VERTEX
  8
CSLAYER1
  6
CONTINUOUS
 62
     6
 10
195.428094
 20
199.618980
 30
0.0
  0
VERTEX
  8
CSLAYER1
  6
CONTINUOUS
 62
     6
 10
194.974008
 20
199.587642
 30
0.0
  0
VERTEX
  8
CSLAYER1
  6
CONTINUOUS
 62
     6
 10
194.526861
 20
199.535678
 30
0.0
  0
VERTEX
  8
CSLAYER1
  6
CONTINUOUS
 62
     6
 10
194.090055
 20
199.463482
 30
0.0
  0
VERTEX
  8
CSLAYER1
  6
CONTINUOUS
 62
     6
 10
193.666915
 20
199.371605
 30
0.0
  0
VERTEX
  8
CSLAYER1
  6
CONTINUOUS
 62
     6
 10
193.260661
 20
199.260745
 30
0.0
  0
VERTEX
  8
CSLAYER1
  6
CONTINUOUS
 62
     6
 10
192.874385
 20
199.131746
 30
0.0
  0
VERTEX
  8
CSLAYER1
  6
CONTINUOUS
 62
     6
 10
192.511026
 20
198.985590
 30
0.0
  0
VERTEX
  8
CSLAYER1
  6
CONTINUOUS
 62
     6
 10
192.173351
 20
198.823390
 30
0.0
  0
VERTEX
  8
CSLAYER1
  6
CONTINUOUS
 62
     6
 10
191.863928
 20
198.646379
 30
0.0
  0
VERTEX
  8
CSLAYER1
  6
CONTINUOUS
 62
     6
 10
191.585113
 20
198.455905
 30
0.0
  0
VERTEX
  8
CSLAYER1
  6
CONTINUOUS
 62
     6
 10
191.339028
 20
198.253418
 30
0.0
  0
VERTEX
  8
CSLAYER1
  6
CONTINUOUS
 62
     6
 10
191.127545
 20
198.040458
 30
0.0
  0
VERTEX
  8
CSLAYER1
  6
CONTINUOUS
 62
     6
 10
190.952275
 20
197.818646
 30
0.0
  0
VERTEX
  8
CSLAYER1
  6
CONTINUOUS
 62
     6
 10
190.814551
 20
197.589671
 30
0.0
  0
VERTEX
  8
CSLAYER1
  6
CONTINUOUS
 62
     6
 10
190.715420
 20
197.355274
 30
0.0
  0
VERTEX
  8
CSLAYER1
  6
CONTINUOUS
 62
     6
 10
190.655639
 20
197.117241
 30
0.0
  0
VERTEX
  8
CSLAYER1
  6
CONTINUOUS
 62
     6
 10
190.635661
 20
196.877383
 30
0.0
  0
SEQEND
  0
POLYLINE
  8
CSLAYER1
  6
CONTINUOUS
 62
     6
 66
     1
 10
0.0
 20
0.0
 30
0.0
  0
VERTEX
  8
CSLAYER1
  6
CONTINUOUS
 62
     6
 10
201.135661
 20
195.553539
 30
0.0
  0
VERTEX
  8
CSLAYER1
  6
CONTINUOUS
 62
     6
 10
201.115683
 20
195.793398
 30
0.0
  0
VERTEX
  8
CSLAYER1
  6
CONTINUOUS
 62
     6
 10
201.055902
 20
196.031431
 30
0.0
  0
VERTEX
  8
CSLAYER1
  6
CONTINUOUS
 62
     6
 10
200.956772
 20
196.265827
 30
0.0
  0
VERTEX
  8
CSLAYER1
  6
CONTINUOUS
 62
     6
 10
200.819047
 20
196.494802
 30
0.0
  0
VERTEX
  8
CSLAYER1
  6
CONTINUOUS
 62
     6
 10
200.643777
 20
196.716614
 30
0.0
  0
VERTEX
  8
CSLAYER1
  6
CONTINUOUS
 62
     6
 10
200.432295
 20
196.929574
 30
0.0
  0
VERTEX
  8
CSLAYER1
  6
CONTINUOUS
 62
     6
 10
200.186209
 20
197.132061
 30
0.0
  0
VERTEX
  8
CSLAYER1
  6
CONTINUOUS
 62
     6
 10
199.907395
 20
197.322535
 30
0.0
  0
VERTEX
  8
CSLAYER1
  6
CONTINUOUS
 62
     6
 10
199.597972
 20
197.499546
 30
0.0
  0
VERTEX
  8
CSLAYER1
  6
CONTINUOUS
 62
     6
 10
199.260296
 20
197.661747
 30
0.0
  0
VERTEX
  8
CSLAYER1
  6
CONTINUOUS
 62
     6
 10
198.896937
 20
197.807903
 30
0.0
  0
VERTEX
  8
CSLAYER1
  6
CONTINUOUS
 62
     6
 10
198.510661
 20
197.936901
 30
0.0
  0
VERTEX
  8
CSLAYER1
  6
CONTINUOUS
 62
     6
 10
198.104407
 20
198.047761
 30
0.0
  0
VERTEX
  8
CSLAYER1
  6
CONTINUOUS
 62
     6
 10
197.681267
 20
198.139639
 30
0.0
  0
VERTEX
  8
CSLAYER1
  6
CONTINUOUS
 62
     6
 10
197.244461
 20
198.211834
 30
0.0
  0
VERTEX
  8
CSLAYER1
  6
CONTINUOUS
 62
     6
 10
196.797314
 20
198.263799
 30
0.0
  0
VERTEX
  8
CSLAYER1
  6
CONTINUOUS
 62
     6
 10
196.343229
 20
198.295136
 30
0.0
  0
VERTEX
  8
CSLAYER1
  6
CONTINUOUS
 62
     6
 10
195.885661
 20
198.305609
 30
0.0
  0
VERTEX
  8
CSLAYER1
  6
CONTINUOUS
 62
     6
 10
195.428094
 20
198.295136
 30
0.0
  0
VERTEX
  8
CSLAYER1
  6
CONTINUOUS
 62
     6
 10
194.974008
 20
198.263799
 30
0.0
  0
VERTEX
  8
CSLAYER1
  6
CONTINUOUS
 62
     6
 10
194.526861
 20
198.211834
 30
0.0
  0
VERTEX
  8
CSLAYER1
  6
CONTINUOUS
 62
     6
 10
194.090055
 20
198.139639
 30
0.0
  0
VERTEX
  8
CSLAYER1
  6
CONTINUOUS
 62
     6
 10
193.666915
 20
198.047761
 30
0.0
  0
VERTEX
  8
CSLAYER1
  6
CONTINUOUS
 62
     6
 10
193.260661
 20
197.936901
 30
0.0
  0
VERTEX
  8
CSLAYER1
  6
CONTINUOUS
 62
     6
 10
192.874385
 20
197.807903
 30
0.0
  0
VERTEX
  8
CSLAYER1
  6
CONTINUOUS
 62
     6
 10
192.511026
 20
197.661747
 30
0.0
  0
VERTEX
  8
CSLAYER1
  6
CONTINUOUS
 62
     6
 10
192.173351
 20
197.499546
 30
0.0
  0
VERTEX
  8
CSLAYER1
  6
CONTINUOUS
 62
     6
 10
191.863928
 20
197.322535
 30
0.0
  0
VERTEX
  8
CSLAYER1
  6
CONTINUOUS
 62
     6
 10
191.585113
 20
197.132061
 30
0.0
  0
VERTEX
  8
CSLAYER1
  6
CONTINUOUS
 62
     6
 10
191.339028
 20
196.929574
 30
0.0
  0
VERTEX
  8
CSLAYER1
  6
CONTINUOUS
 62
     6
 10
191.127545
 20
196.716614
 30
0.0
  0
VERTEX
  8
CSLAYER1
  6
CONTINUOUS
 62
     6
 10
190.952275
 20
196.494802
 30
0.0
  0
VERTEX
  8
CSLAYER1
  6
CONTINUOUS
 62
     6
 10
190.814551
 20
196.265827
 30
0.0
  0
VERTEX
  8
CSLAYER1
  6
CONTINUOUS
 62
     6
 10
190.715420
 20
196.031431
 30
0.0
  0
VERTEX
  8
CSLAYER1
  6
CONTINUOUS
 62
     6
 10
190.655639
 20
195.793398
 30
0.0
  0
VERTEX
  8
CSLAYER1
  6
CONTINUOUS
 62
     6
 10
190.635661
 20
195.553539
 30
0.0
  0
SEQEND
  0
POLYLINE
  8
CSLAYER1
  6
CONTINUOUS
 62
     6
 66
     1
 10
0.0
 20
0.0
 30
0.0
  0
VERTEX
  8
CSLAYER1
  6
CONTINUOUS
 62
     6
 10
193.385661
 20
99.773854
 30
0.0
  0
VERTEX
  8
CSLAYER1
  6
CONTINUOUS
 62
     6
 10
193.395174
 20
99.581797
 30
0.0
  0
VERTEX
  8
CSLAYER1
  6
CONTINUOUS
 62
     6
 10
193.423642
 20
99.391201
 30
0.0
  0
VERTEX
  8
CSLAYER1
  6
CONTINUOUS
 62
     6
 10
193.470847
 20
99.203518
 30
0.0
  0
VERTEX
  8
CSLAYER1
  6
CONTINUOUS
 62
     6
 10
193.536430
 20
99.020175
 30
0.0
  0
VERTEX
  8
CSLAYER1
  6
CONTINUOUS
 62
     6
 10
193.619892
 20
98.842568
 30
0.0
  0
VERTEX
  8
CSLAYER1
  6
CONTINUOUS
 62
     6
 10
193.720598
 20
98.672049
 30
0.0
  0
VERTEX
  8
CSLAYER1
  6
CONTINUOUS
 62
     6
 10
193.837781
 20
98.509915
 30
0.0
  0
VERTEX
  8
CSLAYER1
  6
CONTINUOUS
 62
     6
 10
193.970550
 20
98.357401
 30
0.0
  0
VERTEX
  8
CSLAYER1
  6
CONTINUOUS
 62
     6
 10
194.117894
 20
98.215666
 30
0.0
  0
VERTEX
  8
CSLAYER1
  6
CONTINUOUS
 62
     6
 10
194.278692
 20
98.085791
 30
0.0
  0
VERTEX
  8
CSLAYER1
  6
CONTINUOUS
 62
     6
 10
194.451720
 20
97.968762
 30
0.0
  0
VERTEX
  8
CSLAYER1
  6
CONTINUOUS
 62
     6
 10
194.635661
 20
97.865472
 30
0.0
  0
VERTEX
  8
CSLAYER1
  6
CONTINUOUS
 62
     6
 10
194.829116
 20
97.776705
 30
0.0
  0
VERTEX
  8
CSLAYER1
  6
CONTINUOUS
 62
     6
 10
195.030611
 20
97.703138
 30
0.0
  0
VERTEX
  8
CSLAYER1
  6
CONTINUOUS
 62
     6
 10
195.238614
 20
97.645330
 30
0.0
  0
VERTEX
  8
CSLAYER1
  6
CONTINUOUS
 62
     6
 10
195.451541
 20
97.603722
 30
0.0
  0
VERTEX
  8
CSLAYER1
  6
CONTINUOUS
 62
     6
 10
195.667772
 20
97.578629
 30
0.0
  0
VERTEX
  8
CSLAYER1
  6
CONTINUOUS
 62
     6
 10
195.885661
 20
97.570244
 30
0.0
  0
VERTEX
  8
CSLAYER1
  6
CONTINUOUS
 62
     6
 10
196.103551
 20
97.578629
 30
0.0
  0
VERTEX
  8
CSLAYER1
  6
CONTINUOUS
 62
     6
 10
196.319782
 20
97.603722
 30
0.0
  0
VERTEX
  8
CSLAYER1
  6
CONTINUOUS
 62
     6
 10
196.532709
 20
97.645330
 30
0.0
  0
VERTEX
  8
CSLAYER1
  6
CONTINUOUS
 62
     6
 10
196.740712
 20
97.703138
 30
0.0
  0
VERTEX
  8
CSLAYER1
  6
CONTINUOUS
 62
     6
 10
196.942207
 20
97.776705
 30
0.0
  0
VERTEX
  8
CSLAYER1
  6
CONTINUOUS
 62
     6
 10
197.135661
 20
97.865472
 30
0.0
  0
VERTEX
  8
CSLAYER1
  6
CONTINUOUS
 62
     6
 10
197.319602
 20
97.968762
 30
0.0
  0
VERTEX
  8
CSLAYER1
  6
CONTINUOUS
 62
     6
 10
197.492630
 20
98.085791
 30
0.0
  0
VERTEX
  8
CSLAYER1
  6
CONTINUOUS
 62
     6
 10
197.653428
 20
98.215666
 30
0.0
  0
VERTEX
  8
CSLAYER1
  6
CONTINUOUS
 62
     6
 10
197.800772
 20
98.357401
 30
0.0
  0
VERTEX
  8
CSLAYER1
  6
CONTINUOUS
 62
     6
 10
197.933541
 20
98.509915
 30
0.0
  0
VERTEX
  8
CSLAYER1
  6
CONTINUOUS
 62
     6
 10
198.050725
 20
98.672049
 30
0.0
  0
VERTEX
  8
CSLAYER1
  6
CONTINUOUS
 62
     6
 10
198.151431
 20
98.842568
 30
0.0
  0
VERTEX
  8
CSLAYER1
  6
CONTINUOUS
 62
     6
 10
198.234893
 20
99.020175
 30
0.0
  0
VERTEX
  8
CSLAYER1
  6
CONTINUOUS
 62
     6
 10
198.300476
 20
99.203518
 30
0.0
  0
VERTEX
  8
CSLAYER1
  6
CONTINUOUS
 62
     6
 10
198.347681
 20
99.391201
 30
0.0
  0
VERTEX
  8
CSLAYER1
  6
CONTINUOUS
 62
     6
 10
198.376148
 20
99.581797
 30
0.0
  0
VERTEX
  8
CSLAYER1
  6
CONTINUOUS
 62
     6
 10
198.385661
 20
99.773854
 30
0.0
  0
SEQEND
  0
POLYLINE
  8
CSLAYER1
  6
CONTINUOUS
 62
     6
 66
     1
 10
0.0
 20
0.0
 30
0.0
  0
VERTEX
  8
CSLAYER1
  6
CONTINUOUS
 62
     6
 10
190.635661
 20
99.069593
 30
0.0
  0
VERTEX
  8
CSLAYER1
  6
CONTINUOUS
 62
     6
 10
190.655639
 20
98.666069
 30
0.0
  0
VERTEX
  8
CSLAYER1
  6
CONTINUOUS
 62
     6
 10
190.715420
 20
98.265616
 30
0.0
  0
VERTEX
  8
CSLAYER1
  6
CONTINUOUS
 62
     6
 10
190.814551
 20
97.871281
 30
0.0
  0
VERTEX
  8
CSLAYER1
  6
CONTINUOUS
 62
     6
 10
190.952275
 20
97.486067
 30
0.0
  0
VERTEX
  8
CSLAYER1
  6
CONTINUOUS
 62
     6
 10
191.127545
 20
97.112904
 30
0.0
  0
VERTEX
  8
CSLAYER1
  6
CONTINUOUS
 62
     6
 10
191.339028
 20
96.754633
 30
0.0
  0
VERTEX
  8
CSLAYER1
  6
CONTINUOUS
 62
     6
 10
191.585113
 20
96.413980
 30
0.0
  0
VERTEX
  8
CSLAYER1
  6
CONTINUOUS
 62
     6
 10
191.863928
 20
96.093538
 30
0.0
  0
VERTEX
  8
CSLAYER1
  6
CONTINUOUS
 62
     6
 10
192.173351
 20
95.795745
 30
0.0
  0
VERTEX
  8
CSLAYER1
  6
CONTINUOUS
 62
     6
 10
192.511026
 20
95.522868
 30
0.0
  0
VERTEX
  8
CSLAYER1
  6
CONTINUOUS
 62
     6
 10
192.874385
 20
95.276984
 30
0.0
  0
VERTEX
  8
CSLAYER1
  6
CONTINUOUS
 62
     6
 10
193.260661
 20
95.059964
 30
0.0
  0
VERTEX
  8
CSLAYER1
  6
CONTINUOUS
 62
     6
 10
193.666915
 20
94.873460
 30
0.0
  0
VERTEX
  8
CSLAYER1
  6
CONTINUOUS
 62
     6
 10
194.090055
 20
94.718891
 30
0.0
  0
VERTEX
  8
CSLAYER1
  6
CONTINUOUS
 62
     6
 10
194.526861
 20
94.597433
 30
0.0
  0
VERTEX
  8
CSLAYER1
  6
CONTINUOUS
 62
     6
 10
194.974008
 20
94.510012
 30
0.0
  0
VERTEX
  8
CSLAYER1
  6
CONTINUOUS
 62
     6
 10
195.428094
 20
94.457291
 30
0.0
  0
VERTEX
  8
CSLAYER1
  6
CONTINUOUS
 62
     6
 10
195.885661
 20
94.439673
 30
0.0
  0
VERTEX
  8
CSLAYER1
  6
CONTINUOUS
 62
     6
 10
196.343229
 20
94.457291
 30
0.0
  0
VERTEX
  8
CSLAYER1
  6
CONTINUOUS
 62
     6
 10
196.797314
 20
94.510012
 30
0.0
  0
VERTEX
  8
CSLAYER1
  6
CONTINUOUS
 62
     6
 10
197.244461
 20
94.597433
 30
0.0
  0
VERTEX
  8
CSLAYER1
  6
CONTINUOUS
 62
     6
 10
197.681267
 20
94.718891
 30
0.0
  0
VERTEX
  8
CSLAYER1
  6
CONTINUOUS
 62
     6
 10
198.104407
 20
94.873460
 30
0.0
  0
VERTEX
  8
CSLAYER1
  6
CONTINUOUS
 62
     6
 10
198.510661
 20
95.059964
 30
0.0
  0
VERTEX
  8
CSLAYER1
  6
CONTINUOUS
 62
     6
 10
198.896937
 20
95.276984
 30
0.0
  0
VERTEX
  8
CSLAYER1
  6
CONTINUOUS
 62
     6
 10
199.260296
 20
95.522868
 30
0.0
  0
VERTEX
  8
CSLAYER1
  6
CONTINUOUS
 62
     6
 10
199.597972
 20
95.795745
 30
0.0
  0
VERTEX
  8
CSLAYER1
  6
CONTINUOUS
 62
     6
 10
199.907395
 20
96.093538
 30
0.0
  0
VERTEX
  8
CSLAYER1
  6
CONTINUOUS
 62
     6
 10
200.186209
 20
96.413980
 30
0.0
  0
VERTEX
  8
CSLAYER1
  6
CONTINUOUS
 62
     6
 10
200.432295
 20
96.754633
 30
0.0
  0
VERTEX
  8
CSLAYER1
  6
CONTINUOUS
 62
     6
 10
200.643777
 20
97.112904
 30
0.0
  0
VERTEX
  8
CSLAYER1
  6
CONTINUOUS
 62
     6
 10
200.819047
 20
97.486067
 30
0.0
  0
VERTEX
  8
CSLAYER1
  6
CONTINUOUS
 62
     6
 10
200.956772
 20
97.871281
 30
0.0
  0
VERTEX
  8
CSLAYER1
  6
CONTINUOUS
 62
     6
 10
201.055902
 20
98.265616
 30
0.0
  0
VERTEX
  8
CSLAYER1
  6
CONTINUOUS
 62
     6
 10
201.115683
 20
98.666069
 30
0.0
  0
VERTEX
  8
CSLAYER1
  6
CONTINUOUS
 62
     6
 10
201.135661
 20
99.069593
 30
0.0
  0
SEQEND
  0
POLYLINE
  8
CSLAYER1
  6
CONTINUOUS
 62
     6
 66
     1
 10
0.0
 20
0.0
 30
0.0
  0
VERTEX
  8
CSLAYER1
  6
CONTINUOUS
 62
     6
 10
190.635661
 20
99.069593
 30
0.0
  0
VERTEX
  8
CSLAYER1
  6
CONTINUOUS
 62
     6
 10
190.655639
 20
98.745548
 30
0.0
  0
VERTEX
  8
CSLAYER1
  6
CONTINUOUS
 62
     6
 10
190.715420
 20
98.423969
 30
0.0
  0
VERTEX
  8
CSLAYER1
  6
CONTINUOUS
 62
     6
 10
190.814551
 20
98.107304
 30
0.0
  0
VERTEX
  8
CSLAYER1
  6
CONTINUOUS
 62
     6
 10
190.952275
 20
97.797962
 30
0.0
  0
VERTEX
  8
CSLAYER1
  6
CONTINUOUS
 62
     6
 10
191.127545
 20
97.498298
 30
0.0
  0
VERTEX
  8
CSLAYER1
  6
CONTINUOUS
 62
     6
 10
191.339028
 20
97.210593
 30
0.0
  0
VERTEX
  8
CSLAYER1
  6
CONTINUOUS
 62
     6
 10
191.585113
 20
96.937036
 30
0.0
  0
VERTEX
  8
CSLAYER1
  6
CONTINUOUS
 62
     6
 10
191.863928
 20
96.679708
 30
0.0
  0
VERTEX
  8
CSLAYER1
  6
CONTINUOUS
 62
     6
 10
192.173351
 20
96.440570
 30
0.0
  0
VERTEX
  8
CSLAYER1
  6
CONTINUOUS
 62
     6
 10
192.511026
 20
96.221440
 30
0.0
  0
VERTEX
  8
CSLAYER1
  6
CONTINUOUS
 62
     6
 10
192.874385
 20
96.023985
 30
0.0
  0
VERTEX
  8
CSLAYER1
  6
CONTINUOUS
 62
     6
 10
193.260661
 20
95.849710
 30
0.0
  0
VERTEX
  8
CSLAYER1
  6
CONTINUOUS
 62
     6
 10
193.666915
 20
95.699940
 30
0.0
  0
VERTEX
  8
CSLAYER1
  6
CONTINUOUS
 62
     6
 10
194.090055
 20
95.575816
 30
0.0
  0
VERTEX
  8
CSLAYER1
  6
CONTINUOUS
 62
     6
 10
194.526861
 20
95.478281
 30
0.0
  0
VERTEX
  8
CSLAYER1
  6
CONTINUOUS
 62
     6
 10
194.974008
 20
95.408078
 30
0.0
  0
VERTEX
  8
CSLAYER1
  6
CONTINUOUS
 62
     6
 10
195.428094
 20
95.365741
 30
0.0
  0
VERTEX
  8
CSLAYER1
  6
CONTINUOUS
 62
     6
 10
195.885661
 20
95.351593
 30
0.0
  0
VERTEX
  8
CSLAYER1
  6
CONTINUOUS
 62
     6
 10
196.343229
 20
95.365741
 30
0.0
  0
VERTEX
  8
CSLAYER1
  6
CONTINUOUS
 62
     6
 10
196.797314
 20
95.408078
 30
0.0
  0
VERTEX
  8
CSLAYER1
  6
CONTINUOUS
 62
     6
 10
197.244461
 20
95.478281
 30
0.0
  0
VERTEX
  8
CSLAYER1
  6
CONTINUOUS
 62
     6
 10
197.681267
 20
95.575816
 30
0.0
  0
VERTEX
  8
CSLAYER1
  6
CONTINUOUS
 62
     6
 10
198.104407
 20
95.699940
 30
0.0
  0
VERTEX
  8
CSLAYER1
  6
CONTINUOUS
 62
     6
 10
198.510661
 20
95.849710
 30
0.0
  0
VERTEX
  8
CSLAYER1
  6
CONTINUOUS
 62
     6
 10
198.896937
 20
96.023985
 30
0.0
  0
VERTEX
  8
CSLAYER1
  6
CONTINUOUS
 62
     6
 10
199.260296
 20
96.221440
 30
0.0
  0
VERTEX
  8
CSLAYER1
  6
CONTINUOUS
 62
     6
 10
199.597972
 20
96.440570
 30
0.0
  0
VERTEX
  8
CSLAYER1
  6
CONTINUOUS
 62
     6
 10
199.907395
 20
96.679708
 30
0.0
  0
VERTEX
  8
CSLAYER1
  6
CONTINUOUS
 62
     6
 10
200.186209
 20
96.937036
 30
0.0
  0
VERTEX
  8
CSLAYER1
  6
CONTINUOUS
 62
     6
 10
200.432295
 20
97.210593
 30
0.0
  0
VERTEX
  8
CSLAYER1
  6
CONTINUOUS
 62
     6
 10
200.643777
 20
97.498298
 30
0.0
  0
VERTEX
  8
CSLAYER1
  6
CONTINUOUS
 62
     6
 10
200.819047
 20
97.797962
 30
0.0
  0
VERTEX
  8
CSLAYER1
  6
CONTINUOUS
 62
     6
 10
200.956772
 20
98.107304
 30
0.0
  0
VERTEX
  8
CSLAYER1
  6
CONTINUOUS
 62
     6
 10
201.055902
 20
98.423969
 30
0.0
  0
VERTEX
  8
CSLAYER1
  6
CONTINUOUS
 62
     6
 10
201.115683
 20
98.745548
 30
0.0
  0
VERTEX
  8
CSLAYER1
  6
CONTINUOUS
 62
     6
 10
201.135661
 20
99.069593
 30
0.0
  0
SEQEND
  0
POLYLINE
  8
CSLAYER1
  6
CONTINUOUS
 62
     6
 66
     1
 10
0.0
 20
0.0
 30
0.0
  0
VERTEX
  8
CSLAYER1
  6
CONTINUOUS
 62
     6
 10
201.135661
 20
99.069593
 30
0.0
  0
VERTEX
  8
CSLAYER1
  6
CONTINUOUS
 62
     6
 10
201.115683
 20
99.516399
 30
0.0
  0
VERTEX
  8
CSLAYER1
  6
CONTINUOUS
 62
     6
 10
201.055902
 20
99.959805
 30
0.0
  0
VERTEX
  8
CSLAYER1
  6
CONTINUOUS
 62
     6
 10
200.956772
 20
100.396436
 30
0.0
  0
VERTEX
  8
CSLAYER1
  6
CONTINUOUS
 62
     6
 10
200.819047
 20
100.822969
 30
0.0
  0
VERTEX
  8
CSLAYER1
  6
CONTINUOUS
 62
     6
 10
200.643777
 20
101.236158
 30
0.0
  0
VERTEX
  8
CSLAYER1
  6
CONTINUOUS
 62
     6
 10
200.432295
 20
101.632858
 30
0.0
  0
VERTEX
  8
CSLAYER1
  6
CONTINUOUS
 62
     6
 10
200.186209
 20
102.010050
 30
0.0
  0
VERTEX
  8
CSLAYER1
  6
CONTINUOUS
 62
     6
 10
199.907395
 20
102.364863
 30
0.0
  0
VERTEX
  8
CSLAYER1
  6
CONTINUOUS
 62
     6
 10
199.597972
 20
102.694597
 30
0.0
  0
VERTEX
  8
CSLAYER1
  6
CONTINUOUS
 62
     6
 10
199.260296
 20
102.996743
 30
0.0
  0
VERTEX
  8
CSLAYER1
  6
CONTINUOUS
 62
     6
 10
198.896937
 20
103.269000
 30
0.0
  0
VERTEX
  8
CSLAYER1
  6
CONTINUOUS
 62
     6
 10
198.510661
 20
103.509298
 30
0.0
  0
VERTEX
  8
CSLAYER1
  6
CONTINUOUS
 62
     6
 10
198.385661
 20
103.577567
 30
0.0
  0
SEQEND
  0
POLYLINE
  8
CSLAYER1
  6
CONTINUOUS
 62
     6
 66
     1
 10
0.0
 20
0.0
 30
0.0
  0
VERTEX
  8
CSLAYER1
  6
CONTINUOUS
 62
     6
 10
193.385661
 20
103.577567
 30
0.0
  0
VERTEX
  8
CSLAYER1
  6
CONTINUOUS
 62
     6
 10
192.992816
 20
103.347648
 30
0.0
  0
VERTEX
  8
CSLAYER1
  6
CONTINUOUS
 62
     6
 10
192.621987
 20
103.085170
 30
0.0
  0
VERTEX
  8
CSLAYER1
  6
CONTINUOUS
 62
     6
 10
192.275997
 20
102.792131
 30
0.0
  0
VERTEX
  8
CSLAYER1
  6
CONTINUOUS
 62
     6
 10
191.957478
 20
102.470761
 30
0.0
  0
VERTEX
  8
CSLAYER1
  6
CONTINUOUS
 62
     6
 10
191.668855
 20
102.123507
 30
0.0
  0
VERTEX
  8
CSLAYER1
  6
CONTINUOUS
 62
     6
 10
191.412325
 20
101.753010
 30
0.0
  0
VERTEX
  8
CSLAYER1
  6
CONTINUOUS
 62
     6
 10
191.189839
 20
101.362091
 30
0.0
  0
VERTEX
  8
CSLAYER1
  6
CONTINUOUS
 62
     6
 10
191.003091
 20
100.953725
 30
0.0
  0
VERTEX
  8
CSLAYER1
  6
CONTINUOUS
 62
     6
 10
190.853503
 20
100.531019
 30
0.0
  0
VERTEX
  8
CSLAYER1
  6
CONTINUOUS
 62
     6
 10
190.742213
 20
100.097191
 30
0.0
  0
VERTEX
  8
CSLAYER1
  6
CONTINUOUS
 62
     6
 10
190.670067
 20
99.655543
 30
0.0
  0
VERTEX
  8
CSLAYER1
  6
CONTINUOUS
 62
     6
 10
190.637615
 20
99.209434
 30
0.0
  0
VERTEX
  8
CSLAYER1
  6
CONTINUOUS
 62
     6
 10
190.635661
 20
99.069593
 30
0.0
  0
SEQEND
  0
ENDSEC
  0
EOF
