  0
SECTION
  2
HEADER
  9
$ACADVER
  1
AC1006
  9
$INSBASE
 10
0.000000
 20
0.000000
 30
0.0
  9
$EXTMIN
 10
0.000000
 20
0.000000
  9
$EXTMAX
 10
841.000000
 20
594.000000
  9
$LIMMIN
 10
0.000000
 20
0.000000
  9
$LIMMAX
 10
841.000000
 20
594.000000
  9
$VIEWCTR
 10
420.500000
 20
297.000000
  9
$VIEWSIZE
 40
594.000000
  9
$SNAPMODE
 70
     0
  9
$SNAPUNIT
 10
1.0
 20
1.0
  9
$SNAPBASE
 10
0.0
 20
0.0
  9
$SNAPANG
 50
0.0
  9
$SNAPSTYLE
 70
     0
  9
$SNAPISOPAIR
 70
     0
  9
$GRIDMODE
 70
     0
  9
$GRIDUNIT
 10
0.0
 20
0.0
  9
$ORTHOMODE
 70
     0
  9
$REGENMODE
 70
     1
  9
$FILLMODE
 70
     1
  9
$QTEXTMODE
 70
     0
  9
$DRAGMODE
 70
     2
  9
$LTSCALE
 40
15.000000
  9
$OSMODE
 70
     0
  9
$ATTMODE
 70
     1
  9
$TEXTSIZE
 40
0.2
  9
$TRACEWID
 40
0.05
  9
$TEXTSTYLE
  7
STANDARD
  9
$CLAYER
  8
CSLAYER1
  9
$CELTYPE
  6
BYLAYER
  9
$CECOLOR
 62
   256
  9
$DIMSCALE
 40
1.0
  9
$DIMASZ
 40
0.18
  9
$DIMEXO
 40
0.0625
  9
$DIMDLI
 40
0.38
  9
$DIMRND
 40
0.0
  9
$DIMDLE
 40
0.0
  9
$DIMEXE
 40
0.18
  9
$DIMTP
 40
0.0
  9
$DIMTM
 40
0.0
  9
$DIMTXT
 40
0.18
  9
$DIMCEN
 40
0.09
  9
$DIMTSZ
 40
0.0
  9
$DIMTOL
 70
     0
  9
$DIMLIM
 70
     0
  9
$DIMTIH
 70
     1
  9
$DIMTOH
 70
     1
  9
$DIMSE1
 70
     0
  9
$DIMSE2
 70
     0
  9
$DIMTAD
 70
     0
  9
$DIMZIN
 70
     0
  9
$DIMBLK
  1

  9
$LUNITS
 70
     2
  9
$LUPREC
 70
     4
  9
$AXISMODE
 70
     0
  9
$AXISUNIT
 10
0.0
 20
0.0
  9
$SKETCHINC
 40
0.1
  9
$FILLETRAD
 40
0.0
  9
$AUNITS
 70
     0
  9
$AUPREC
 70
     0
  9
$MENU
  1
ACAD
  9
$ELEVATION
 40
0.0
  9
$THICKNESS
 40
0.0
  9
$VIEWDIR
 10
0.0
 20
0.0
 30
1.0
  9
$LIMCHECK
 70
     0
  9
$BLIPMODE
 70
     1
  9
$CHAMFERA
 40
0.0
  9
$CHAMFERB
 40
0.0
  9
$FASTZOOM
 70
     1
  9
$SKPOLY
 70
     0
  9
$TDCREATE
 40
0.000000
  9
$TDUPDATE
 40
0.000000
  9
$TDINDWG
 40
0.0
  9
$TDUSRTIMER
 40
0.0
  9
$USRTIMER
 70
     1
  9
$ANGBASE
 50
0.0
  9
$ANGDIR
 70
     0
  9
$PDMODE
 70
     0
  9
$PDSIZE
 40
0.0
  9
$PLINEWID
 40
0.0
  9
$COORDS
 70
     0
  9
$USERI1
 70
     0
  9
$USERI2
 70
     0
  9
$USERI3
 70
     0
  9
$USERI4
 70
     0
  9
$USERI5
 70
     0
  9
$USERR1
 40
0.0
  9
$USERR2
 40
0.0
  9
$USERR3
 40
0.0
  9
$USERR4
 40
0.0
  9
$USERR5
 40
0.0
  0
ENDSEC
  0
SECTION
  2
TABLES
  0
TABLE
  2
LTYPE
 70
     9
  0
LTYPE
  2
CONTINUOUS
 70
    64
  3
Solid line
 72
    65
 73
     0
 40
0.0
  0
LTYPE
  2
DASHED
 70
    64
  3
__ __ __ __ __ __ __ __ __ __ __ __ __ __ __
 72
    65
 73
     2
 40
0.75
 49
0.5
 49
-0.25
  0
LTYPE
  2
HIDDEN
 70
    64
  3
_ _ _ _ _ _ _ _ _ _ _ _ _ _ _ _ _ _ _ _ _ _ _
 72
    65
 73
     2
 40
0.375
 49
0.25
 49
-0.125
  0
LTYPE
  2
DOT
 70
    64
  3
...............................................
 72
    65
 73
     2
 40
0.25
 49
0.0
 49
-0.25
  0
LTYPE
  2
DASHDOT
 70
    64
  3
__ . __ . __ . __ . __ . __ . __ . __ . __ . __
 72
    65
 73
     4
 40
1.0
 49
0.5
 49
-0.25
 49
0.0
 49
-0.25
  0
LTYPE
  2
DIVIDE
 70
    64
  3
__ . . __ . . __ . . __ . . __ . . __ . . __
 72
    65
 73
     6
 40
1.25
 49
0.5
 49
-0.25
 49
0.0
 49
-0.25
 49
0.0
 49
-0.25
  0
LTYPE
  2
CENTER
 70
    64
  3
____ _ ____ _ ____ _ ____ _ ____ _ ____ _ ____ 
 72
    65
 73
     4
 40
2.0
 49
1.25
 49
-0.25
 49
0.25
 49
-0.25
  0
LTYPE
  2
PHANTOM
 70
    64
  3
______  __  __  ______  __  __  ______  __  __ 
 72
    65
 73
     6
 40
2.5
 49
1.25
 49
-0.25
 49
0.25
 49
-0.25
 49
0.25
 49
-0.25
  0
LTYPE
  2
BORDER
 70
    64
  3
__ __ . __ __ . __ __ . __ __ . __ __ . __ __ .
 72
    65
 73
     6
 40
1.75
 49
0.5
 49
-0.25
 49
0.5
 49
-0.25
 49
0.0
 49
-0.25
  0
ENDTAB
  0
TABLE
  2
LAYER
 70
    16
  0
LAYER
  2
CSLAYER1
 70
    64
 62
     7
  6
CONTINUOUS
  0
LAYER
  2
CSLAYER2
 70
    64
 62
     7
  6
CONTINUOUS
  0
LAYER
  2
CSLAYER3
 70
    64
 62
     7
  6
CONTINUOUS
  0
LAYER
  2
CSLAYER4
 70
    64
 62
     7
  6
CONTINUOUS
  0
LAYER
  2
CSLAYER5
 70
    64
 62
     7
  6
CONTINUOUS
  0
LAYER
  2
CSLAYER6
 70
    64
 62
     7
  6
CONTINUOUS
  0
LAYER
  2
CSLAYER7
 70
    64
 62
     7
  6
CONTINUOUS
  0
LAYER
  2
CSLAYER8
 70
    64
 62
     7
  6
CONTINUOUS
  0
LAYER
  2
CSLAYER9
 70
    64
 62
     7
  6
CONTINUOUS
  0
LAYER
  2
CSLAYER10
 70
    64
 62
     7
  6
CONTINUOUS
  0
LAYER
  2
CSLAYER11
 70
    64
 62
     7
  6
CONTINUOUS
  0
LAYER
  2
CSLAYER12
 70
    64
 62
     7
  6
CONTINUOUS
  0
LAYER
  2
CSLAYER13
 70
    64
 62
     7
  6
CONTINUOUS
  0
LAYER
  2
CSLAYER14
 70
    64
 62
     7
  6
CONTINUOUS
  0
LAYER
  2
CSLAYER15
 70
    64
 62
     7
  6
CONTINUOUS
  0
LAYER
  2
CSLAYER16
 70
    64
 62
     7
  6
CONTINUOUS
  0
ENDTAB
  0
TABLE
  2
STYLE
 70
     1
  0
STYLE
  2
JX_FONT
 70
     0
 40
1.0
 41
1.0
 50
0.0
 71
     0
 42
1.0
  3
monotxt
  4
bigfont
  0
ENDTAB
  0
TABLE
  2
VIEW
 70
     0
  0
ENDTAB
  0
ENDSEC
  0
SECTION
  2
BLOCKS
  0
ENDSEC
  0
SECTION
  2
ENTITIES
  0
LINE
  8
CSLAYER1
  6
CENTER
 62
     3
 10
137.159883
 20
225.502757
 11
137.159883
 21
385.502757
  0
ARC
  8
CSLAYER1
  6
CENTER
 62
     3
 10
137.159883
 20
305.502757
 40
66.000000
 50
80.143326
 51
99.856674
  0
LINE
  8
CSLAYER1
  6
CENTER
 62
     3
 10
170.159883
 20
348.002757
 11
189.159883
 21
348.002757
  0
LINE
  8
CSLAYER1
  6
CENTER
 62
     3
 10
179.659883
 20
338.502757
 11
179.659883
 21
357.502757
  0
LINE
  8
CSLAYER1
  6
CENTER
 62
     3
 10
104.159883
 20
348.002757
 11
85.159883
 21
348.002757
  0
LINE
  8
CSLAYER1
  6
CENTER
 62
     3
 10
94.659883
 20
338.502757
 11
94.659883
 21
357.502757
  0
ARC
  8
CSLAYER1
  6
CENTER
 62
     3
 10
137.159883
 20
305.502757
 40
66.000000
 50
170.143326
 51
189.856674
  0
LINE
  8
CSLAYER1
  6
CENTER
 62
     3
 10
94.659883
 20
272.502757
 11
94.659883
 21
253.502757
  0
LINE
  8
CSLAYER1
  6
CENTER
 62
     3
 10
104.159883
 20
263.002757
 11
85.159883
 21
263.002757
  0
ARC
  8
CSLAYER1
  6
CENTER
 62
     3
 10
137.159883
 20
305.502757
 40
66.000000
 50
260.143326
 51
279.856674
  0
LINE
  8
CSLAYER1
  6
CENTER
 62
     3
 10
170.159883
 20
263.002757
 11
189.159883
 21
263.002757
  0
LINE
  8
CSLAYER1
  6
CENTER
 62
     3
 10
179.659883
 20
253.502757
 11
179.659883
 21
272.502757
  0
ARC
  8
CSLAYER1
  6
CENTER
 62
     3
 10
137.159883
 20
305.502757
 40
66.000000
 50
-9.856674
 51
9.856674
  0
LINE
  8
CSLAYER1
  6
CENTER
 62
     3
 10
217.159883
 20
305.502757
 11
57.159883
 21
305.502757
  0
LINE
  8
CSLAYER1
  6
CENTER
 62
     3
 10
256.489862
 20
305.502757
 11
604.489862
 21
305.502757
  0
LINE
  8
CSLAYER1
  6
CENTER
 62
     3
 10
633.489862
 20
305.502757
 11
793.489862
 21
305.502757
  0
ARC
  8
CSLAYER1
  6
CENTER
 62
     3
 10
713.489862
 20
305.502757
 40
30.000000
 50
26.833355
 51
63.166645
  0
LINE
  8
CSLAYER1
  6
CENTER
 62
     3
 10
729.399764
 20
321.412660
 11
740.006366
 21
332.019262
  0
LINE
  8
CSLAYER1
  6
CENTER
 62
     3
 10
749.905861
 20
341.918757
 11
770.058404
 21
362.071300
  0
LINE
  8
CSLAYER1
  6
CENTER
 62
     3
 10
713.489862
 20
385.502757
 11
713.489862
 21
225.502757
  0
ARC
  8
CSLAYER1
  6
CENTER
 62
     3
 10
713.489862
 20
305.502757
 40
30.000000
 50
206.833355
 51
243.166645
  0
LINE
  8
CSLAYER1
  6
CENTER
 62
     3
 10
697.579959
 20
289.592855
 11
686.973358
 21
278.986253
  0
LINE
  8
CSLAYER1
  6
CENTER
 62
     3
 10
677.073863
 20
269.086758
 11
656.921319
 21
248.934215
  0
ARC
  8
CSLAYER1
  6
CENTER
 62
     3
 10
713.489862
 20
305.502757
 40
30.000000
 50
296.833355
 51
333.166645
  0
LINE
  8
CSLAYER1
  6
CENTER
 62
     3
 10
729.399764
 20
289.592855
 11
740.006366
 21
278.986253
  0
LINE
  8
CSLAYER1
  6
CENTER
 62
     3
 10
749.905861
 20
269.086758
 11
770.058404
 21
248.934215
  0
CIRCLE
  8
CSLAYER1
  6
CENTER
 62
     3
 10
713.489862
 20
305.502757
 40
66.000000
  0
LINE
  8
CSLAYER1
  6
CENTER
 62
     3
 10
697.579959
 20
321.412660
 11
686.973358
 21
332.019262
  0
ARC
  8
CSLAYER1
  6
CENTER
 62
     3
 10
713.489862
 20
305.502757
 40
30.000000
 50
116.833355
 51
153.166645
  0
LINE
  8
CSLAYER1
  6
CENTER
 62
     3
 10
674.952542
 20
344.040077
 11
656.921319
 21
362.071300
  0
LINE
  8
CSLAYER1
  6
CENTER
 62
     3
 10
604.489862
 20
495.502757
 11
256.489862
 21
495.502757
  0
LINE
  8
CSLAYER1
  6
CENTER
 62
     3
 10
293.489831
 20
528.840190
 11
293.489831
 21
547.447002
  0
LINE
  8
CSLAYER1
  6
CONTINUOUS
 62
     3
 10
361.489862
 20
519.002757
 11
361.489862
 21
472.002757
  0
ARC
  8
CSLAYER1
  6
CONTINUOUS
 62
     3
 10
363.489862
 20
472.002757
 40
2.000000
 50
180.000000
 51
270.000000
  0
LINE
  8
CSLAYER1
  6
CONTINUOUS
 62
     3
 10
363.489862
 20
470.002757
 11
391.489862
 21
470.002757
  0
ARC
  8
CSLAYER1
  6
CONTINUOUS
 62
     3
 10
391.489862
 20
472.002757
 40
2.000000
 50
270.000000
 51
360.000000
  0
LINE
  8
CSLAYER1
  6
CONTINUOUS
 62
     3
 10
393.489862
 20
472.002757
 11
393.489862
 21
519.002757
  0
ARC
  8
CSLAYER1
  6
CONTINUOUS
 62
     3
 10
391.489862
 20
519.002757
 40
2.000000
 50
0.000000
 51
90.000000
  0
LINE
  8
CSLAYER1
  6
CONTINUOUS
 62
     3
 10
391.489862
 20
521.002757
 11
363.489862
 21
521.002757
  0
ARC
  8
CSLAYER1
  6
CONTINUOUS
 62
     3
 10
363.489862
 20
519.002757
 40
2.000000
 50
90.000000
 51
180.000000
  0
LINE
  8
CSLAYER1
  6
CENTER
 62
     3
 10
422.602026
 20
538.002760
 11
445.027308
 21
538.002757
  0
LINE
  8
CSLAYER1
  6
CENTER
 62
     3
 10
481.489862
 20
561.502757
 11
434.489862
 21
561.502757
  0
LINE
  8
CSLAYER1
  6
CENTER
 62
     3
 10
422.602026
 20
453.002759
 11
445.027308
 21
453.002755
  0
LINE
  8
CSLAYER1
  6
CENTER
 62
     3
 10
434.489862
 20
429.502757
 11
481.489862
 21
429.502757
  0
LINE
  8
CSLAYER1
  6
CENTER
 62
     3
 10
481.489862
 20
371.502757
 11
434.489862
 21
371.502757
  0
LINE
  8
CSLAYER1
  6
CENTER
 62
     3
 10
422.602026
 20
348.002756
 11
445.027308
 21
348.002760
  0
LINE
  8
CSLAYER1
  6
CONTINUOUS
 62
     3
 10
393.489831
 20
350.502757
 11
393.489831
 21
343.908492
  0
ARC
  8
CSLAYER1
  6
CONTINUOUS
 62
     3
 10
391.489831
 20
343.908492
 40
2.000000
 50
270.000001
 51
359.942691
  0
LINE
  8
CSLAYER1
  6
CONTINUOUS
 62
     3
 10
391.489831
 20
341.908492
 11
363.489831
 21
341.908522
  0
ARC
  8
CSLAYER1
  6
CONTINUOUS
 62
     3
 10
363.489831
 20
343.908522
 40
2.000000
 50
180.000005
 51
270.000001
  0
LINE
  8
CSLAYER1
  6
CONTINUOUS
 62
     3
 10
361.489831
 20
343.908522
 11
361.489831
 21
350.502757
  0
LINE
  8
CSLAYER1
  6
CENTER
 62
     3
 10
293.489862
 20
337.502757
 11
293.489862
 21
273.502757
  0
LINE
  8
CSLAYER1
  6
CENTER
 62
     3
 10
288.489862
 20
268.502757
 11
288.489862
 21
257.802745
  0
LINE
  8
CSLAYER1
  6
CENTER
 62
     3
 10
293.489862
 20
169.502742
 11
293.489862
 21
146.895931
  0
LINE
  8
CSLAYER1
  6
CENTER
 62
     3
 10
288.489862
 20
136.502757
 11
288.489862
 21
94.502757
  0
LINE
  8
CSLAYER1
  6
CENTER
 62
     3
 10
282.739868
 20
100.502757
 11
294.239868
 21
100.502757
  0
LINE
  8
CSLAYER1
  6
CENTER
 62
     3
 10
282.489862
 20
105.752720
 11
282.489862
 21
125.252720
  0
LINE
  8
CSLAYER1
  6
CENTER
 62
     3
 10
282.739868
 20
130.502757
 11
294.239868
 21
130.502757
  0
LINE
  8
CSLAYER1
  6
CENTER
 62
     3
 10
256.489862
 20
115.502757
 11
604.489862
 21
115.502757
  0
LINE
  8
CSLAYER1
  6
CENTER
 62
     3
 10
481.489862
 20
49.502757
 11
434.489862
 21
49.502757
  0
LINE
  8
CSLAYER1
  6
CENTER
 62
     3
 10
422.602026
 20
73.002755
 11
445.027308
 21
73.002758
  0
LINE
  8
CSLAYER1
  6
CENTER
 62
     3
 10
445.027308
 20
158.002760
 11
422.602026
 21
158.002756
  0
LINE
  8
CSLAYER1
  6
CENTER
 62
     3
 10
434.489862
 20
181.502757
 11
481.489862
 21
181.502757
  0
LINE
  8
CSLAYER1
  6
CENTER
 62
     3
 10
481.489862
 20
239.502757
 11
434.489862
 21
239.502757
  0
LINE
  8
CSLAYER1
  6
CENTER
 62
     3
 10
422.602026
 20
263.002755
 11
445.027308
 21
263.002758
  0
LINE
  8
CSLAYER1
  6
CENTER
 62
     3
 10
293.489862
 20
84.109554
 11
293.489862
 21
61.502742
  0
LINE
  8
CSLAYER1
  6
CENTER
 62
     3
 10
293.489831
 20
443.447002
 11
293.489831
 21
462.053813
  0
TEXT
  8
CSLAYER1
 62
     3
 10
375.546600
 20
500.752777
 40
3.500000
 41
1.125000
  1
N P
 50
-90.000000
 51
10.000000
  7
JX_FONT
 72
     5
 11
375.546600
 21
490.252777
  0
LINE
  8
CSLAYER1
  6
CONTINUOUS
 62
     6
 10
94.659883
 20
255.502757
 11
179.659883
 21
255.502757
  0
LINE
  8
CSLAYER1
  6
CONTINUOUS
 62
     6
 10
175.492699
 20
256.767008
 11
163.334443
 21
264.892045
  0
ARC
  8
CSLAYER1
  6
CONTINUOUS
 62
     6
 10
160.000695
 20
259.903445
 40
6.000000
 50
56.246253
 51
116.606406
  0
LINE
  8
CSLAYER1
  6
CONTINUOUS
 62
     6
 10
149.159883
 20
273.502757
 11
144.159883
 21
273.502757
  0
ARC
  8
CSLAYER1
  6
CONTINUOUS
 62
     6
 10
144.159883
 20
275.502757
 40
2.000000
 50
180.000000
 51
270.000000
  0
LINE
  8
CSLAYER1
  6
CONTINUOUS
 62
     6
 10
142.159883
 20
275.502757
 11
142.159883
 21
283.593855
  0
ARC
  8
CSLAYER1
  6
CONTINUOUS
 62
     6
 10
144.159883
 20
283.593855
 40
2.000000
 50
107.718932
 51
180.000000
  0
ARC
  8
CSLAYER1
  6
CONTINUOUS
 62
     6
 10
137.159883
 20
305.502757
 40
21.000000
 50
287.718932
 51
301.448981
  0
ARC
  8
CSLAYER1
  6
CONTINUOUS
 62
     6
 10
149.159883
 20
285.881340
 40
2.000000
 50
0.000000
 51
121.448981
  0
LINE
  8
CSLAYER1
  6
CONTINUOUS
 62
     6
 10
151.159883
 20
285.881340
 11
151.159883
 21
275.502757
  0
ARC
  8
CSLAYER1
  6
CONTINUOUS
 62
     6
 10
149.159883
 20
275.502757
 40
2.000000
 50
270.000000
 51
360.000000
  0
LINE
  8
CSLAYER1
  6
CONTINUOUS
 62
     6
 10
158.159883
 20
279.120945
 11
158.159883
 21
292.502757
  0
ARC
  8
CSLAYER1
  6
CONTINUOUS
 62
     6
 10
161.159883
 20
292.502757
 40
3.000000
 50
90.000000
 51
180.000000
  0
LINE
  8
CSLAYER1
  6
CONTINUOUS
 62
     6
 10
161.159883
 20
295.502757
 11
167.159883
 21
295.502757
  0
ARC
  8
CSLAYER1
  6
CONTINUOUS
 62
     6
 10
167.159883
 20
293.502757
 40
2.000000
 50
0.000000
 51
90.000000
  0
LINE
  8
CSLAYER1
  6
CONTINUOUS
 62
     6
 10
169.159883
 20
293.502757
 11
169.159883
 21
286.928582
  0
ARC
  8
CSLAYER1
  6
CONTINUOUS
 62
     6
 10
137.159883
 20
305.502757
 40
37.000000
 50
311.082333
 51
329.867278
  0
ARC
  8
CSLAYER1
  6
CONTINUOUS
 62
     6
 10
160.159883
 20
279.120945
 40
2.000000
 50
180.000000
 51
311.082333
  0
LINE
  8
CSLAYER1
  6
CONTINUOUS
 62
     6
 10
172.312036
 20
279.039080
 11
181.159883
 21
279.502757
  0
ARC
  8
CSLAYER1
  6
CONTINUOUS
 62
     6
 10
181.159883
 20
280.502757
 40
1.000000
 50
270.000019
 51
360.000000
  0
LINE
  8
CSLAYER1
  6
CONTINUOUS
 62
     6
 10
182.159883
 20
280.502757
 11
182.159883
 21
281.502757
  0
ARC
  8
CSLAYER1
  6
CONTINUOUS
 62
     6
 10
181.174928
 20
281.502757
 40
1.000000
 50
0.000018
 51
89.999999
  0
LINE
  8
CSLAYER1
  6
CONTINUOUS
 62
     6
 10
181.174928
 20
282.502757
 11
177.600608
 21
282.690116
  0
ARC
  8
CSLAYER1
  6
CONTINUOUS
 62
     6
 10
177.689601
 20
284.387861
 40
1.700075
 50
92.999690
 51
266.999412
  0
LINE
  8
CSLAYER1
  6
CONTINUOUS
 62
     6
 10
177.600635
 20
286.085606
 11
185.180299
 21
286.482798
  0
ARC
  8
CSLAYER1
  6
CONTINUOUS
 62
     6
 10
185.159883
 20
287.482554
 40
1.000000
 50
271.169236
 51
359.999982
  0
LINE
  8
CSLAYER1
  6
CONTINUOUS
 62
     6
 10
186.159883
 20
287.482554
 11
186.159883
 21
323.522960
  0
ARC
  8
CSLAYER1
  6
CONTINUOUS
 62
     6
 10
185.159883
 20
323.522960
 40
1.000000
 50
0.000000
 51
88.830746
  0
LINE
  8
CSLAYER1
  6
CONTINUOUS
 62
     6
 10
185.180299
 20
324.522716
 11
177.600635
 21
324.919909
  0
ARC
  8
CSLAYER1
  6
CONTINUOUS
 62
     6
 10
177.689601
 20
326.617654
 40
1.700075
 50
93.000588
 51
267.000310
  0
LINE
  8
CSLAYER1
  6
CONTINUOUS
 62
     6
 10
177.600608
 20
328.315398
 11
181.174928
 21
328.502757
  0
ARC
  8
CSLAYER1
  6
CONTINUOUS
 62
     6
 10
181.174928
 20
329.502757
 40
1.000000
 50
270.000001
 51
359.999982
  0
LINE
  8
CSLAYER1
  6
CONTINUOUS
 62
     6
 10
182.159883
 20
329.502757
 11
182.159883
 21
330.502757
  0
ARC
  8
CSLAYER1
  6
CONTINUOUS
 62
     6
 10
181.159883
 20
330.502757
 40
1.000000
 50
0.000000
 51
89.999981
  0
LINE
  8
CSLAYER1
  6
CONTINUOUS
 62
     6
 10
181.159883
 20
331.502757
 11
172.312036
 21
331.966434
  0
ARC
  8
CSLAYER1
  6
CONTINUOUS
 62
     6
 10
137.159883
 20
305.502757
 40
45.000000
 50
35.914392
 51
144.085607
  0
LINE
  8
CSLAYER1
  6
CONTINUOUS
 62
     6
 10
102.007732
 20
331.966435
 11
93.159883
 21
331.502757
  0
ARC
  8
CSLAYER1
  6
CONTINUOUS
 62
     6
 10
93.159883
 20
330.502757
 40
1.000000
 50
90.000039
 51
180.000020
  0
LINE
  8
CSLAYER1
  6
CONTINUOUS
 62
     6
 10
92.159883
 20
330.502757
 11
92.159883
 21
329.502757
  0
ARC
  8
CSLAYER1
  6
CONTINUOUS
 62
     6
 10
93.144838
 20
329.502757
 40
1.000000
 50
180.000020
 51
270.000001
  0
LINE
  8
CSLAYER1
  6
CONTINUOUS
 62
     6
 10
93.144838
 20
328.502757
 11
96.719158
 21
328.315398
  0
ARC
  8
CSLAYER1
  6
CONTINUOUS
 62
     6
 10
96.630166
 20
326.617654
 40
1.700075
 50
-87.000310
 51
86.999412
  0
LINE
  8
CSLAYER1
  6
CONTINUOUS
 62
     6
 10
96.719132
 20
324.919909
 11
89.139467
 21
324.522716
  0
ARC
  8
CSLAYER1
  6
CONTINUOUS
 62
     6
 10
89.159883
 20
323.522960
 40
1.000000
 50
91.169216
 51
180.000020
  0
LINE
  8
CSLAYER1
  6
CONTINUOUS
 62
     6
 10
88.159883
 20
323.522960
 11
88.159883
 21
287.482554
  0
ARC
  8
CSLAYER1
  6
CONTINUOUS
 62
     6
 10
89.159883
 20
287.482554
 40
1.000000
 50
180.000020
 51
268.830766
  0
LINE
  8
CSLAYER1
  6
CONTINUOUS
 62
     6
 10
89.139467
 20
286.482798
 11
96.719132
 21
286.085606
  0
ARC
  8
CSLAYER1
  6
CONTINUOUS
 62
     6
 10
96.630166
 20
284.387861
 40
1.700075
 50
-86.999412
 51
87.000310
  0
LINE
  8
CSLAYER1
  6
CONTINUOUS
 62
     6
 10
96.719158
 20
282.690116
 11
93.144838
 21
282.502757
  0
ARC
  8
CSLAYER1
  6
CONTINUOUS
 62
     6
 10
93.144838
 20
281.502757
 40
1.000000
 50
90.000039
 51
180.000020
  0
LINE
  8
CSLAYER1
  6
CONTINUOUS
 62
     6
 10
92.159883
 20
281.502757
 11
92.159883
 21
280.502757
  0
ARC
  8
CSLAYER1
  6
CONTINUOUS
 62
     6
 10
93.159883
 20
280.502757
 40
1.000000
 50
180.000020
 51
270.000001
  0
LINE
  8
CSLAYER1
  6
CONTINUOUS
 62
     6
 10
93.159883
 20
279.502757
 11
102.007732
 21
279.039080
  0
ARC
  8
CSLAYER1
  6
CONTINUOUS
 62
     6
 10
137.159883
 20
305.502757
 40
45.000000
 50
215.914393
 51
324.085608
  0
LINE
  8
CSLAYER1
  6
CONTINUOUS
 62
     6
 10
177.772571
 20
279.325243
 11
185.895633
 21
267.169942
  0
ARC
  8
CSLAYER1
  6
CONTINUOUS
 62
     6
 10
179.659883
 20
263.002757
 40
7.500000
 50
-123.753747
 51
33.753747
  0
LINE
  8
CSLAYER1
  6
CONTINUOUS
 62
     6
 10
178.826546
 20
260.207665
 11
178.826546
 21
261.336137
  0
ARC
  8
CSLAYER1
  6
CONTINUOUS
 62
     6
 10
177.993203
 20
261.336137
 40
0.833333
 50
0.057309
 51
89.999999
  0
LINE
  8
CSLAYER1
  6
CONTINUOUS
 62
     6
 10
177.993203
 20
262.169437
 11
176.864818
 21
262.169437
  0
ARC
  8
CSLAYER1
  6
CONTINUOUS
 62
     6
 10
179.659890
 20
263.002781
 40
2.916667
 50
163.398428
 51
196.601562
  0
LINE
  8
CSLAYER1
  6
CONTINUOUS
 62
     6
 10
176.864818
 20
263.836124
 11
177.993203
 21
263.836124
  0
ARC
  8
CSLAYER1
  6
CONTINUOUS
 62
     6
 10
177.993203
 20
264.669425
 40
0.833333
 50
269.999984
 51
359.999990
  0
LINE
  8
CSLAYER1
  6
CONTINUOUS
 62
     6
 10
178.826546
 20
264.669425
 11
178.826546
 21
265.797896
  0
ARC
  8
CSLAYER1
  6
CONTINUOUS
 62
     6
 10
179.659890
 20
263.002781
 40
2.916667
 50
73.398405
 51
106.601594
  0
LINE
  8
CSLAYER1
  6
CONTINUOUS
 62
     6
 10
180.493234
 20
265.797896
 11
180.493234
 21
264.669425
  0
ARC
  8
CSLAYER1
  6
CONTINUOUS
 62
     6
 10
181.326577
 20
264.669425
 40
0.833333
 50
179.999995
 51
269.999984
  0
LINE
  8
CSLAYER1
  6
CONTINUOUS
 62
     6
 10
181.326577
 20
263.836124
 11
182.454962
 21
263.836124
  0
ARC
  8
CSLAYER1
  6
CONTINUOUS
 62
     6
 10
179.659890
 20
263.002781
 40
2.916667
 50
-16.601577
 51
16.601584
  0
LINE
  8
CSLAYER1
  6
CONTINUOUS
 62
     6
 10
182.454962
 20
262.169437
 11
181.326577
 21
262.169437
  0
ARC
  8
CSLAYER1
  6
CONTINUOUS
 62
     6
 10
181.326577
 20
261.336137
 40
0.833333
 50
90.057346
 51
179.999995
  0
LINE
  8
CSLAYER1
  6
CONTINUOUS
 62
     6
 10
180.493234
 20
261.336137
 11
180.493234
 21
260.207665
  0
ARC
  8
CSLAYER1
  6
CONTINUOUS
 62
     6
 10
179.659890
 20
263.002781
 40
2.916667
 50
253.398417
 51
286.601578
  0
CIRCLE
  8
CSLAYER1
  6
CONTINUOUS
 62
     6
 10
179.659871
 20
263.002780
 40
5.250000
  0
LINE
  8
CSLAYER1
  6
CONTINUOUS
 62
     6
 10
187.159883
 20
263.002757
 11
187.159883
 21
348.002757
  0
LINE
  8
CSLAYER1
  6
CONTINUOUS
 62
     6
 10
185.895633
 20
343.835573
 11
177.770596
 21
331.677317
  0
ARC
  8
CSLAYER1
  6
CONTINUOUS
 62
     6
 10
182.759196
 20
328.343569
 40
6.000000
 50
182.848860
 51
206.606406
  0
ARC
  8
CSLAYER1
  6
CONTINUOUS
 62
     6
 10
137.159883
 20
305.502757
 40
45.000000
 50
25.550580
 51
29.475790
  0
LINE
  8
CSLAYER1
  6
CONTINUOUS
 62
     6
 10
169.159883
 20
324.076933
 11
169.159883
 21
317.502757
  0
ARC
  8
CSLAYER1
  6
CONTINUOUS
 62
     6
 10
167.159883
 20
317.502757
 40
2.000000
 50
270.000000
 51
360.000000
  0
LINE
  8
CSLAYER1
  6
CONTINUOUS
 62
     6
 10
167.159883
 20
315.502757
 11
161.159883
 21
315.502757
  0
ARC
  8
CSLAYER1
  6
CONTINUOUS
 62
     6
 10
161.159883
 20
318.502757
 40
3.000000
 50
180.000000
 51
270.000000
  0
LINE
  8
CSLAYER1
  6
CONTINUOUS
 62
     6
 10
158.159883
 20
318.502757
 11
158.159883
 21
331.884569
  0
ARC
  8
CSLAYER1
  6
CONTINUOUS
 62
     6
 10
160.159883
 20
331.884569
 40
2.000000
 50
48.917667
 51
180.000000
  0
ARC
  8
CSLAYER1
  6
CONTINUOUS
 62
     6
 10
137.159883
 20
305.502757
 40
37.000000
 50
30.132722
 51
48.917667
  0
LINE
  8
CSLAYER1
  6
CONTINUOUS
 62
     6
 10
151.159883
 20
325.124174
 11
151.159883
 21
335.502757
  0
ARC
  8
CSLAYER1
  6
CONTINUOUS
 62
     6
 10
149.159883
 20
335.502757
 40
2.000000
 50
0.000000
 51
90.000000
  0
LINE
  8
CSLAYER1
  6
CONTINUOUS
 62
     6
 10
149.159883
 20
337.502757
 11
144.159883
 21
337.502757
  0
ARC
  8
CSLAYER1
  6
CONTINUOUS
 62
     6
 10
144.159883
 20
335.502757
 40
2.000000
 50
90.000000
 51
180.000000
  0
LINE
  8
CSLAYER1
  6
CONTINUOUS
 62
     6
 10
142.159883
 20
335.502757
 11
142.159883
 21
327.411660
  0
ARC
  8
CSLAYER1
  6
CONTINUOUS
 62
     6
 10
144.159883
 20
327.411660
 40
2.000000
 50
180.000000
 51
252.281068
  0
ARC
  8
CSLAYER1
  6
CONTINUOUS
 62
     6
 10
137.159883
 20
305.502757
 40
21.000000
 50
58.551019
 51
72.281068
  0
ARC
  8
CSLAYER1
  6
CONTINUOUS
 62
     6
 10
149.159883
 20
325.124174
 40
2.000000
 50
238.551019
 51
360.000000
  0
LINE
  8
CSLAYER1
  6
CONTINUOUS
 62
     6
 10
132.159883
 20
327.411660
 11
132.159883
 21
335.502757
  0
ARC
  8
CSLAYER1
  6
CONTINUOUS
 62
     6
 10
130.159883
 20
335.502757
 40
2.000000
 50
0.000000
 51
90.000000
  0
LINE
  8
CSLAYER1
  6
CONTINUOUS
 62
     6
 10
130.159883
 20
337.502757
 11
125.159883
 21
337.502757
  0
ARC
  8
CSLAYER1
  6
CONTINUOUS
 62
     6
 10
125.159883
 20
335.502757
 40
2.000000
 50
90.000000
 51
180.000000
  0
LINE
  8
CSLAYER1
  6
CONTINUOUS
 62
     6
 10
123.159883
 20
335.502757
 11
123.159883
 21
325.124174
  0
ARC
  8
CSLAYER1
  6
CONTINUOUS
 62
     6
 10
125.159883
 20
325.124174
 40
2.000000
 50
180.000000
 51
301.448981
  0
ARC
  8
CSLAYER1
  6
CONTINUOUS
 62
     6
 10
137.159883
 20
305.502757
 40
21.000000
 50
107.718932
 51
121.448981
  0
ARC
  8
CSLAYER1
  6
CONTINUOUS
 62
     6
 10
130.159883
 20
327.411660
 40
2.000000
 50
287.718932
 51
360.000000
  0
ARC
  8
CSLAYER1
  6
CONTINUOUS
 62
     6
 10
114.159883
 20
331.884569
 40
2.000000
 50
0.000000
 51
131.082333
  0
ARC
  8
CSLAYER1
  6
CONTINUOUS
 62
     6
 10
137.159883
 20
305.502757
 40
37.000000
 50
131.082333
 51
149.867278
  0
LINE
  8
CSLAYER1
  6
CONTINUOUS
 62
     6
 10
105.159883
 20
324.076933
 11
105.159883
 21
317.502757
  0
ARC
  8
CSLAYER1
  6
CONTINUOUS
 62
     6
 10
107.159883
 20
317.502757
 40
2.000000
 50
180.000000
 51
270.000000
  0
LINE
  8
CSLAYER1
  6
CONTINUOUS
 62
     6
 10
107.159883
 20
315.502757
 11
113.159883
 21
315.502757
  0
ARC
  8
CSLAYER1
  6
CONTINUOUS
 62
     6
 10
113.159883
 20
318.502757
 40
3.000000
 50
270.000000
 51
360.000000
  0
LINE
  8
CSLAYER1
  6
CONTINUOUS
 62
     6
 10
116.159883
 20
318.502757
 11
116.159883
 21
331.884569
  0
ARC
  8
CSLAYER1
  6
CONTINUOUS
 62
     6
 10
114.319071
 20
351.102070
 40
6.000000
 50
236.246253
 51
296.606406
  0
LINE
  8
CSLAYER1
  6
CONTINUOUS
 62
     6
 10
110.985324
 20
346.113470
 11
98.827068
 21
354.238507
  0
ARC
  8
CSLAYER1
  6
CONTINUOUS
 62
     6
 10
94.659883
 20
348.002757
 40
7.500000
 50
56.246253
 51
213.753747
  0
LINE
  8
CSLAYER1
  6
CONTINUOUS
 62
     6
 10
88.424134
 20
343.835573
 11
96.549171
 21
331.677317
  0
ARC
  8
CSLAYER1
  6
CONTINUOUS
 62
     6
 10
91.560571
 20
328.343569
 40
6.000000
 50
333.393594
 51
357.151140
  0
ARC
  8
CSLAYER1
  6
CONTINUOUS
 62
     6
 10
137.159883
 20
305.502757
 40
45.000000
 50
150.524210
 51
154.449420
  0
LINE
  8
CSLAYER1
  6
CONTINUOUS
 62
     6
 10
95.493220
 20
345.207618
 11
95.493220
 21
346.336090
  0
ARC
  8
CSLAYER1
  6
CONTINUOUS
 62
     6
 10
96.326564
 20
346.336090
 40
0.833333
 50
89.999984
 51
179.999990
  0
LINE
  8
CSLAYER1
  6
CONTINUOUS
 62
     6
 10
96.326564
 20
347.169390
 11
97.454949
 21
347.169390
  0
ARC
  8
CSLAYER1
  6
CONTINUOUS
 62
     6
 10
94.659877
 20
348.002734
 40
2.916667
 50
-16.601572
 51
16.601562
  0
LINE
  8
CSLAYER1
  6
CONTINUOUS
 62
     6
 10
97.454949
 20
348.836077
 11
96.326564
 21
348.836077
  0
ARC
  8
CSLAYER1
  6
CONTINUOUS
 62
     6
 10
96.326564
 20
349.669378
 40
0.833333
 50
180.057309
 51
269.999999
  0
LINE
  8
CSLAYER1
  6
CONTINUOUS
 62
     6
 10
95.493220
 20
349.669378
 11
95.493220
 21
350.797849
  0
ARC
  8
CSLAYER1
  6
CONTINUOUS
 62
     6
 10
94.659877
 20
348.002734
 40
2.916667
 50
73.398417
 51
106.601578
  0
LINE
  8
CSLAYER1
  6
CONTINUOUS
 62
     6
 10
93.826533
 20
350.797849
 11
93.826533
 21
349.669378
  0
ARC
  8
CSLAYER1
  6
CONTINUOUS
 62
     6
 10
92.993189
 20
349.669378
 40
0.833333
 50
270.057346
 51
359.999995
  0
LINE
  8
CSLAYER1
  6
CONTINUOUS
 62
     6
 10
92.993189
 20
348.836077
 11
91.864805
 21
348.836077
  0
ARC
  8
CSLAYER1
  6
CONTINUOUS
 62
     6
 10
94.659877
 20
348.002734
 40
2.916667
 50
163.398423
 51
196.601584
  0
LINE
  8
CSLAYER1
  6
CONTINUOUS
 62
     6
 10
91.864805
 20
347.169390
 11
92.993189
 21
347.169390
  0
ARC
  8
CSLAYER1
  6
CONTINUOUS
 62
     6
 10
92.993189
 20
346.336090
 40
0.833333
 50
-0.000005
 51
89.999984
  0
LINE
  8
CSLAYER1
  6
CONTINUOUS
 62
     6
 10
93.826533
 20
346.336090
 11
93.826533
 21
345.207618
  0
ARC
  8
CSLAYER1
  6
CONTINUOUS
 62
     6
 10
94.659877
 20
348.002734
 40
2.916667
 50
253.398405
 51
286.601594
  0
CIRCLE
  8
CSLAYER1
  6
CONTINUOUS
 62
     6
 10
94.659896
 20
348.002735
 40
5.250000
  0
LINE
  8
CSLAYER1
  6
CONTINUOUS
 62
     6
 10
87.159883
 20
348.002757
 11
87.159883
 21
263.002757
  0
ARC
  8
CSLAYER1
  6
CONTINUOUS
 62
     6
 10
94.659883
 20
263.002757
 40
7.500000
 50
146.246253
 51
303.753747
  0
LINE
  8
CSLAYER1
  6
CONTINUOUS
 62
     6
 10
98.827068
 20
256.767008
 11
110.985324
 21
264.892045
  0
ARC
  8
CSLAYER1
  6
CONTINUOUS
 62
     6
 10
114.319071
 20
259.903445
 40
6.000000
 50
63.393594
 51
123.753747
  0
ARC
  8
CSLAYER1
  6
CONTINUOUS
 62
     6
 10
125.159883
 20
275.502757
 40
2.000000
 50
180.000000
 51
270.000000
  0
LINE
  8
CSLAYER1
  6
CONTINUOUS
 62
     6
 10
123.159883
 20
275.502757
 11
123.159883
 21
285.881340
  0
ARC
  8
CSLAYER1
  6
CONTINUOUS
 62
     6
 10
125.159883
 20
285.881340
 40
2.000000
 50
58.551019
 51
180.000000
  0
ARC
  8
CSLAYER1
  6
CONTINUOUS
 62
     6
 10
137.159883
 20
305.502757
 40
21.000000
 50
238.551019
 51
252.281068
  0
ARC
  8
CSLAYER1
  6
CONTINUOUS
 62
     6
 10
130.159883
 20
283.593855
 40
2.000000
 50
0.000000
 51
72.281068
  0
LINE
  8
CSLAYER1
  6
CONTINUOUS
 62
     6
 10
132.159883
 20
283.593855
 11
132.159883
 21
275.502757
  0
ARC
  8
CSLAYER1
  6
CONTINUOUS
 62
     6
 10
130.159883
 20
275.502757
 40
2.000000
 50
270.000000
 51
360.000000
  0
LINE
  8
CSLAYER1
  6
CONTINUOUS
 62
     6
 10
130.159883
 20
273.502757
 11
125.159883
 21
273.502757
  0
LINE
  8
CSLAYER1
  6
CONTINUOUS
 62
     6
 10
116.159883
 20
279.120945
 11
116.159883
 21
292.502757
  0
ARC
  8
CSLAYER1
  6
CONTINUOUS
 62
     6
 10
113.159883
 20
292.502757
 40
3.000000
 50
0.000000
 51
90.000000
  0
LINE
  8
CSLAYER1
  6
CONTINUOUS
 62
     6
 10
113.159883
 20
295.502757
 11
107.159883
 21
295.502757
  0
ARC
  8
CSLAYER1
  6
CONTINUOUS
 62
     6
 10
107.159883
 20
293.502757
 40
2.000000
 50
90.000000
 51
180.000000
  0
LINE
  8
CSLAYER1
  6
CONTINUOUS
 62
     6
 10
105.159883
 20
293.502757
 11
105.159883
 21
286.928582
  0
ARC
  8
CSLAYER1
  6
CONTINUOUS
 62
     6
 10
137.159883
 20
305.502757
 40
37.000000
 50
210.132722
 51
228.917667
  0
ARC
  8
CSLAYER1
  6
CONTINUOUS
 62
     6
 10
114.159883
 20
279.120945
 40
2.000000
 50
228.917667
 51
360.000000
  0
ARC
  8
CSLAYER1
  6
CONTINUOUS
 62
     6
 10
137.159883
 20
305.502757
 40
45.000000
 50
205.543092
 51
209.475790
  0
ARC
  8
CSLAYER1
  6
CONTINUOUS
 62
     6
 10
91.560571
 20
282.661945
 40
6.000000
 50
2.848860
 51
26.606406
  0
LINE
  8
CSLAYER1
  6
CONTINUOUS
 62
     6
 10
96.549171
 20
279.328198
 11
88.424134
 21
267.169942
  0
ARC
  8
CSLAYER1
  6
CONTINUOUS
 62
     6
 10
94.659877
 20
263.002781
 40
2.916667
 50
163.398416
 51
196.601577
  0
LINE
  8
CSLAYER1
  6
CONTINUOUS
 62
     6
 10
91.864805
 20
262.169437
 11
92.993189
 21
262.169437
  0
ARC
  8
CSLAYER1
  6
CONTINUOUS
 62
     6
 10
92.993189
 20
261.336137
 40
0.833333
 50
0.000005
 51
89.942654
  0
LINE
  8
CSLAYER1
  6
CONTINUOUS
 62
     6
 10
93.826533
 20
261.336137
 11
93.826533
 21
260.207665
  0
ARC
  8
CSLAYER1
  6
CONTINUOUS
 62
     6
 10
94.659877
 20
263.002781
 40
2.916667
 50
253.398422
 51
286.601583
  0
LINE
  8
CSLAYER1
  6
CONTINUOUS
 62
     6
 10
95.493220
 20
260.207665
 11
95.493220
 21
261.336137
  0
ARC
  8
CSLAYER1
  6
CONTINUOUS
 62
     6
 10
96.326564
 20
261.336137
 40
0.833333
 50
90.000001
 51
179.942691
  0
LINE
  8
CSLAYER1
  6
CONTINUOUS
 62
     6
 10
96.326564
 20
262.169437
 11
97.454949
 21
262.169437
  0
ARC
  8
CSLAYER1
  6
CONTINUOUS
 62
     6
 10
94.659877
 20
263.002781
 40
2.916667
 50
-16.601562
 51
16.601572
  0
LINE
  8
CSLAYER1
  6
CONTINUOUS
 62
     6
 10
97.454949
 20
263.836124
 11
96.326564
 21
263.836124
  0
ARC
  8
CSLAYER1
  6
CONTINUOUS
 62
     6
 10
96.326564
 20
264.669425
 40
0.833333
 50
180.000010
 51
270.000016
  0
LINE
  8
CSLAYER1
  6
CONTINUOUS
 62
     6
 10
95.493220
 20
264.669425
 11
95.493220
 21
265.797896
  0
ARC
  8
CSLAYER1
  6
CONTINUOUS
 62
     6
 10
94.659877
 20
263.002781
 40
2.916667
 50
73.398406
 51
106.601595
  0
LINE
  8
CSLAYER1
  6
CONTINUOUS
 62
     6
 10
93.826533
 20
265.797896
 11
93.826533
 21
264.669425
  0
ARC
  8
CSLAYER1
  6
CONTINUOUS
 62
     6
 10
92.993189
 20
264.669425
 40
0.833333
 50
-89.999984
 51
0.000005
  0
LINE
  8
CSLAYER1
  6
CONTINUOUS
 62
     6
 10
92.993189
 20
263.836124
 11
91.864805
 21
263.836124
  0
CIRCLE
  8
CSLAYER1
  6
CONTINUOUS
 62
     6
 10
94.659896
 20
263.002780
 40
5.250000
  0
LINE
  8
CSLAYER1
  6
CONTINUOUS
 62
     6
 10
134.659866
 20
260.558396
 11
134.659862
 21
256.409291
  0
ARC
  8
CSLAYER1
  6
CONTINUOUS
 62
     6
 10
135.284872
 20
257.491837
 40
1.250017
 50
239.999981
 51
299.999981
  0
ARC
  8
CSLAYER1
  6
CONTINUOUS
 62
     6
 10
136.534889
 20
257.491837
 40
1.250017
 50
239.999981
 51
299.999981
  0
LINE
  8
CSLAYER1
  6
CONTINUOUS
 62
     6
 10
137.159897
 20
256.409290
 11
137.159883
 21
260.502757
  0
LINE
  8
CSLAYER1
  6
CONTINUOUS
 62
     6
 10
139.659901
 20
260.558396
 11
139.659897
 21
256.409291
  0
ARC
  8
CSLAYER1
  6
CONTINUOUS
 62
     6
 10
139.034925
 20
257.491837
 40
1.250017
 50
239.999981
 51
299.999981
  0
ARC
  8
CSLAYER1
  6
CONTINUOUS
 62
     6
 10
137.784908
 20
257.491837
 40
1.250017
 50
239.999981
 51
299.999981
  0
ARC
  8
CSLAYER1
  6
CONTINUOUS
 62
     6
 10
136.534888
 20
255.326744
 40
1.250017
 50
59.999981
 51
119.999981
  0
ARC
  8
CSLAYER1
  6
CONTINUOUS
 62
     6
 10
135.284845
 20
253.464259
 40
1.250008
 50
60.000345
 51
120.000345
  0
ARC
  8
CSLAYER1
  6
CONTINUOUS
 62
     6
 10
135.284832
 20
255.629337
 40
1.250008
 50
240.000345
 51
300.000345
  0
ARC
  8
CSLAYER1
  6
CONTINUOUS
 62
     6
 10
136.534853
 20
253.464267
 40
1.250008
 50
60.000345
 51
120.000345
  0
ARC
  8
CSLAYER1
  6
CONTINUOUS
 62
     6
 10
137.784868
 20
255.629337
 40
1.250008
 50
240.000345
 51
300.000345
  0
ARC
  8
CSLAYER1
  6
CONTINUOUS
 62
     6
 10
137.784881
 20
253.464259
 40
1.250008
 50
60.000345
 51
120.000345
  0
LINE
  8
CSLAYER1
  6
CONTINUOUS
 62
     6
 10
137.159871
 20
254.546794
 11
137.159841
 21
253.082017
  0
ARC
  8
CSLAYER1
  6
CONTINUOUS
 62
     6
 10
119.251971
 20
253.099930
 40
17.907879
 50
332.536225
 51
359.942687
  0
LINE
  8
CSLAYER1
  6
CONTINUOUS
 62
     6
 10
135.141676
 20
244.841049
 11
132.923399
 21
245.994042
  0
ARC
  8
CSLAYER1
  6
CONTINUOUS
 62
     6
 10
119.251971
 20
253.099930
 40
15.407880
 50
332.536225
 51
359.942687
  0
LINE
  8
CSLAYER1
  6
CONTINUOUS
 62
     6
 10
134.659843
 20
253.099988
 11
134.659843
 21
254.546802
  0
ARC
  8
CSLAYER1
  6
CONTINUOUS
 62
     6
 10
155.067769
 20
253.099988
 40
17.907879
 50
180.000020
 51
207.463892
  0
LINE
  8
CSLAYER1
  6
CONTINUOUS
 62
     6
 10
139.178083
 20
244.841049
 11
141.396360
 21
245.994003
  0
ARC
  8
CSLAYER1
  6
CONTINUOUS
 62
     6
 10
155.067769
 20
253.099930
 40
15.407880
 50
179.999963
 51
207.463892
  0
LINE
  8
CSLAYER1
  6
CONTINUOUS
 62
     6
 10
139.659897
 20
253.099988
 11
139.659897
 21
254.546802
  0
ARC
  8
CSLAYER1
  6
CONTINUOUS
 62
     6
 10
139.034890
 20
253.464267
 40
1.250008
 50
60.000345
 51
120.000345
  0
ARC
  8
CSLAYER1
  6
CONTINUOUS
 62
     6
 10
139.034925
 20
255.326744
 40
1.250017
 50
59.999981
 51
119.999981
  0
LINE
  8
CSLAYER1
  6
CONTINUOUS
 62
     6
 10
140.859596
 20
245.715019
 11
142.673792
 21
242.722811
  0
LINE
  8
CSLAYER1
  6
CONTINUOUS
 62
     6
 10
141.937023
 20
242.210819
 11
140.287221
 21
245.417526
  0
LINE
  8
CSLAYER1
  6
CONTINUOUS
 62
     6
 10
139.712394
 20
245.124801
 11
141.092097
 21
241.909053
  0
CIRCLE
  8
CSLAYER1
  6
CONTINUOUS
 62
     6
 10
137.159883
 20
239.502757
 40
4.250000
  0
LINE
  8
CSLAYER1
  6
CONTINUOUS
 62
     6
 10
133.058335
 20
241.698827
 11
134.625124
 21
245.109537
  0
LINE
  8
CSLAYER1
  6
CONTINUOUS
 62
     6
 10
134.032538
 20
245.417545
 11
132.271616
 21
241.986042
  0
LINE
  8
CSLAYER1
  6
CONTINUOUS
 62
     6
 10
131.579541
 20
242.457690
 11
133.436772
 21
245.719356
  0
LINE
  8
CSLAYER1
  6
CONTINUOUS
 62
     6
 10
132.765855
 20
291.160792
 11
133.348200
 21
293.061562
  0
ARC
  8
CSLAYER1
  6
CONTINUOUS
 62
     6
 10
130.667754
 20
294.226021
 40
2.922462
 50
-23.481547
 51
129.764151
  0
ARC
  8
CSLAYER1
  6
CONTINUOUS
 62
     6
 10
127.926252
 20
297.520684
 40
1.363635
 50
217.903413
 51
309.763730
  0
ARC
  8
CSLAYER1
  6
CONTINUOUS
 62
     6
 10
137.159883
 20
304.709635
 40
13.065822
 50
-37.903067
 51
217.903051
  0
ARC
  8
CSLAYER1
  6
CONTINUOUS
 62
     6
 10
146.393502
 20
297.520684
 40
1.363635
 50
230.236329
 51
322.096590
  0
ARC
  8
CSLAYER1
  6
CONTINUOUS
 62
     6
 10
143.652003
 20
294.226021
 40
2.922462
 50
50.235851
 51
203.481549
  0
LINE
  8
CSLAYER1
  6
CONTINUOUS
 62
     6
 10
140.971554
 20
293.061562
 11
141.553899
 21
291.160792
  0
CIRCLE
  8
CSLAYER1
  6
CONTINUOUS
 62
     6
 10
143.652003
 20
294.226021
 40
1.363635
  0
CIRCLE
  8
CSLAYER1
  6
CONTINUOUS
 62
     6
 10
130.667754
 20
294.226021
 40
1.363635
  0
ARC
  8
CSLAYER1
  6
CONTINUOUS
 62
     6
 10
137.159883
 20
305.502757
 40
45.000000
 50
330.524210
 51
334.456908
  0
ARC
  8
CSLAYER1
  6
CONTINUOUS
 62
     6
 10
182.759196
 20
282.661945
 40
6.000000
 50
153.393594
 51
177.151140
  0
CIRCLE
  8
CSLAYER1
  6
CONTINUOUS
 62
     6
 10
203.159883
 20
305.502757
 40
4.250000
  0
LINE
  8
CSLAYER1
  6
CONTINUOUS
 62
     6
 10
261.489862
 20
348.391216
 11
261.489862
 21
262.502757
  0
LINE
  8
CSLAYER1
  6
CONTINUOUS
 62
     6
 10
261.489862
 20
262.502757
 11
262.489862
 21
261.502757
  0
LINE
  8
CSLAYER1
  6
CONTINUOUS
 62
     6
 10
262.489862
 20
261.502757
 11
262.489862
 21
349.391216
  0
LINE
  8
CSLAYER1
  6
CONTINUOUS
 62
     6
 10
262.489862
 20
349.391216
 11
261.489862
 21
348.391216
  0
LINE
  8
CSLAYER1
  6
CONTINUOUS
 62
     6
 10
262.489862
 20
349.391216
 11
314.489862
 21
349.391216
  0
LINE
  8
CSLAYER1
  6
CONTINUOUS
 62
     6
 10
314.489862
 20
350.502757
 11
314.489862
 21
260.502757
  0
LINE
  8
CSLAYER1
  6
CONTINUOUS
 62
     6
 10
314.489862
 20
260.502757
 11
425.851077
 21
260.502757
  0
ARC
  8
CSLAYER1
  6
CONTINUOUS
 62
     6
 10
427.846619
 20
259.961993
 40
1.810349
 50
196.257399
 51
264.999892
  0
LINE
  8
CSLAYER1
  6
CONTINUOUS
 62
     6
 10
427.688833
 20
258.158522
 11
428.829030
 21
258.058773
  0
ARC
  8
CSLAYER1
  6
CONTINUOUS
 62
     6
 10
428.860631
 20
258.419456
 40
0.362070
 50
264.999865
 51
359.942691
  0
LINE
  8
CSLAYER1
  6
CONTINUOUS
 62
     6
 10
429.222723
 20
257.933831
 11
429.222723
 21
268.071739
  0
ARC
  8
CSLAYER1
  6
CONTINUOUS
 62
     6
 10
429.403714
 20
268.071739
 40
0.181035
 50
90.000003
 51
180.000005
  0
LINE
  8
CSLAYER1
  6
CONTINUOUS
 62
     6
 10
429.403714
 20
268.252785
 11
430.308888
 21
268.252785
  0
ARC
  8
CSLAYER1
  6
CONTINUOUS
 62
     6
 10
430.308888
 20
268.071739
 40
0.181035
 50
0.000000
 51
90.000003
  0
LINE
  8
CSLAYER1
  6
CONTINUOUS
 62
     6
 10
429.489862
 20
268.252728
 11
429.489862
 21
342.752730
  0
LINE
  8
CSLAYER1
  6
CONTINUOUS
 62
     6
 10
429.403714
 20
342.752786
 11
430.308888
 21
342.752786
  0
ARC
  8
CSLAYER1
  6
CONTINUOUS
 62
     6
 10
430.308888
 20
342.933832
 40
0.181035
 50
270.000001
 51
359.942691
  0
ARC
  8
CSLAYER1
  6
CONTINUOUS
 62
     6
 10
429.403714
 20
342.933832
 40
0.181035
 50
180.000005
 51
270.000001
  0
LINE
  8
CSLAYER1
  6
CONTINUOUS
 62
     6
 10
429.222723
 20
342.933832
 11
429.222723
 21
353.071741
  0
ARC
  8
CSLAYER1
  6
CONTINUOUS
 62
     6
 10
429.403714
 20
353.071741
 40
0.181035
 50
90.000003
 51
180.000005
  0
LINE
  8
CSLAYER1
  6
CONTINUOUS
 62
     6
 10
429.403714
 20
353.252786
 11
430.308888
 21
353.252786
  0
ARC
  8
CSLAYER1
  6
CONTINUOUS
 62
     6
 10
430.308888
 20
353.071741
 40
0.181035
 50
0.000000
 51
90.000003
  0
ARC
  8
CSLAYER1
  6
CONTINUOUS
 62
     6
 10
428.860631
 20
352.586115
 40
0.362070
 50
0.000000
 51
95.000152
  0
LINE
  8
CSLAYER1
  6
CONTINUOUS
 62
     6
 10
428.829030
 20
352.946798
 11
427.688833
 21
352.847049
  0
ARC
  8
CSLAYER1
  6
CONTINUOUS
 62
     6
 10
427.846619
 20
351.043579
 40
1.810349
 50
95.000111
 51
163.742611
  0
ARC
  8
CSLAYER1
  6
CONTINUOUS
 62
     6
 10
438.274466
 20
348.002786
 40
12.672440
 50
163.742994
 51
196.257016
  0
ARC
  8
CSLAYER1
  6
CONTINUOUS
 62
     6
 10
427.846619
 20
344.961994
 40
1.810349
 50
196.257399
 51
264.999892
  0
LINE
  8
CSLAYER1
  6
CONTINUOUS
 62
     6
 10
427.688833
 20
343.158524
 11
428.829030
 21
343.058775
  0
ARC
  8
CSLAYER1
  6
CONTINUOUS
 62
     6
 10
428.860631
 20
343.419458
 40
0.362070
 50
264.999865
 51
359.942691
  0
LINE
  8
CSLAYER1
  6
CONTINUOUS
 62
     6
 10
429.222723
 20
346.923942
 11
430.489934
 21
347.727488
  0
LINE
  8
CSLAYER1
  6
CONTINUOUS
 62
     6
 10
430.489934
 20
348.632663
 11
429.222723
 21
347.829116
  0
LINE
  8
CSLAYER1
  6
CONTINUOUS
 62
     6
 10
425.851065
 20
350.502757
 11
314.489862
 21
350.502757
  0
LINE
  8
CSLAYER1
  6
CONTINUOUS
 62
     6
 10
311.489862
 20
331.502757
 11
275.489862
 21
331.502757
  0
ARC
  8
CSLAYER1
  6
CONTINUOUS
 62
     6
 10
275.489862
 20
330.502757
 40
1.000000
 50
90.000016
 51
180.000005
  0
LINE
  8
CSLAYER1
  6
CONTINUOUS
 62
     6
 10
274.489862
 20
330.502757
 11
274.489862
 21
329.502757
  0
ARC
  8
CSLAYER1
  6
CONTINUOUS
 62
     6
 10
275.489862
 20
329.502757
 40
1.000000
 50
180.000019
 51
270.000001
  0
LINE
  8
CSLAYER1
  6
CONTINUOUS
 62
     6
 10
275.489862
 20
328.502757
 11
311.489862
 21
328.502757
  0
ARC
  8
CSLAYER1
  6
CONTINUOUS
 62
     6
 10
311.489862
 20
329.502757
 40
1.000000
 50
270.000001
 51
359.942691
  0
LINE
  8
CSLAYER1
  6
CONTINUOUS
 62
     6
 10
312.489862
 20
329.502757
 11
312.489862
 21
330.502757
  0
ARC
  8
CSLAYER1
  6
CONTINUOUS
 62
     6
 10
311.489862
 20
330.502757
 40
1.000000
 50
0.000000
 51
90.000003
  0
ARC
  8
CSLAYER1
  6
CONTINUOUS
 62
     6
 10
311.489862
 20
323.502757
 40
1.000000
 50
0.000000
 51
90.000003
  0
LINE
  8
CSLAYER1
  6
CONTINUOUS
 62
     6
 10
312.489862
 20
323.502757
 11
312.489862
 21
322.502757
  0
ARC
  8
CSLAYER1
  6
CONTINUOUS
 62
     6
 10
311.489862
 20
322.502757
 40
1.000000
 50
270.000001
 51
359.942691
  0
LINE
  8
CSLAYER1
  6
CONTINUOUS
 62
     6
 10
311.489862
 20
321.502757
 11
306.718622
 21
321.502757
  0
ARC
  8
CSLAYER1
  6
CONTINUOUS
 62
     6
 10
306.718622
 20
320.502757
 40
1.000000
 50
90.000003
 51
228.590367
  0
ARC
  8
CSLAYER1
  6
CONTINUOUS
 62
     6
 10
293.489862
 20
305.502757
 40
19.000000
 50
-48.590366
 51
48.590386
  0
ARC
  8
CSLAYER1
  6
CONTINUOUS
 62
     6
 10
306.718622
 20
290.502757
 40
1.000000
 50
131.409643
 51
270.000001
  0
LINE
  8
CSLAYER1
  6
CONTINUOUS
 62
     6
 10
306.718622
 20
289.502757
 11
311.489862
 21
289.502757
  0
ARC
  8
CSLAYER1
  6
CONTINUOUS
 62
     6
 10
311.489862
 20
288.502757
 40
1.000000
 50
0.057309
 51
89.999999
  0
LINE
  8
CSLAYER1
  6
CONTINUOUS
 62
     6
 10
312.489862
 20
288.502757
 11
312.489862
 21
287.502757
  0
ARC
  8
CSLAYER1
  6
CONTINUOUS
 62
     6
 10
311.489862
 20
287.502757
 40
1.000000
 50
269.999997
 51
360.000000
  0
LINE
  8
CSLAYER1
  6
CONTINUOUS
 62
     6
 10
311.489862
 20
286.502757
 11
275.489862
 21
286.502757
  0
ARC
  8
CSLAYER1
  6
CONTINUOUS
 62
     6
 10
275.489862
 20
287.502757
 40
1.000000
 50
179.999995
 51
269.999984
  0
LINE
  8
CSLAYER1
  6
CONTINUOUS
 62
     6
 10
274.489862
 20
287.502757
 11
274.489862
 21
288.502757
  0
ARC
  8
CSLAYER1
  6
CONTINUOUS
 62
     6
 10
275.489862
 20
288.502757
 40
1.000000
 50
89.999999
 51
179.999981
  0
LINE
  8
CSLAYER1
  6
CONTINUOUS
 62
     6
 10
275.489862
 20
289.502757
 11
280.261102
 21
289.502757
  0
ARC
  8
CSLAYER1
  6
CONTINUOUS
 62
     6
 10
280.261102
 20
290.502757
 40
1.000000
 50
-89.999999
 51
48.590386
  0
ARC
  8
CSLAYER1
  6
CONTINUOUS
 62
     6
 10
293.489862
 20
305.502757
 40
19.000000
 50
131.409657
 51
228.590367
  0
ARC
  8
CSLAYER1
  6
CONTINUOUS
 62
     6
 10
280.261102
 20
320.502757
 40
1.000000
 50
-48.590366
 51
90.000019
  0
LINE
  8
CSLAYER1
  6
CONTINUOUS
 62
     6
 10
280.261102
 20
321.502757
 11
275.489862
 21
321.502757
  0
ARC
  8
CSLAYER1
  6
CONTINUOUS
 62
     6
 10
275.489862
 20
322.502757
 40
1.000000
 50
180.000019
 51
270.000001
  0
LINE
  8
CSLAYER1
  6
CONTINUOUS
 62
     6
 10
274.489862
 20
322.502757
 11
274.489862
 21
323.502757
  0
ARC
  8
CSLAYER1
  6
CONTINUOUS
 62
     6
 10
275.489862
 20
323.502757
 40
1.000000
 50
90.000016
 51
180.000005
  0
LINE
  8
CSLAYER1
  6
CONTINUOUS
 62
     6
 10
275.489862
 20
324.502757
 11
311.489862
 21
324.502757
  0
LINE
  8
CSLAYER1
  6
CONTINUOUS
 62
     6
 10
299.489862
 20
306.402751
 11
287.489862
 21
306.402751
  0
LINE
  8
CSLAYER1
  6
CONTINUOUS
 62
     6
 10
287.489862
 20
306.402751
 11
287.489862
 21
304.602763
  0
LINE
  8
CSLAYER1
  6
CONTINUOUS
 62
     6
 10
287.489862
 20
304.602763
 11
299.489862
 21
304.602763
  0
LINE
  8
CSLAYER1
  6
CONTINUOUS
 62
     6
 10
299.489862
 20
304.602763
 11
299.489862
 21
306.402751
  0
CIRCLE
  8
CSLAYER1
  6
CONTINUOUS
 62
     6
 10
293.489862
 20
305.502757
 40
12.000000
  0
CIRCLE
  8
CSLAYER1
  6
CONTINUOUS
 62
     6
 10
293.489862
 20
305.502757
 40
15.000000
  0
CIRCLE
  8
CSLAYER1
  6
CONTINUOUS
 62
     6
 10
293.489862
 20
305.502757
 40
16.000000
  0
LINE
  8
CSLAYER1
  6
CONTINUOUS
 62
     6
 10
430.489923
 20
332.564006
 11
430.489923
 21
355.502757
  0
LINE
  8
CSLAYER1
  6
CONTINUOUS
 62
     6
 10
430.489831
 20
355.502757
 11
440.489831
 21
355.502757
  0
LINE
  8
CSLAYER1
  6
CONTINUOUS
 62
     6
 10
436.489862
 20
345.502757
 11
436.489862
 21
265.502757
  0
LINE
  8
CSLAYER1
  6
CONTINUOUS
 62
     6
 10
440.489831
 20
255.502757
 11
430.489831
 21
255.502757
  0
LINE
  8
CSLAYER1
  6
CONTINUOUS
 62
     6
 10
430.489923
 20
255.502757
 11
430.489923
 21
278.441539
  0
ARC
  8
CSLAYER1
  6
CONTINUOUS
 62
     6
 10
428.860631
 20
267.586114
 40
0.362070
 50
0.000000
 51
95.000152
  0
LINE
  8
CSLAYER1
  6
CONTINUOUS
 62
     6
 10
428.829030
 20
267.946797
 11
427.688833
 21
267.847048
  0
ARC
  8
CSLAYER1
  6
CONTINUOUS
 62
     6
 10
427.846619
 20
266.043577
 40
1.810349
 50
95.000111
 51
163.742611
  0
ARC
  8
CSLAYER1
  6
CONTINUOUS
 62
     6
 10
438.274466
 20
263.002785
 40
12.672440
 50
163.742994
 51
196.257016
  0
ARC
  8
CSLAYER1
  6
CONTINUOUS
 62
     6
 10
429.403714
 20
257.933831
 40
0.181035
 50
180.000005
 51
270.000001
  0
LINE
  8
CSLAYER1
  6
CONTINUOUS
 62
     6
 10
429.403714
 20
257.752785
 11
430.308888
 21
257.752785
  0
ARC
  8
CSLAYER1
  6
CONTINUOUS
 62
     6
 10
430.308888
 20
257.933831
 40
0.181035
 50
270.000001
 51
359.942691
  0
LINE
  8
CSLAYER1
  6
CONTINUOUS
 62
     6
 10
429.222723
 20
261.923940
 11
430.489934
 21
262.727487
  0
LINE
  8
CSLAYER1
  6
CONTINUOUS
 62
     6
 10
430.489934
 20
263.632661
 11
429.222723
 21
262.829115
  0
LINE
  8
CSLAYER1
  6
CONTINUOUS
 62
     6
 10
314.489862
 20
261.502757
 11
301.489862
 21
261.502757
  0
LINE
  8
CSLAYER1
  6
CONTINUOUS
 62
     6
 10
301.489862
 20
261.502757
 11
301.489862
 21
265.502757
  0
LINE
  8
CSLAYER1
  6
CONTINUOUS
 62
     6
 10
301.489862
 20
265.502757
 11
275.489862
 21
265.502757
  0
LINE
  8
CSLAYER1
  6
CONTINUOUS
 62
     6
 10
275.489862
 20
265.502757
 11
275.489862
 21
261.502757
  0
LINE
  8
CSLAYER1
  6
CONTINUOUS
 62
     6
 10
275.489862
 20
261.502757
 11
262.489862
 21
261.502757
  0
LINE
  8
CSLAYER1
  6
CONTINUOUS
 62
     6
 10
271.373701
 20
252.498940
 11
271.202806
 21
252.331929
  0
LINE
  8
CSLAYER1
  6
CONTINUOUS
 62
     6
 10
271.202806
 20
252.331929
 11
271.029803
 21
252.163814
  0
LINE
  8
CSLAYER1
  6
CONTINUOUS
 62
     6
 10
271.029803
 20
252.163814
 11
270.856467
 21
251.996919
  0
LINE
  8
CSLAYER1
  6
CONTINUOUS
 62
     6
 10
270.856467
 20
251.996919
 11
270.684575
 21
251.833569
  0
LINE
  8
CSLAYER1
  6
CONTINUOUS
 62
     6
 10
270.684575
 20
251.833569
 11
270.515903
 21
251.676090
  0
LINE
  8
CSLAYER1
  6
CONTINUOUS
 62
     6
 10
270.515903
 20
251.676090
 11
270.352226
 21
251.526806
  0
LINE
  8
CSLAYER1
  6
CONTINUOUS
 62
     6
 10
270.352226
 20
251.526806
 11
270.195320
 21
251.388042
  0
LINE
  8
CSLAYER1
  6
CONTINUOUS
 62
     6
 10
270.195320
 20
251.388042
 11
270.054089
 21
251.265244
  0
LINE
  8
CSLAYER1
  6
CONTINUOUS
 62
     6
 10
270.054089
 20
251.265244
 11
269.907906
 21
251.137358
  0
LINE
  8
CSLAYER1
  6
CONTINUOUS
 62
     6
 10
269.907906
 20
251.137358
 11
269.757912
 21
251.004852
  0
LINE
  8
CSLAYER1
  6
CONTINUOUS
 62
     6
 10
269.757912
 20
251.004852
 11
269.605251
 21
250.868192
  0
LINE
  8
CSLAYER1
  6
CONTINUOUS
 62
     6
 10
269.605251
 20
250.868192
 11
269.451064
 21
250.727847
  0
LINE
  8
CSLAYER1
  6
CONTINUOUS
 62
     6
 10
269.451064
 20
250.727847
 11
269.296494
 21
250.584285
  0
LINE
  8
CSLAYER1
  6
CONTINUOUS
 62
     6
 10
269.296494
 20
250.584285
 11
269.142682
 21
250.437972
  0
LINE
  8
CSLAYER1
  6
CONTINUOUS
 62
     6
 10
269.142682
 20
250.437972
 11
268.990772
 21
250.289377
  0
LINE
  8
CSLAYER1
  6
CONTINUOUS
 62
     6
 10
268.990772
 20
250.289377
 11
268.841904
 21
250.138968
  0
LINE
  8
CSLAYER1
  6
CONTINUOUS
 62
     6
 10
268.841904
 20
250.138968
 11
268.697223
 21
249.987211
  0
LINE
  8
CSLAYER1
  6
CONTINUOUS
 62
     6
 10
268.697223
 20
249.987211
 11
268.557869
 21
249.834576
  0
LINE
  8
CSLAYER1
  6
CONTINUOUS
 62
     6
 10
268.557869
 20
249.834576
 11
268.502345
 21
249.771631
  0
LINE
  8
CSLAYER1
  6
CONTINUOUS
 62
     6
 10
268.502345
 20
249.771631
 11
268.447417
 21
249.708131
  0
LINE
  8
CSLAYER1
  6
CONTINUOUS
 62
     6
 10
268.447417
 20
249.708131
 11
268.393026
 21
249.644130
  0
LINE
  8
CSLAYER1
  6
CONTINUOUS
 62
     6
 10
268.393026
 20
249.644130
 11
268.339113
 21
249.579683
  0
LINE
  8
CSLAYER1
  6
CONTINUOUS
 62
     6
 10
268.339113
 20
249.579683
 11
268.285617
 21
249.514847
  0
LINE
  8
CSLAYER1
  6
CONTINUOUS
 62
     6
 10
268.285617
 20
249.514847
 11
268.232479
 21
249.449678
  0
LINE
  8
CSLAYER1
  6
CONTINUOUS
 62
     6
 10
268.232479
 20
249.449678
 11
268.179639
 21
249.384230
  0
LINE
  8
CSLAYER1
  6
CONTINUOUS
 62
     6
 10
268.179639
 20
249.384230
 11
268.127038
 21
249.318559
  0
LINE
  8
CSLAYER1
  6
CONTINUOUS
 62
     6
 10
268.127038
 20
249.318559
 11
268.074616
 21
249.252722
  0
LINE
  8
CSLAYER1
  6
CONTINUOUS
 62
     6
 10
268.074616
 20
249.252722
 11
268.022313
 21
249.186773
  0
LINE
  8
CSLAYER1
  6
CONTINUOUS
 62
     6
 10
268.022313
 20
249.186773
 11
267.893758
 21
249.024355
  0
LINE
  8
CSLAYER1
  6
CONTINUOUS
 62
     6
 10
267.893758
 20
249.024355
 11
267.922495
 21
248.977501
  0
LINE
  8
CSLAYER1
  6
CONTINUOUS
 62
     6
 10
267.922495
 20
248.977501
 11
267.963087
 21
248.917619
  0
LINE
  8
CSLAYER1
  6
CONTINUOUS
 62
     6
 10
267.963087
 20
248.917619
 11
268.007370
 21
248.857751
  0
LINE
  8
CSLAYER1
  6
CONTINUOUS
 62
     6
 10
268.007370
 20
248.857751
 11
268.054821
 21
248.798478
  0
LINE
  8
CSLAYER1
  6
CONTINUOUS
 62
     6
 10
268.054821
 20
248.798478
 11
268.104920
 21
248.740381
  0
LINE
  8
CSLAYER1
  6
CONTINUOUS
 62
     6
 10
268.104920
 20
248.740381
 11
268.157144
 21
248.684040
  0
LINE
  8
CSLAYER1
  6
CONTINUOUS
 62
     6
 10
268.157144
 20
248.684040
 11
268.210972
 21
248.630037
  0
LINE
  8
CSLAYER1
  6
CONTINUOUS
 62
     6
 10
268.210972
 20
248.630037
 11
268.265883
 21
248.578952
  0
LINE
  8
CSLAYER1
  6
CONTINUOUS
 62
     6
 10
268.265883
 20
248.578952
 11
268.321354
 21
248.531366
  0
LINE
  8
CSLAYER1
  6
CONTINUOUS
 62
     6
 10
268.321354
 20
248.531366
 11
268.376864
 21
248.487860
  0
LINE
  8
CSLAYER1
  6
CONTINUOUS
 62
     6
 10
268.376864
 20
248.487860
 11
268.431892
 21
248.449016
  0
LINE
  8
CSLAYER1
  6
CONTINUOUS
 62
     6
 10
268.431892
 20
248.449016
 11
268.488378
 21
248.414721
  0
LINE
  8
CSLAYER1
  6
CONTINUOUS
 62
     6
 10
268.488378
 20
248.414721
 11
268.548980
 21
248.383755
  0
LINE
  8
CSLAYER1
  6
CONTINUOUS
 62
     6
 10
268.548980
 20
248.383755
 11
268.613140
 21
248.355766
  0
LINE
  8
CSLAYER1
  6
CONTINUOUS
 62
     6
 10
268.613140
 20
248.355766
 11
268.680302
 21
248.330405
  0
LINE
  8
CSLAYER1
  6
CONTINUOUS
 62
     6
 10
268.680302
 20
248.330405
 11
268.749909
 21
248.307322
  0
LINE
  8
CSLAYER1
  6
CONTINUOUS
 62
     6
 10
268.749909
 20
248.307322
 11
268.821403
 21
248.286169
  0
LINE
  8
CSLAYER1
  6
CONTINUOUS
 62
     6
 10
268.821403
 20
248.286169
 11
268.894228
 21
248.266594
  0
LINE
  8
CSLAYER1
  6
CONTINUOUS
 62
     6
 10
268.894228
 20
248.266594
 11
268.967826
 21
248.248249
  0
LINE
  8
CSLAYER1
  6
CONTINUOUS
 62
     6
 10
268.967826
 20
248.248249
 11
269.041641
 21
248.230784
  0
LINE
  8
CSLAYER1
  6
CONTINUOUS
 62
     6
 10
269.041641
 20
248.230784
 11
269.115115
 21
248.213848
  0
LINE
  8
CSLAYER1
  6
CONTINUOUS
 62
     6
 10
269.115115
 20
248.213848
 11
269.187691
 21
248.197094
  0
LINE
  8
CSLAYER1
  6
CONTINUOUS
 62
     6
 10
269.187691
 20
248.197094
 11
269.261915
 21
248.179493
  0
LINE
  8
CSLAYER1
  6
CONTINUOUS
 62
     6
 10
269.261915
 20
248.179493
 11
269.335650
 21
248.161469
  0
LINE
  8
CSLAYER1
  6
CONTINUOUS
 62
     6
 10
269.335650
 20
248.161469
 11
269.408946
 21
248.143062
  0
LINE
  8
CSLAYER1
  6
CONTINUOUS
 62
     6
 10
269.408946
 20
248.143062
 11
269.481852
 21
248.124317
  0
LINE
  8
CSLAYER1
  6
CONTINUOUS
 62
     6
 10
269.481852
 20
248.124317
 11
269.554416
 21
248.105275
  0
LINE
  8
CSLAYER1
  6
CONTINUOUS
 62
     6
 10
269.554416
 20
248.105275
 11
269.626688
 21
248.085978
  0
LINE
  8
CSLAYER1
  6
CONTINUOUS
 62
     6
 10
269.626688
 20
248.085978
 11
269.698715
 21
248.066469
  0
LINE
  8
CSLAYER1
  6
CONTINUOUS
 62
     6
 10
269.698715
 20
248.066469
 11
269.770547
 21
248.046791
  0
LINE
  8
CSLAYER1
  6
CONTINUOUS
 62
     6
 10
269.770547
 20
248.046791
 11
269.842232
 21
248.026986
  0
LINE
  8
CSLAYER1
  6
CONTINUOUS
 62
     6
 10
269.842232
 20
248.026986
 11
269.913820
 21
248.007095
  0
LINE
  8
CSLAYER1
  6
CONTINUOUS
 62
     6
 10
269.913820
 20
248.007095
 11
269.994439
 21
247.984633
  0
LINE
  8
CSLAYER1
  6
CONTINUOUS
 62
     6
 10
269.994439
 20
247.984633
 11
270.121695
 21
248.156783
  0
LINE
  8
CSLAYER1
  6
CONTINUOUS
 62
     6
 10
270.121695
 20
248.156783
 11
270.216474
 21
248.283945
  0
LINE
  8
CSLAYER1
  6
CONTINUOUS
 62
     6
 10
270.216474
 20
248.283945
 11
270.312125
 21
248.410177
  0
LINE
  8
CSLAYER1
  6
CONTINUOUS
 62
     6
 10
270.312125
 20
248.410177
 11
270.409084
 21
248.535012
  0
LINE
  8
CSLAYER1
  6
CONTINUOUS
 62
     6
 10
270.409084
 20
248.535012
 11
270.507786
 21
248.657987
  0
LINE
  8
CSLAYER1
  6
CONTINUOUS
 62
     6
 10
270.507786
 20
248.657987
 11
270.608668
 21
248.778636
  0
LINE
  8
CSLAYER1
  6
CONTINUOUS
 62
     6
 10
270.608668
 20
248.778636
 11
270.712164
 21
248.896493
  0
LINE
  8
CSLAYER1
  6
CONTINUOUS
 62
     6
 10
270.712164
 20
248.896493
 11
270.818712
 21
249.011093
  0
LINE
  8
CSLAYER1
  6
CONTINUOUS
 62
     6
 10
270.818712
 20
249.011093
 11
270.928746
 21
249.121971
  0
LINE
  8
CSLAYER1
  6
CONTINUOUS
 62
     6
 10
270.928746
 20
249.121971
 11
271.042703
 21
249.228661
  0
LINE
  8
CSLAYER1
  6
CONTINUOUS
 62
     6
 10
271.042703
 20
249.228661
 11
271.161018
 21
249.330700
  0
LINE
  8
CSLAYER1
  6
CONTINUOUS
 62
     6
 10
271.161018
 20
249.330700
 11
271.312442
 21
249.449737
  0
LINE
  8
CSLAYER1
  6
CONTINUOUS
 62
     6
 10
271.312442
 20
249.449737
 11
271.470682
 21
249.564250
  0
LINE
  8
CSLAYER1
  6
CONTINUOUS
 62
     6
 10
271.470682
 20
249.564250
 11
271.633803
 21
249.675189
  0
LINE
  8
CSLAYER1
  6
CONTINUOUS
 62
     6
 10
271.633803
 20
249.675189
 11
271.799871
 21
249.783508
  0
LINE
  8
CSLAYER1
  6
CONTINUOUS
 62
     6
 10
271.799871
 20
249.783508
 11
271.966953
 21
249.890158
  0
LINE
  8
CSLAYER1
  6
CONTINUOUS
 62
     6
 10
271.966953
 20
249.890158
 11
272.133114
 21
249.996090
  0
LINE
  8
CSLAYER1
  6
CONTINUOUS
 62
     6
 10
272.133114
 20
249.996090
 11
272.296420
 21
250.102258
  0
LINE
  8
CSLAYER1
  6
CONTINUOUS
 62
     6
 10
272.296420
 20
250.102258
 11
272.454938
 21
250.209613
  0
LINE
  8
CSLAYER1
  6
CONTINUOUS
 62
     6
 10
272.454938
 20
250.209613
 11
272.606734
 21
250.319107
  0
LINE
  8
CSLAYER1
  6
CONTINUOUS
 62
     6
 10
272.606734
 20
250.319107
 11
272.749874
 21
250.431692
  0
LINE
  8
CSLAYER1
  6
CONTINUOUS
 62
     6
 10
272.749874
 20
250.431692
 11
272.882423
 21
250.548321
  0
LINE
  8
CSLAYER1
  6
CONTINUOUS
 62
     6
 10
272.882423
 20
250.548321
 11
272.985428
 21
250.651335
  0
LINE
  8
CSLAYER1
  6
CONTINUOUS
 62
     6
 10
272.985428
 20
250.651335
 11
273.087091
 21
250.764771
  0
LINE
  8
CSLAYER1
  6
CONTINUOUS
 62
     6
 10
273.087091
 20
250.764771
 11
273.186846
 21
250.886938
  0
LINE
  8
CSLAYER1
  6
CONTINUOUS
 62
     6
 10
273.186846
 20
250.886938
 11
273.284124
 21
251.016147
  0
LINE
  8
CSLAYER1
  6
CONTINUOUS
 62
     6
 10
273.284124
 20
251.016147
 11
273.378359
 21
251.150707
  0
LINE
  8
CSLAYER1
  6
CONTINUOUS
 62
     6
 10
273.378359
 20
251.150707
 11
273.468983
 21
251.288929
  0
LINE
  8
CSLAYER1
  6
CONTINUOUS
 62
     6
 10
273.468983
 20
251.288929
 11
273.555430
 21
251.429122
  0
LINE
  8
CSLAYER1
  6
CONTINUOUS
 62
     6
 10
273.555430
 20
251.429122
 11
273.637131
 21
251.569597
  0
LINE
  8
CSLAYER1
  6
CONTINUOUS
 62
     6
 10
273.637131
 20
251.569597
 11
273.713519
 21
251.708663
  0
LINE
  8
CSLAYER1
  6
CONTINUOUS
 62
     6
 10
273.713519
 20
251.708663
 11
273.784029
 21
251.844631
  0
LINE
  8
CSLAYER1
  6
CONTINUOUS
 62
     6
 10
273.784029
 20
251.844631
 11
273.889289
 21
252.060172
  0
ARC
  8
CSLAYER1
  6
CONTINUOUS
 62
     6
 10
272.963178
 20
251.504094
 40
1.080690
 50
30.945197
 51
90.945197
  0
ARC
  8
CSLAYER1
  6
CONTINUOUS
 62
     6
 10
272.018487
 20
252.028926
 40
1.080690
 50
30.945197
 51
90.945197
  0
ARC
  8
CSLAYER1
  6
CONTINUOUS
 62
     6
 10
272.927524
 20
253.665179
 40
1.080690
 50
210.945197
 51
270.945197
  0
LINE
  8
CSLAYER1
  6
CONTINUOUS
 62
     6
 10
272.000679
 20
253.109447
 11
271.855976
 21
252.970100
  0
LINE
  8
CSLAYER1
  6
CONTINUOUS
 62
     6
 10
271.855976
 20
252.970100
 11
271.702062
 21
252.820351
  0
LINE
  8
CSLAYER1
  6
CONTINUOUS
 62
     6
 10
271.702062
 20
252.820351
 11
271.540711
 21
252.662523
  0
LINE
  8
CSLAYER1
  6
CONTINUOUS
 62
     6
 10
271.540711
 20
252.662523
 11
271.373701
 21
252.498940
  0
ARC
  8
CSLAYER1
  6
CONTINUOUS
 62
     6
 10
274.474619
 20
254.513295
 40
1.095863
 50
203.568976
 51
263.568976
  0
ARC
  8
CSLAYER1
  6
CONTINUOUS
 62
     6
 10
275.356320
 20
253.862511
 40
1.095863
 50
203.568976
 51
263.568976
  0
ARC
  8
CSLAYER1
  6
CONTINUOUS
 62
     6
 10
274.229131
 20
252.335360
 40
1.095863
 50
23.568976
 51
83.568976
  0
LINE
  8
CSLAYER1
  6
CONTINUOUS
 62
     6
 10
273.723304
 20
254.255082
 11
273.470192
 21
254.075115
  0
LINE
  8
CSLAYER1
  6
CONTINUOUS
 62
     6
 10
273.723304
 20
254.255082
 11
273.976165
 21
254.435402
  0
LINE
  8
CSLAYER1
  6
CONTINUOUS
 62
     6
 10
273.976165
 20
254.435402
 11
274.228524
 21
254.616427
  0
LINE
  8
CSLAYER1
  6
CONTINUOUS
 62
     6
 10
274.228524
 20
254.616427
 11
274.480133
 21
254.798511
  0
LINE
  8
CSLAYER1
  6
CONTINUOUS
 62
     6
 10
274.480133
 20
254.798511
 11
274.730738
 21
254.982006
  0
LINE
  8
CSLAYER1
  6
CONTINUOUS
 62
     6
 10
274.730738
 20
254.982006
 11
274.980091
 21
255.167265
  0
LINE
  8
CSLAYER1
  6
CONTINUOUS
 62
     6
 10
274.980091
 20
255.167265
 11
275.227940
 21
255.354641
  0
LINE
  8
CSLAYER1
  6
CONTINUOUS
 62
     6
 10
275.227940
 20
255.354641
 11
275.474034
 21
255.544486
  0
LINE
  8
CSLAYER1
  6
CONTINUOUS
 62
     6
 10
275.474034
 20
255.544486
 11
275.718124
 21
255.737153
  0
LINE
  8
CSLAYER1
  6
CONTINUOUS
 62
     6
 10
275.718124
 20
255.737153
 11
275.959959
 21
255.932995
  0
LINE
  8
CSLAYER1
  6
CONTINUOUS
 62
     6
 10
275.959959
 20
255.932995
 11
276.199287
 21
256.132366
  0
LINE
  8
CSLAYER1
  6
CONTINUOUS
 62
     6
 10
276.199287
 20
256.132366
 11
276.356552
 21
256.266662
  0
LINE
  8
CSLAYER1
  6
CONTINUOUS
 62
     6
 10
276.356552
 20
256.266662
 11
276.513601
 21
256.403687
  0
LINE
  8
CSLAYER1
  6
CONTINUOUS
 62
     6
 10
276.513601
 20
256.403687
 11
276.669692
 21
256.543246
  0
LINE
  8
CSLAYER1
  6
CONTINUOUS
 62
     6
 10
276.669692
 20
256.543246
 11
276.824081
 21
256.685149
  0
LINE
  8
CSLAYER1
  6
CONTINUOUS
 62
     6
 10
276.824081
 20
256.685149
 11
276.976026
 21
256.829201
  0
LINE
  8
CSLAYER1
  6
CONTINUOUS
 62
     6
 10
276.976026
 20
256.829201
 11
277.124783
 21
256.975211
  0
LINE
  8
CSLAYER1
  6
CONTINUOUS
 62
     6
 10
277.124783
 20
256.975211
 11
277.269609
 21
257.122986
  0
LINE
  8
CSLAYER1
  6
CONTINUOUS
 62
     6
 10
277.269609
 20
257.122986
 11
277.409762
 21
257.272334
  0
LINE
  8
CSLAYER1
  6
CONTINUOUS
 62
     6
 10
277.409762
 20
257.272334
 11
277.544497
 21
257.423061
  0
LINE
  8
CSLAYER1
  6
CONTINUOUS
 62
     6
 10
277.544497
 20
257.423061
 11
277.673073
 21
257.574976
  0
LINE
  8
CSLAYER1
  6
CONTINUOUS
 62
     6
 10
277.673073
 20
257.574976
 11
277.794746
 21
257.727886
  0
LINE
  8
CSLAYER1
  6
CONTINUOUS
 62
     6
 10
277.794746
 20
257.727886
 11
277.909201
 21
257.879212
  0
LINE
  8
CSLAYER1
  6
CONTINUOUS
 62
     6
 10
277.909201
 20
257.879212
 11
278.024501
 21
258.036465
  0
LINE
  8
CSLAYER1
  6
CONTINUOUS
 62
     6
 10
278.024501
 20
258.036465
 11
278.140114
 21
258.198523
  0
LINE
  8
CSLAYER1
  6
CONTINUOUS
 62
     6
 10
278.140114
 20
258.198523
 11
278.255507
 21
258.364263
  0
LINE
  8
CSLAYER1
  6
CONTINUOUS
 62
     6
 10
278.255507
 20
258.364263
 11
278.370147
 21
258.532562
  0
LINE
  8
CSLAYER1
  6
CONTINUOUS
 62
     6
 10
278.370147
 20
258.532562
 11
278.483501
 21
258.702299
  0
LINE
  8
CSLAYER1
  6
CONTINUOUS
 62
     6
 10
278.483501
 20
258.702299
 11
278.595037
 21
258.872349
  0
LINE
  8
CSLAYER1
  6
CONTINUOUS
 62
     6
 10
278.595037
 20
258.872349
 11
278.704221
 21
259.041592
  0
LINE
  8
CSLAYER1
  6
CONTINUOUS
 62
     6
 10
278.704221
 20
259.041592
 11
278.810521
 21
259.208904
  0
LINE
  8
CSLAYER1
  6
CONTINUOUS
 62
     6
 10
278.810521
 20
259.208904
 11
278.913404
 21
259.373162
  0
LINE
  8
CSLAYER1
  6
CONTINUOUS
 62
     6
 10
278.913404
 20
259.373162
 11
279.012337
 21
259.533245
  0
LINE
  8
CSLAYER1
  6
CONTINUOUS
 62
     6
 10
279.012337
 20
259.533245
 11
279.098811
 21
259.671470
  0
LINE
  8
CSLAYER1
  6
CONTINUOUS
 62
     6
 10
279.098811
 20
259.671470
 11
279.190762
 21
259.813929
  0
LINE
  8
CSLAYER1
  6
CONTINUOUS
 62
     6
 10
279.190762
 20
259.813929
 11
279.286962
 21
259.959408
  0
LINE
  8
CSLAYER1
  6
CONTINUOUS
 62
     6
 10
279.286962
 20
259.959408
 11
279.386181
 21
260.106699
  0
LINE
  8
CSLAYER1
  6
CONTINUOUS
 62
     6
 10
279.386181
 20
260.106699
 11
279.487190
 21
260.254588
  0
LINE
  8
CSLAYER1
  6
CONTINUOUS
 62
     6
 10
279.487190
 20
260.254588
 11
279.588758
 21
260.401867
  0
LINE
  8
CSLAYER1
  6
CONTINUOUS
 62
     6
 10
279.588758
 20
260.401867
 11
279.689656
 21
260.547324
  0
LINE
  8
CSLAYER1
  6
CONTINUOUS
 62
     6
 10
279.689656
 20
260.547324
 11
279.788654
 21
260.689747
  0
LINE
  8
CSLAYER1
  6
CONTINUOUS
 62
     6
 10
279.788654
 20
260.689747
 11
279.884524
 21
260.827927
  0
LINE
  8
CSLAYER1
  6
CONTINUOUS
 62
     6
 10
279.884524
 20
260.827927
 11
280.005066
 21
261.002757
  0
ARC
  8
CSLAYER1
  6
CONTINUOUS
 62
     6
 10
277.739862
 20
263.002757
 40
2.000000
 50
180.000000
 51
270.000000
  0
LINE
  8
CSLAYER1
  6
CONTINUOUS
 62
     6
 10
275.739862
 20
263.002757
 11
275.739862
 21
263.502757
  0
LINE
  8
CSLAYER1
  6
CONTINUOUS
 62
     6
 10
275.489862
 20
263.502757
 11
301.489862
 21
263.502757
  0
ARC
  8
CSLAYER1
  6
CONTINUOUS
 62
     6
 10
291.289850
 20
263.402751
 40
0.100000
 50
0.000010
 51
90.000016
  0
LINE
  8
CSLAYER1
  6
CONTINUOUS
 62
     6
 10
291.389825
 20
263.402751
 11
291.389825
 21
262.902751
  0
ARC
  8
CSLAYER1
  6
CONTINUOUS
 62
     6
 10
291.289850
 20
262.902751
 40
0.100000
 50
270.000001
 51
359.942691
  0
LINE
  8
CSLAYER1
  6
CONTINUOUS
 62
     6
 10
291.289850
 20
262.802776
 11
288.489862
 21
262.802745
  0
LINE
  8
CSLAYER1
  6
CONTINUOUS
 62
     6
 10
288.489862
 20
262.802745
 11
285.689874
 21
262.802745
  0
ARC
  8
CSLAYER1
  6
CONTINUOUS
 62
     6
 10
285.689874
 20
262.902751
 40
0.100000
 50
180.000005
 51
270.000001
  0
LINE
  8
CSLAYER1
  6
CONTINUOUS
 62
     6
 10
285.589837
 20
262.902751
 11
285.589837
 21
263.402751
  0
ARC
  8
CSLAYER1
  6
CONTINUOUS
 62
     6
 10
285.689874
 20
263.402751
 40
0.100000
 50
90.000003
 51
180.000005
  0
ARC
  8
CSLAYER1
  6
CONTINUOUS
 62
     6
 10
285.958124
 20
262.602763
 40
0.200000
 50
90.000003
 51
185.000154
  0
LINE
  8
CSLAYER1
  6
CONTINUOUS
 62
     6
 10
285.758874
 20
262.585338
 11
285.813959
 21
261.955516
  0
ARC
  8
CSLAYER1
  6
CONTINUOUS
 62
     6
 10
286.810174
 20
262.042674
 40
1.000000
 50
185.000113
 51
253.742620
  0
ARC
  8
CSLAYER1
  6
CONTINUOUS
 62
     6
 10
288.489862
 20
267.802745
 40
7.000000
 50
253.743003
 51
286.257026
  0
ARC
  8
CSLAYER1
  6
CONTINUOUS
 62
     6
 10
290.169519
 20
262.042674
 40
1.000000
 50
286.257408
 51
354.999902
  0
LINE
  8
CSLAYER1
  6
CONTINUOUS
 62
     6
 10
291.165704
 20
261.955516
 11
291.220819
 21
262.585338
  0
ARC
  8
CSLAYER1
  6
CONTINUOUS
 62
     6
 10
291.021600
 20
262.602763
 40
0.200000
 50
-5.000126
 51
90.000019
  0
LINE
  8
CSLAYER1
  6
CONTINUOUS
 62
     6
 10
289.085779
 20
262.802776
 11
288.641900
 21
263.502757
  0
LINE
  8
CSLAYER1
  6
CONTINUOUS
 62
     6
 10
288.141900
 20
263.502757
 11
288.585779
 21
262.802776
  0
LINE
  8
CSLAYER1
  6
CONTINUOUS
 62
     6
 10
286.828487
 20
261.002757
 11
277.739862
 21
261.002757
  0
LINE
  8
CSLAYER1
  6
CONTINUOUS
 62
     6
 10
281.288432
 20
258.521986
 11
281.423669
 21
258.721635
  0
LINE
  8
CSLAYER1
  6
CONTINUOUS
 62
     6
 10
281.423669
 20
258.721635
 11
281.560029
 21
258.926723
  0
LINE
  8
CSLAYER1
  6
CONTINUOUS
 62
     6
 10
281.560029
 20
258.926723
 11
281.695931
 21
259.135062
  0
LINE
  8
CSLAYER1
  6
CONTINUOUS
 62
     6
 10
281.695931
 20
259.135062
 11
281.829794
 21
259.344468
  0
LINE
  8
CSLAYER1
  6
CONTINUOUS
 62
     6
 10
281.829794
 20
259.344468
 11
281.960035
 21
259.552754
  0
LINE
  8
CSLAYER1
  6
CONTINUOUS
 62
     6
 10
281.960035
 20
259.552754
 11
282.085074
 21
259.757733
  0
LINE
  8
CSLAYER1
  6
CONTINUOUS
 62
     6
 10
282.085074
 20
259.757733
 11
282.203328
 21
259.957220
  0
LINE
  8
CSLAYER1
  6
CONTINUOUS
 62
     6
 10
282.203328
 20
259.957220
 11
282.313215
 21
260.149029
  0
LINE
  8
CSLAYER1
  6
CONTINUOUS
 62
     6
 10
282.313215
 20
260.149029
 11
282.361461
 21
260.236863
  0
LINE
  8
CSLAYER1
  6
CONTINUOUS
 62
     6
 10
282.357354
 20
260.213961
 11
282.296326
 21
259.900649
  0
LINE
  8
CSLAYER1
  6
CONTINUOUS
 62
     6
 10
282.296326
 20
259.900649
 11
282.229969
 21
259.581562
  0
LINE
  8
CSLAYER1
  6
CONTINUOUS
 62
     6
 10
282.229969
 20
259.581562
 11
282.159416
 21
259.259951
  0
LINE
  8
CSLAYER1
  6
CONTINUOUS
 62
     6
 10
282.159416
 20
259.259951
 11
282.085801
 21
258.939069
  0
LINE
  8
CSLAYER1
  6
CONTINUOUS
 62
     6
 10
282.085801
 20
258.939069
 11
282.010255
 21
258.622169
  0
LINE
  8
CSLAYER1
  6
CONTINUOUS
 62
     6
 10
282.010255
 20
258.622169
 11
281.933911
 21
258.312503
  0
LINE
  8
CSLAYER1
  6
CONTINUOUS
 62
     6
 10
281.933911
 20
258.312503
 11
281.857903
 21
258.013324
  0
LINE
  8
CSLAYER1
  6
CONTINUOUS
 62
     6
 10
281.857903
 20
258.013324
 11
281.783363
 21
257.727886
  0
LINE
  8
CSLAYER1
  6
CONTINUOUS
 62
     6
 10
281.783363
 20
257.727886
 11
281.707893
 21
257.458393
  0
LINE
  8
CSLAYER1
  6
CONTINUOUS
 62
     6
 10
281.707893
 20
257.458393
 11
281.623047
 21
257.183678
  0
LINE
  8
CSLAYER1
  6
CONTINUOUS
 62
     6
 10
281.623047
 20
257.183678
 11
281.529602
 21
256.904872
  0
LINE
  8
CSLAYER1
  6
CONTINUOUS
 62
     6
 10
281.529602
 20
256.904872
 11
281.428337
 21
256.623107
  0
LINE
  8
CSLAYER1
  6
CONTINUOUS
 62
     6
 10
281.428337
 20
256.623107
 11
281.320028
 21
256.339513
  0
LINE
  8
CSLAYER1
  6
CONTINUOUS
 62
     6
 10
281.320028
 20
256.339513
 11
281.205453
 21
256.055223
  0
LINE
  8
CSLAYER1
  6
CONTINUOUS
 62
     6
 10
281.205453
 20
256.055223
 11
281.085389
 21
255.771367
  0
LINE
  8
CSLAYER1
  6
CONTINUOUS
 62
     6
 10
281.085389
 20
255.771367
 11
280.960615
 21
255.489077
  0
LINE
  8
CSLAYER1
  6
CONTINUOUS
 62
     6
 10
280.960615
 20
255.489077
 11
280.831908
 21
255.209484
  0
LINE
  8
CSLAYER1
  6
CONTINUOUS
 62
     6
 10
280.831908
 20
255.209484
 11
280.700045
 21
254.933719
  0
LINE
  8
CSLAYER1
  6
CONTINUOUS
 62
     6
 10
280.700045
 20
254.933719
 11
280.565804
 21
254.662914
  0
LINE
  8
CSLAYER1
  6
CONTINUOUS
 62
     6
 10
280.565804
 20
254.662914
 11
280.445659
 21
254.428485
  0
LINE
  8
CSLAYER1
  6
CONTINUOUS
 62
     6
 10
280.445659
 20
254.428485
 11
280.322762
 21
254.195604
  0
LINE
  8
CSLAYER1
  6
CONTINUOUS
 62
     6
 10
280.322762
 20
254.195604
 11
280.197388
 21
253.964114
  0
LINE
  8
CSLAYER1
  6
CONTINUOUS
 62
     6
 10
280.197388
 20
253.964114
 11
280.069812
 21
253.733862
  0
LINE
  8
CSLAYER1
  6
CONTINUOUS
 62
     6
 10
280.069812
 20
253.733862
 11
279.940310
 21
253.504693
  0
LINE
  8
CSLAYER1
  6
CONTINUOUS
 62
     6
 10
279.940310
 20
253.504693
 11
279.809156
 21
253.276451
  0
LINE
  8
CSLAYER1
  6
CONTINUOUS
 62
     6
 10
279.809156
 20
253.276451
 11
279.676627
 21
253.048982
  0
LINE
  8
CSLAYER1
  6
CONTINUOUS
 62
     6
 10
279.676627
 20
253.048982
 11
279.542996
 21
252.822133
  0
LINE
  8
CSLAYER1
  6
CONTINUOUS
 62
     6
 10
279.542996
 20
252.822133
 11
279.408540
 21
252.595747
  0
LINE
  8
CSLAYER1
  6
CONTINUOUS
 62
     6
 10
279.408540
 20
252.595747
 11
279.273534
 21
252.369670
  0
LINE
  8
CSLAYER1
  6
CONTINUOUS
 62
     6
 10
279.273534
 20
252.369670
 11
279.138252
 21
252.143749
  0
ARC
  8
CSLAYER1
  6
CONTINUOUS
 62
     6
 10
280.172655
 20
252.752104
 40
1.200008
 50
210.461486
 51
270.461486
  0
ARC
  8
CSLAYER1
  6
CONTINUOUS
 62
     6
 10
281.216691
 20
252.160489
 40
1.200008
 50
210.461486
 51
270.461486
  0
ARC
  8
CSLAYER1
  6
CONTINUOUS
 62
     6
 10
280.191985
 20
250.352165
 40
1.200008
 50
30.461486
 51
90.461486
  0
LINE
  8
CSLAYER1
  6
CONTINUOUS
 62
     6
 10
281.226357
 20
250.960522
 11
281.369143
 21
251.199417
  0
LINE
  8
CSLAYER1
  6
CONTINUOUS
 62
     6
 10
281.369143
 20
251.199417
 11
281.511648
 21
251.438472
  0
LINE
  8
CSLAYER1
  6
CONTINUOUS
 62
     6
 10
281.511648
 20
251.438472
 11
281.653592
 21
251.677843
  0
LINE
  8
CSLAYER1
  6
CONTINUOUS
 62
     6
 10
281.653592
 20
251.677843
 11
281.794693
 21
251.917691
  0
LINE
  8
CSLAYER1
  6
CONTINUOUS
 62
     6
 10
281.794693
 20
251.917691
 11
281.934672
 21
252.158172
  0
LINE
  8
CSLAYER1
  6
CONTINUOUS
 62
     6
 10
281.934672
 20
252.158172
 11
282.073246
 21
252.399448
  0
LINE
  8
CSLAYER1
  6
CONTINUOUS
 62
     6
 10
282.073246
 20
252.399448
 11
282.210137
 21
252.641674
  0
LINE
  8
CSLAYER1
  6
CONTINUOUS
 62
     6
 10
282.210137
 20
252.641674
 11
282.345061
 21
252.885012
  0
LINE
  8
CSLAYER1
  6
CONTINUOUS
 62
     6
 10
282.345061
 20
252.885012
 11
282.477740
 21
253.129618
  0
LINE
  8
CSLAYER1
  6
CONTINUOUS
 62
     6
 10
282.477740
 20
253.129618
 11
282.607892
 21
253.375651
  0
LINE
  8
CSLAYER1
  6
CONTINUOUS
 62
     6
 10
282.607892
 20
253.375651
 11
282.735237
 21
253.623272
  0
LINE
  8
CSLAYER1
  6
CONTINUOUS
 62
     6
 10
282.735237
 20
253.623272
 11
282.884911
 21
253.924093
  0
LINE
  8
CSLAYER1
  6
CONTINUOUS
 62
     6
 10
282.884911
 20
253.924093
 11
283.031866
 21
254.230474
  0
LINE
  8
CSLAYER1
  6
CONTINUOUS
 62
     6
 10
283.031866
 20
254.230474
 11
283.175232
 21
254.541156
  0
LINE
  8
CSLAYER1
  6
CONTINUOUS
 62
     6
 10
283.175232
 20
254.541156
 11
283.314141
 21
254.854880
  0
LINE
  8
CSLAYER1
  6
CONTINUOUS
 62
     6
 10
283.314141
 20
254.854880
 11
283.447724
 21
255.170386
  0
LINE
  8
CSLAYER1
  6
CONTINUOUS
 62
     6
 10
283.447724
 20
255.170386
 11
283.575111
 21
255.486414
  0
LINE
  8
CSLAYER1
  6
CONTINUOUS
 62
     6
 10
283.575111
 20
255.486414
 11
283.695433
 21
255.801706
  0
LINE
  8
CSLAYER1
  6
CONTINUOUS
 62
     6
 10
283.695433
 20
255.801706
 11
283.807821
 21
256.115001
  0
LINE
  8
CSLAYER1
  6
CONTINUOUS
 62
     6
 10
283.807821
 20
256.115001
 11
283.911406
 21
256.425040
  0
LINE
  8
CSLAYER1
  6
CONTINUOUS
 62
     6
 10
283.911406
 20
256.425040
 11
284.005320
 21
256.730565
  0
LINE
  8
CSLAYER1
  6
CONTINUOUS
 62
     6
 10
284.005320
 20
256.730565
 11
284.088692
 21
257.030315
  0
LINE
  8
CSLAYER1
  6
CONTINUOUS
 62
     6
 10
284.088692
 20
257.030315
 11
284.167109
 21
257.332731
  0
LINE
  8
CSLAYER1
  6
CONTINUOUS
 62
     6
 10
284.167109
 20
257.332731
 11
284.247173
 21
257.649533
  0
LINE
  8
CSLAYER1
  6
CONTINUOUS
 62
     6
 10
284.247173
 20
257.649533
 11
284.327690
 21
257.977324
  0
LINE
  8
CSLAYER1
  6
CONTINUOUS
 62
     6
 10
284.327690
 20
257.977324
 11
284.407464
 21
258.312709
  0
LINE
  8
CSLAYER1
  6
CONTINUOUS
 62
     6
 10
284.407464
 20
258.312709
 11
284.485300
 21
258.652293
  0
LINE
  8
CSLAYER1
  6
CONTINUOUS
 62
     6
 10
284.485300
 20
258.652293
 11
284.560003
 21
258.992681
  0
LINE
  8
CSLAYER1
  6
CONTINUOUS
 62
     6
 10
284.560003
 20
258.992681
 11
284.630379
 21
259.330477
  0
LINE
  8
CSLAYER1
  6
CONTINUOUS
 62
     6
 10
284.630379
 20
259.330477
 11
284.695232
 21
259.662286
  0
LINE
  8
CSLAYER1
  6
CONTINUOUS
 62
     6
 10
284.695232
 20
259.662286
 11
284.753367
 21
259.984713
  0
LINE
  8
CSLAYER1
  6
CONTINUOUS
 62
     6
 10
284.753367
 20
259.984713
 11
284.918484
 21
261.002757
  0
LINE
  8
CSLAYER1
  6
CONTINUOUS
 62
     6
 10
282.489862
 20
261.002757
 11
282.411921
 21
260.518243
  0
LINE
  8
CSLAYER1
  6
CONTINUOUS
 62
     6
 10
282.411921
 20
260.518243
 11
282.357354
 21
260.213961
  0
LINE
  8
CSLAYER1
  6
CONTINUOUS
 62
     6
 10
281.288432
 20
258.521986
 11
281.155901
 21
258.329961
  0
LINE
  8
CSLAYER1
  6
CONTINUOUS
 62
     6
 10
281.155901
 20
258.329961
 11
281.027657
 21
258.147747
  0
LINE
  8
CSLAYER1
  6
CONTINUOUS
 62
     6
 10
281.027657
 20
258.147747
 11
280.922576
 21
258.003567
  0
LINE
  8
CSLAYER1
  6
CONTINUOUS
 62
     6
 10
280.922576
 20
258.003567
 11
280.810686
 21
257.856517
  0
LINE
  8
CSLAYER1
  6
CONTINUOUS
 62
     6
 10
280.810686
 20
257.856517
 11
280.693117
 21
257.707496
  0
LINE
  8
CSLAYER1
  6
CONTINUOUS
 62
     6
 10
280.693117
 20
257.707496
 11
280.571004
 21
257.557401
  0
LINE
  8
CSLAYER1
  6
CONTINUOUS
 62
     6
 10
280.571004
 20
257.557401
 11
280.445478
 21
257.407133
  0
LINE
  8
CSLAYER1
  6
CONTINUOUS
 62
     6
 10
280.445478
 20
257.407133
 11
280.317673
 21
257.257590
  0
LINE
  8
CSLAYER1
  6
CONTINUOUS
 62
     6
 10
280.317673
 20
257.257590
 11
280.188720
 21
257.109672
  0
LINE
  8
CSLAYER1
  6
CONTINUOUS
 62
     6
 10
280.188720
 20
257.109672
 11
280.059753
 21
256.964278
  0
LINE
  8
CSLAYER1
  6
CONTINUOUS
 62
     6
 10
280.059753
 20
256.964278
 11
279.931903
 21
256.822306
  0
LINE
  8
CSLAYER1
  6
CONTINUOUS
 62
     6
 10
279.931903
 20
256.822306
 11
279.806305
 21
256.684656
  0
LINE
  8
CSLAYER1
  6
CONTINUOUS
 62
     6
 10
279.806305
 20
256.684656
 11
279.684090
 21
256.552227
  0
LINE
  8
CSLAYER1
  6
CONTINUOUS
 62
     6
 10
279.684090
 20
256.552227
 11
279.539114
 21
256.400067
  0
LINE
  8
CSLAYER1
  6
CONTINUOUS
 62
     6
 10
279.539114
 20
256.400067
 11
279.385938
 21
256.246116
  0
LINE
  8
CSLAYER1
  6
CONTINUOUS
 62
     6
 10
279.385938
 20
256.246116
 11
279.226530
 21
256.090682
  0
LINE
  8
CSLAYER1
  6
CONTINUOUS
 62
     6
 10
279.226530
 20
256.090682
 11
279.062853
 21
255.934074
  0
LINE
  8
CSLAYER1
  6
CONTINUOUS
 62
     6
 10
279.062853
 20
255.934074
 11
278.896873
 21
255.776600
  0
LINE
  8
CSLAYER1
  6
CONTINUOUS
 62
     6
 10
278.896873
 20
255.776600
 11
278.730555
 21
255.618569
  0
LINE
  8
CSLAYER1
  6
CONTINUOUS
 62
     6
 10
278.730555
 20
255.618569
 11
278.565865
 21
255.460289
  0
LINE
  8
CSLAYER1
  6
CONTINUOUS
 62
     6
 10
278.565865
 20
255.460289
 11
278.404768
 21
255.302069
  0
LINE
  8
CSLAYER1
  6
CONTINUOUS
 62
     6
 10
278.404768
 20
255.302069
 11
278.249228
 21
255.144217
  0
LINE
  8
CSLAYER1
  6
CONTINUOUS
 62
     6
 10
278.249228
 20
255.144217
 11
278.101212
 21
254.987042
  0
LINE
  8
CSLAYER1
  6
CONTINUOUS
 62
     6
 10
278.101212
 20
254.987042
 11
277.962685
 21
254.830852
  0
LINE
  8
CSLAYER1
  6
CONTINUOUS
 62
     6
 10
277.962685
 20
254.830852
 11
277.836770
 21
254.684270
  0
LINE
  8
CSLAYER1
  6
CONTINUOUS
 62
     6
 10
277.836770
 20
254.684270
 11
277.705960
 21
254.534091
  0
LINE
  8
CSLAYER1
  6
CONTINUOUS
 62
     6
 10
277.705960
 20
254.534091
 11
277.570358
 21
254.381871
  0
LINE
  8
CSLAYER1
  6
CONTINUOUS
 62
     6
 10
277.570358
 20
254.381871
 11
277.430064
 21
254.229167
  0
LINE
  8
CSLAYER1
  6
CONTINUOUS
 62
     6
 10
277.430064
 20
254.229167
 11
277.285181
 21
254.077533
  0
LINE
  8
CSLAYER1
  6
CONTINUOUS
 62
     6
 10
277.285181
 20
254.077533
 11
277.135811
 21
253.928527
  0
LINE
  8
CSLAYER1
  6
CONTINUOUS
 62
     6
 10
277.135811
 20
253.928527
 11
276.982054
 21
253.783703
  0
LINE
  8
CSLAYER1
  6
CONTINUOUS
 62
     6
 10
276.982054
 20
253.783703
 11
276.824013
 21
253.644618
  0
LINE
  8
CSLAYER1
  6
CONTINUOUS
 62
     6
 10
276.824013
 20
253.644618
 11
276.661790
 21
253.512827
  0
LINE
  8
CSLAYER1
  6
CONTINUOUS
 62
     6
 10
276.661790
 20
253.512827
 11
276.495486
 21
253.389888
  0
LINE
  8
CSLAYER1
  6
CONTINUOUS
 62
     6
 10
276.495486
 20
253.389888
 11
276.325203
 21
253.277355
  0
LINE
  8
CSLAYER1
  6
CONTINUOUS
 62
     6
 10
276.325203
 20
253.277355
 11
276.232469
 21
253.221928
  0
LINE
  8
CSLAYER1
  6
CONTINUOUS
 62
     6
 10
276.232469
 20
253.221928
 11
276.137877
 21
253.169252
  0
LINE
  8
CSLAYER1
  6
CONTINUOUS
 62
     6
 10
276.137877
 20
253.169252
 11
276.041612
 21
253.119050
  0
LINE
  8
CSLAYER1
  6
CONTINUOUS
 62
     6
 10
276.041612
 20
253.119050
 11
275.943861
 21
253.071049
  0
LINE
  8
CSLAYER1
  6
CONTINUOUS
 62
     6
 10
275.943861
 20
253.071049
 11
275.844809
 21
253.024973
  0
LINE
  8
CSLAYER1
  6
CONTINUOUS
 62
     6
 10
275.844809
 20
253.024973
 11
275.744642
 21
252.980546
  0
LINE
  8
CSLAYER1
  6
CONTINUOUS
 62
     6
 10
275.744642
 20
252.980546
 11
275.643547
 21
252.937495
  0
LINE
  8
CSLAYER1
  6
CONTINUOUS
 62
     6
 10
275.643547
 20
252.937495
 11
275.541707
 21
252.895544
  0
LINE
  8
CSLAYER1
  6
CONTINUOUS
 62
     6
 10
275.541707
 20
252.895544
 11
275.439311
 21
252.854417
  0
LINE
  8
CSLAYER1
  6
CONTINUOUS
 62
     6
 10
275.439311
 20
252.854417
 11
275.336543
 21
252.813841
  0
LINE
  8
CSLAYER1
  6
CONTINUOUS
 62
     6
 10
275.336543
 20
252.813841
 11
275.233589
 21
252.773540
  0
LINE
  8
CSLAYER1
  6
CONTINUOUS
 62
     6
 10
278.132354
 20
250.452907
 11
277.997552
 21
250.287596
  0
LINE
  8
CSLAYER1
  6
CONTINUOUS
 62
     6
 10
277.997552
 20
250.287596
 11
277.858995
 21
250.115943
  0
LINE
  8
CSLAYER1
  6
CONTINUOUS
 62
     6
 10
277.858995
 20
250.115943
 11
277.718719
 21
249.939522
  0
LINE
  8
CSLAYER1
  6
CONTINUOUS
 62
     6
 10
277.718719
 20
249.939522
 11
277.578762
 21
249.759903
  0
LINE
  8
CSLAYER1
  6
CONTINUOUS
 62
     6
 10
277.578762
 20
249.759903
 11
277.441158
 21
249.578660
  0
LINE
  8
CSLAYER1
  6
CONTINUOUS
 62
     6
 10
277.441158
 20
249.578660
 11
277.307947
 21
249.397364
  0
LINE
  8
CSLAYER1
  6
CONTINUOUS
 62
     6
 10
277.307947
 20
249.397364
 11
277.181163
 21
249.217586
  0
LINE
  8
CSLAYER1
  6
CONTINUOUS
 62
     6
 10
277.181163
 20
249.217586
 11
277.062843
 21
249.040900
  0
LINE
  8
CSLAYER1
  6
CONTINUOUS
 62
     6
 10
277.062843
 20
249.040900
 11
276.955025
 21
248.868877
  0
LINE
  8
CSLAYER1
  6
CONTINUOUS
 62
     6
 10
276.955025
 20
248.868877
 11
276.857386
 21
248.705116
  0
LINE
  8
CSLAYER1
  6
CONTINUOUS
 62
     6
 10
276.857386
 20
248.705116
 11
276.757757
 21
248.535848
  0
LINE
  8
CSLAYER1
  6
CONTINUOUS
 62
     6
 10
276.757757
 20
248.535848
 11
276.655930
 21
248.362377
  0
LINE
  8
CSLAYER1
  6
CONTINUOUS
 62
     6
 10
276.655930
 20
248.362377
 11
276.551700
 21
248.186004
  0
LINE
  8
CSLAYER1
  6
CONTINUOUS
 62
     6
 10
276.551700
 20
248.186004
 11
276.444860
 21
248.008032
  0
LINE
  8
CSLAYER1
  6
CONTINUOUS
 62
     6
 10
276.444860
 20
248.008032
 11
276.335203
 21
247.829762
  0
LINE
  8
CSLAYER1
  6
CONTINUOUS
 62
     6
 10
276.335203
 20
247.829762
 11
276.222523
 21
247.652497
  0
LINE
  8
CSLAYER1
  6
CONTINUOUS
 62
     6
 10
276.222523
 20
247.652497
 11
276.106612
 21
247.477540
  0
LINE
  8
CSLAYER1
  6
CONTINUOUS
 62
     6
 10
276.106612
 20
247.477540
 11
275.987265
 21
247.306192
  0
LINE
  8
CSLAYER1
  6
CONTINUOUS
 62
     6
 10
275.987265
 20
247.306192
 11
275.864274
 21
247.139756
  0
LINE
  8
CSLAYER1
  6
CONTINUOUS
 62
     6
 10
275.864274
 20
247.139756
 11
275.737434
 21
246.979534
  0
LINE
  8
CSLAYER1
  6
CONTINUOUS
 62
     6
 10
275.737434
 20
246.979534
 11
275.638613
 21
246.863021
  0
LINE
  8
CSLAYER1
  6
CONTINUOUS
 62
     6
 10
275.638613
 20
246.863021
 11
275.536401
 21
246.749262
  0
LINE
  8
CSLAYER1
  6
CONTINUOUS
 62
     6
 10
275.536401
 20
246.749262
 11
275.431137
 21
246.637981
  0
LINE
  8
CSLAYER1
  6
CONTINUOUS
 62
     6
 10
275.431137
 20
246.637981
 11
275.323159
 21
246.528903
  0
LINE
  8
CSLAYER1
  6
CONTINUOUS
 62
     6
 10
275.323159
 20
246.528903
 11
275.212809
 21
246.421752
  0
LINE
  8
CSLAYER1
  6
CONTINUOUS
 62
     6
 10
275.212809
 20
246.421752
 11
275.100423
 21
246.316253
  0
LINE
  8
CSLAYER1
  6
CONTINUOUS
 62
     6
 10
275.100423
 20
246.316253
 11
274.986342
 21
246.212131
  0
LINE
  8
CSLAYER1
  6
CONTINUOUS
 62
     6
 10
274.986342
 20
246.212131
 11
274.870904
 21
246.109111
  0
LINE
  8
CSLAYER1
  6
CONTINUOUS
 62
     6
 10
274.870904
 20
246.109111
 11
274.754449
 21
246.006917
  0
LINE
  8
CSLAYER1
  6
CONTINUOUS
 62
     6
 10
274.754449
 20
246.006917
 11
274.658423
 21
245.923589
  0
LINE
  8
CSLAYER1
  6
CONTINUOUS
 62
     6
 10
274.658423
 20
245.923589
 11
274.727570
 21
245.889060
  0
LINE
  8
CSLAYER1
  6
CONTINUOUS
 62
     6
 10
274.727570
 20
245.889060
 11
274.812046
 21
245.841444
  0
LINE
  8
CSLAYER1
  6
CONTINUOUS
 62
     6
 10
274.812046
 20
245.841444
 11
274.897979
 21
245.787693
  0
LINE
  8
CSLAYER1
  6
CONTINUOUS
 62
     6
 10
274.897979
 20
245.787693
 11
274.984098
 21
245.728469
  0
LINE
  8
CSLAYER1
  6
CONTINUOUS
 62
     6
 10
274.984098
 20
245.728469
 11
275.069134
 21
245.664431
  0
LINE
  8
CSLAYER1
  6
CONTINUOUS
 62
     6
 10
275.069134
 20
245.664431
 11
275.151817
 21
245.596241
  0
LINE
  8
CSLAYER1
  6
CONTINUOUS
 62
     6
 10
275.151817
 20
245.596241
 11
275.230876
 21
245.524557
  0
LINE
  8
CSLAYER1
  6
CONTINUOUS
 62
     6
 10
275.230876
 20
245.524557
 11
275.305042
 21
245.450042
  0
LINE
  8
CSLAYER1
  6
CONTINUOUS
 62
     6
 10
275.305042
 20
245.450042
 11
275.373045
 21
245.373354
  0
LINE
  8
CSLAYER1
  6
CONTINUOUS
 62
     6
 10
275.373045
 20
245.373354
 11
275.433614
 21
245.295155
  0
LINE
  8
CSLAYER1
  6
CONTINUOUS
 62
     6
 10
275.433614
 20
245.295155
 11
275.485481
 21
245.216106
  0
LINE
  8
CSLAYER1
  6
CONTINUOUS
 62
     6
 10
275.485481
 20
245.216106
 11
275.501387
 21
245.188499
  0
LINE
  8
CSLAYER1
  6
CONTINUOUS
 62
     6
 10
275.501387
 20
245.188499
 11
275.517041
 21
245.159806
  0
LINE
  8
CSLAYER1
  6
CONTINUOUS
 62
     6
 10
275.517041
 20
245.159806
 11
275.532483
 21
245.130192
  0
LINE
  8
CSLAYER1
  6
CONTINUOUS
 62
     6
 10
275.532483
 20
245.130192
 11
275.547756
 21
245.099826
  0
LINE
  8
CSLAYER1
  6
CONTINUOUS
 62
     6
 10
275.547756
 20
245.099826
 11
275.562902
 21
245.068874
  0
LINE
  8
CSLAYER1
  6
CONTINUOUS
 62
     6
 10
275.562902
 20
245.068874
 11
275.577962
 21
245.037504
  0
LINE
  8
CSLAYER1
  6
CONTINUOUS
 62
     6
 10
275.577962
 20
245.037504
 11
275.592979
 21
245.005883
  0
LINE
  8
CSLAYER1
  6
CONTINUOUS
 62
     6
 10
275.592979
 20
245.005883
 11
275.607994
 21
244.974178
  0
LINE
  8
CSLAYER1
  6
CONTINUOUS
 62
     6
 10
275.607994
 20
244.974178
 11
275.623050
 21
244.942555
  0
LINE
  8
CSLAYER1
  6
CONTINUOUS
 62
     6
 10
275.623050
 20
244.942555
 11
275.638188
 21
244.911184
  0
LINE
  8
CSLAYER1
  6
CONTINUOUS
 62
     6
 10
275.638188
 20
244.911184
 11
275.653450
 21
244.880230
  0
LINE
  8
CSLAYER1
  6
CONTINUOUS
 62
     6
 10
275.653450
 20
244.880230
 11
275.694271
 21
244.802092
  0
LINE
  8
CSLAYER1
  6
CONTINUOUS
 62
     6
 10
275.694271
 20
244.802092
 11
275.737606
 21
244.725560
  0
LINE
  8
CSLAYER1
  6
CONTINUOUS
 62
     6
 10
275.737606
 20
244.725560
 11
275.783205
 21
244.650472
  0
LINE
  8
CSLAYER1
  6
CONTINUOUS
 62
     6
 10
275.783205
 20
244.650472
 11
275.830815
 21
244.576667
  0
LINE
  8
CSLAYER1
  6
CONTINUOUS
 62
     6
 10
275.830815
 20
244.576667
 11
275.880185
 21
244.503986
  0
LINE
  8
CSLAYER1
  6
CONTINUOUS
 62
     6
 10
275.880185
 20
244.503986
 11
275.931064
 21
244.432267
  0
LINE
  8
CSLAYER1
  6
CONTINUOUS
 62
     6
 10
275.931064
 20
244.432267
 11
275.983200
 21
244.361351
  0
LINE
  8
CSLAYER1
  6
CONTINUOUS
 62
     6
 10
275.983200
 20
244.361351
 11
276.036341
 21
244.291076
  0
LINE
  8
CSLAYER1
  6
CONTINUOUS
 62
     6
 10
276.036341
 20
244.291076
 11
276.090238
 21
244.221283
  0
LINE
  8
CSLAYER1
  6
CONTINUOUS
 62
     6
 10
276.090238
 20
244.221283
 11
276.144636
 21
244.151811
  0
LINE
  8
CSLAYER1
  6
CONTINUOUS
 62
     6
 10
276.144636
 20
244.151811
 11
276.196710
 21
244.085768
  0
LINE
  8
CSLAYER1
  6
CONTINUOUS
 62
     6
 10
276.196710
 20
244.085768
 11
276.324057
 21
244.195069
  0
LINE
  8
CSLAYER1
  6
CONTINUOUS
 62
     6
 10
276.324057
 20
244.195069
 11
276.460772
 21
244.313102
  0
LINE
  8
CSLAYER1
  6
CONTINUOUS
 62
     6
 10
276.460772
 20
244.313102
 11
276.596660
 21
244.431806
  0
LINE
  8
CSLAYER1
  6
CONTINUOUS
 62
     6
 10
276.596660
 20
244.431806
 11
276.731306
 21
244.551518
  0
LINE
  8
CSLAYER1
  6
CONTINUOUS
 62
     6
 10
276.731306
 20
244.551518
 11
276.864297
 21
244.672572
  0
LINE
  8
CSLAYER1
  6
CONTINUOUS
 62
     6
 10
276.864297
 20
244.672572
 11
276.995219
 21
244.795305
  0
LINE
  8
CSLAYER1
  6
CONTINUOUS
 62
     6
 10
276.995219
 20
244.795305
 11
277.123659
 21
244.920053
  0
LINE
  8
CSLAYER1
  6
CONTINUOUS
 62
     6
 10
277.123659
 20
244.920053
 11
277.249203
 21
245.047151
  0
LINE
  8
CSLAYER1
  6
CONTINUOUS
 62
     6
 10
277.249203
 20
245.047151
 11
277.371436
 21
245.176935
  0
LINE
  8
CSLAYER1
  6
CONTINUOUS
 62
     6
 10
277.371436
 20
245.176935
 11
277.489945
 21
245.309740
  0
LINE
  8
CSLAYER1
  6
CONTINUOUS
 62
     6
 10
277.489945
 20
245.309740
 11
277.604317
 21
245.445904
  0
LINE
  8
CSLAYER1
  6
CONTINUOUS
 62
     6
 10
277.604317
 20
245.445904
 11
277.740813
 21
245.620129
  0
LINE
  8
CSLAYER1
  6
CONTINUOUS
 62
     6
 10
277.740813
 20
245.620129
 11
277.873156
 21
245.800806
  0
LINE
  8
CSLAYER1
  6
CONTINUOUS
 62
     6
 10
277.873156
 20
245.800806
 11
278.001628
 21
245.986576
  0
LINE
  8
CSLAYER1
  6
CONTINUOUS
 62
     6
 10
278.001628
 20
245.986576
 11
278.126509
 21
246.176083
  0
LINE
  8
CSLAYER1
  6
CONTINUOUS
 62
     6
 10
278.126509
 20
246.176083
 11
278.248081
 21
246.367972
  0
LINE
  8
CSLAYER1
  6
CONTINUOUS
 62
     6
 10
278.248081
 20
246.367972
 11
278.366626
 21
246.560884
  0
LINE
  8
CSLAYER1
  6
CONTINUOUS
 62
     6
 10
278.366626
 20
246.560884
 11
278.482423
 21
246.753464
  0
LINE
  8
CSLAYER1
  6
CONTINUOUS
 62
     6
 10
278.482423
 20
246.753464
 11
278.595756
 21
246.944355
  0
LINE
  8
CSLAYER1
  6
CONTINUOUS
 62
     6
 10
278.595756
 20
246.944355
 11
278.706905
 21
247.132201
  0
LINE
  8
CSLAYER1
  6
CONTINUOUS
 62
     6
 10
278.706905
 20
247.132201
 11
278.816150
 21
247.315644
  0
LINE
  8
CSLAYER1
  6
CONTINUOUS
 62
     6
 10
278.816150
 20
247.315644
 11
278.923775
 21
247.493328
  0
LINE
  8
CSLAYER1
  6
CONTINUOUS
 62
     6
 10
278.923775
 20
247.493328
 11
279.029101
 21
247.659014
  0
LINE
  8
CSLAYER1
  6
CONTINUOUS
 62
     6
 10
279.029101
 20
247.659014
 11
279.143829
 21
247.828903
  0
LINE
  8
CSLAYER1
  6
CONTINUOUS
 62
     6
 10
279.143829
 20
247.828903
 11
279.266130
 21
248.001567
  0
LINE
  8
CSLAYER1
  6
CONTINUOUS
 62
     6
 10
279.266130
 20
248.001567
 11
279.394172
 21
248.175577
  0
LINE
  8
CSLAYER1
  6
CONTINUOUS
 62
     6
 10
279.394172
 20
248.175577
 11
279.526124
 21
248.349506
  0
LINE
  8
CSLAYER1
  6
CONTINUOUS
 62
     6
 10
279.526124
 20
248.349506
 11
279.660156
 21
248.521927
  0
LINE
  8
CSLAYER1
  6
CONTINUOUS
 62
     6
 10
279.660156
 20
248.521927
 11
279.794436
 21
248.691412
  0
LINE
  8
CSLAYER1
  6
CONTINUOUS
 62
     6
 10
279.794436
 20
248.691412
 11
279.927135
 21
248.856534
  0
LINE
  8
CSLAYER1
  6
CONTINUOUS
 62
     6
 10
279.927135
 20
248.856534
 11
280.056421
 21
249.015865
  0
LINE
  8
CSLAYER1
  6
CONTINUOUS
 62
     6
 10
280.056421
 20
249.015865
 11
280.180464
 21
249.167977
  0
LINE
  8
CSLAYER1
  6
CONTINUOUS
 62
     6
 10
280.180464
 20
249.167977
 11
280.349721
 21
249.375577
  0
ARC
  8
CSLAYER1
  6
CONTINUOUS
 62
     6
 10
279.267471
 20
248.945805
 40
1.164461
 50
21.658505
 51
86.024005
  0
ARC
  8
CSLAYER1
  6
CONTINUOUS
 62
     6
 10
278.301816
 20
249.596559
 40
1.164461
 50
26.024005
 51
86.024005
  0
ARC
  8
CSLAYER1
  6
CONTINUOUS
 62
     6
 10
279.428955
 20
251.269122
 40
1.164461
 50
206.024005
 51
266.024005
  0
LINE
  8
CSLAYER1
  6
CONTINUOUS
 62
     6
 10
278.382545
 20
250.758221
 11
278.261364
 21
250.610306
  0
LINE
  8
CSLAYER1
  6
CONTINUOUS
 62
     6
 10
278.261364
 20
250.610306
 11
278.132354
 21
250.452907
  0
LINE
  8
CSLAYER1
  6
CONTINUOUS
 62
     6
 10
275.111974
 20
245.629100
 11
272.366127
 21
243.126263
  0
LINE
  8
CSLAYER1
  6
CONTINUOUS
 62
     6
 10
272.980476
 20
242.913616
 11
275.423471
 21
245.308251
  0
LINE
  8
CSLAYER1
  6
CONTINUOUS
 62
     6
 10
275.703942
 20
244.785013
 11
273.453011
 21
242.346508
  0
LINE
  8
CSLAYER1
  6
CONTINUOUS
 62
     6
 10
267.026131
 20
245.205547
 11
269.252253
 21
248.181784
  0
LINE
  8
CSLAYER1
  6
CONTINUOUS
 62
     6
 10
268.686420
 20
248.328376
 11
266.340889
 21
245.654491
  0
LINE
  8
CSLAYER1
  6
CONTINUOUS
 62
     6
 10
265.797432
 20
246.174297
 11
268.269202
 21
248.576105
  0
ARC
  8
CSLAYER1
  6
CONTINUOUS
 62
     6
 10
275.489862
 20
280.502757
 40
1.000000
 50
179.999995
 51
269.999984
  0
LINE
  8
CSLAYER1
  6
CONTINUOUS
 62
     6
 10
274.489862
 20
280.502757
 11
274.489862
 21
281.502757
  0
ARC
  8
CSLAYER1
  6
CONTINUOUS
 62
     6
 10
275.489862
 20
281.502757
 40
1.000000
 50
89.999999
 51
179.999981
  0
LINE
  8
CSLAYER1
  6
CONTINUOUS
 62
     6
 10
275.489862
 20
282.502757
 11
311.489862
 21
282.502757
  0
ARC
  8
CSLAYER1
  6
CONTINUOUS
 62
     6
 10
311.489862
 20
281.502757
 40
1.000000
 50
0.057309
 51
89.999999
  0
LINE
  8
CSLAYER1
  6
CONTINUOUS
 62
     6
 10
312.489862
 20
281.502757
 11
312.489862
 21
280.502757
  0
ARC
  8
CSLAYER1
  6
CONTINUOUS
 62
     6
 10
311.489862
 20
280.502757
 40
1.000000
 50
269.999997
 51
360.000000
  0
LINE
  8
CSLAYER1
  6
CONTINUOUS
 62
     6
 10
311.489862
 20
279.502757
 11
275.489862
 21
279.502757
  0
LINE
  8
CSLAYER1
  6
CONTINUOUS
 62
     6
 10
275.390252
 20
164.502742
 11
311.589410
 21
164.502742
  0
ARC
  8
CSLAYER1
  6
CONTINUOUS
 62
     6
 10
311.589410
 20
163.502742
 40
1.000000
 50
6.000003
 51
90.000016
  0
LINE
  8
CSLAYER1
  6
CONTINUOUS
 62
     6
 10
312.583978
 20
163.607234
 11
313.231927
 21
157.442012
  0
ARC
  8
CSLAYER1
  6
CONTINUOUS
 62
     6
 10
314.226495
 20
157.546565
 40
1.000000
 50
186.000026
 51
270.000001
  0
LINE
  8
CSLAYER1
  6
CONTINUOUS
 62
     6
 10
314.489862
 20
159.502742
 11
313.014825
 21
159.502742
  0
LINE
  8
CSLAYER1
  6
CONTINUOUS
 62
     6
 10
312.583978
 20
159.607234
 11
313.281610
 21
152.969783
  0
ARC
  8
CSLAYER1
  6
CONTINUOUS
 62
     6
 10
314.276117
 20
153.074275
 40
1.000000
 50
186.000026
 51
270.000001
  0
LINE
  8
CSLAYER1
  6
CONTINUOUS
 62
     6
 10
309.132928
 20
151.895931
 11
277.175836
 21
151.895931
  0
LINE
  8
CSLAYER1
  6
CONTINUOUS
 62
     6
 10
273.698114
 20
152.969783
 11
274.395746
 21
159.607234
  0
ARC
  8
CSLAYER1
  6
CONTINUOUS
 62
     6
 10
275.390252
 20
159.502742
 40
1.000000
 50
90.000003
 51
173.999998
  0
LINE
  8
CSLAYER1
  6
CONTINUOUS
 62
     6
 10
275.390252
 20
160.502742
 11
311.589410
 21
160.502742
  0
ARC
  8
CSLAYER1
  6
CONTINUOUS
 62
     6
 10
311.589410
 20
159.502742
 40
1.000000
 50
6.000003
 51
90.000016
  0
LINE
  8
CSLAYER1
  6
CONTINUOUS
 62
     6
 10
314.489862
 20
160.502757
 11
425.851065
 21
160.502757
  0
ARC
  8
CSLAYER1
  6
CONTINUOUS
 62
     6
 10
427.846619
 20
161.043579
 40
1.810349
 50
95.000111
 51
163.742611
  0
LINE
  8
CSLAYER1
  6
CONTINUOUS
 62
     6
 10
427.688833
 20
162.847049
 11
428.829030
 21
162.946798
  0
ARC
  8
CSLAYER1
  6
CONTINUOUS
 62
     6
 10
428.860631
 20
162.586115
 40
0.362070
 50
0.000000
 51
95.000152
  0
ARC
  8
CSLAYER1
  6
CONTINUOUS
 62
     6
 10
429.403714
 20
163.071741
 40
0.181035
 50
90.000003
 51
180.000005
  0
LINE
  8
CSLAYER1
  6
CONTINUOUS
 62
     6
 10
429.403714
 20
163.252786
 11
430.308888
 21
163.252786
  0
ARC
  8
CSLAYER1
  6
CONTINUOUS
 62
     6
 10
430.308888
 20
163.071741
 40
0.181035
 50
0.000000
 51
90.000003
  0
LINE
  8
CSLAYER1
  6
CONTINUOUS
 62
     6
 10
429.222723
 20
163.071741
 11
429.222723
 21
152.933832
  0
ARC
  8
CSLAYER1
  6
CONTINUOUS
 62
     6
 10
429.403714
 20
152.933832
 40
0.181035
 50
180.000005
 51
270.000001
  0
LINE
  8
CSLAYER1
  6
CONTINUOUS
 62
     6
 10
429.403714
 20
152.752786
 11
430.308888
 21
152.752786
  0
ARC
  8
CSLAYER1
  6
CONTINUOUS
 62
     6
 10
430.308888
 20
152.933832
 40
0.181035
 50
270.000001
 51
359.942691
  0
LINE
  8
CSLAYER1
  6
CONTINUOUS
 62
     6
 10
429.489862
 20
152.752730
 11
429.489862
 21
78.252728
  0
LINE
  8
CSLAYER1
  6
CONTINUOUS
 62
     6
 10
429.403714
 20
78.252785
 11
430.308888
 21
78.252785
  0
ARC
  8
CSLAYER1
  6
CONTINUOUS
 62
     6
 10
430.308888
 20
78.071739
 40
0.181035
 50
0.000000
 51
90.000003
  0
ARC
  8
CSLAYER1
  6
CONTINUOUS
 62
     6
 10
429.403714
 20
78.071739
 40
0.181035
 50
90.000003
 51
180.000005
  0
LINE
  8
CSLAYER1
  6
CONTINUOUS
 62
     6
 10
429.222723
 20
78.071739
 11
429.222723
 21
67.933831
  0
ARC
  8
CSLAYER1
  6
CONTINUOUS
 62
     6
 10
429.403714
 20
67.933831
 40
0.181035
 50
180.000005
 51
270.000001
  0
LINE
  8
CSLAYER1
  6
CONTINUOUS
 62
     6
 10
429.403714
 20
67.752785
 11
430.308888
 21
67.752785
  0
ARC
  8
CSLAYER1
  6
CONTINUOUS
 62
     6
 10
430.308888
 20
67.933831
 40
0.181035
 50
270.000001
 51
359.942691
  0
ARC
  8
CSLAYER1
  6
CONTINUOUS
 62
     6
 10
428.860631
 20
68.419456
 40
0.362070
 50
264.999865
 51
359.942691
  0
LINE
  8
CSLAYER1
  6
CONTINUOUS
 62
     6
 10
428.829030
 20
68.058773
 11
427.688833
 21
68.158522
  0
ARC
  8
CSLAYER1
  6
CONTINUOUS
 62
     6
 10
427.846619
 20
69.961993
 40
1.810349
 50
196.257399
 51
264.999892
  0
ARC
  8
CSLAYER1
  6
CONTINUOUS
 62
     6
 10
438.274466
 20
73.002785
 40
12.672440
 50
163.742994
 51
196.257016
  0
ARC
  8
CSLAYER1
  6
CONTINUOUS
 62
     6
 10
427.846619
 20
76.043577
 40
1.810349
 50
95.000111
 51
163.742611
  0
LINE
  8
CSLAYER1
  6
CONTINUOUS
 62
     6
 10
427.688833
 20
77.847048
 11
428.829030
 21
77.946797
  0
ARC
  8
CSLAYER1
  6
CONTINUOUS
 62
     6
 10
428.860631
 20
77.586114
 40
0.362070
 50
0.000000
 51
95.000152
  0
LINE
  8
CSLAYER1
  6
CONTINUOUS
 62
     6
 10
430.489934
 20
73.632661
 11
429.222723
 21
72.829115
  0
LINE
  8
CSLAYER1
  6
CONTINUOUS
 62
     6
 10
429.222723
 20
71.923940
 11
430.489934
 21
72.727487
  0
LINE
  8
CSLAYER1
  6
CONTINUOUS
 62
     6
 10
425.851077
 20
70.502757
 11
314.489862
 21
70.502757
  0
LINE
  8
CSLAYER1
  6
CONTINUOUS
 62
     6
 10
314.489862
 20
70.502757
 11
314.489862
 21
160.502757
  0
ARC
  8
CSLAYER1
  6
CONTINUOUS
 62
     6
 10
275.390252
 20
163.502742
 40
1.000000
 50
90.000003
 51
173.999998
  0
LINE
  8
CSLAYER1
  6
CONTINUOUS
 62
     6
 10
274.395746
 20
163.607234
 11
273.747735
 21
157.442012
  0
ARC
  8
CSLAYER1
  6
CONTINUOUS
 62
     6
 10
272.753229
 20
157.546565
 40
1.000000
 50
270.000001
 51
353.999989
  0
LINE
  8
CSLAYER1
  6
CONTINUOUS
 62
     6
 10
273.964288
 20
159.502742
 11
262.489831
 21
159.502742
  0
LINE
  8
CSLAYER1
  6
CONTINUOUS
 62
     6
 10
262.489831
 20
159.502742
 11
261.489831
 21
158.502742
  0
LINE
  8
CSLAYER1
  6
CONTINUOUS
 62
     6
 10
261.489862
 20
158.502757
 11
261.489862
 21
72.502757
  0
LINE
  8
CSLAYER1
  6
CONTINUOUS
 62
     6
 10
261.489862
 20
72.502757
 11
262.489862
 21
71.502757
  0
LINE
  8
CSLAYER1
  6
CONTINUOUS
 62
     6
 10
262.489862
 20
71.502757
 11
262.489862
 21
159.502757
  0
LINE
  8
CSLAYER1
  6
CONTINUOUS
 62
     6
 10
262.489862
 20
159.502757
 11
261.489862
 21
158.502757
  0
ARC
  8
CSLAYER1
  6
CONTINUOUS
 62
     6
 10
272.703546
 20
153.074275
 40
1.000000
 50
270.000001
 51
353.999989
  0
ARC
  8
CSLAYER1
  6
CONTINUOUS
 62
     6
 10
427.846619
 20
154.961994
 40
1.810349
 50
196.257399
 51
264.999892
  0
LINE
  8
CSLAYER1
  6
CONTINUOUS
 62
     6
 10
427.688833
 20
153.158524
 11
428.829030
 21
153.058775
  0
ARC
  8
CSLAYER1
  6
CONTINUOUS
 62
     6
 10
428.860631
 20
153.419458
 40
0.362070
 50
264.999865
 51
359.942691
  0
ARC
  8
CSLAYER1
  6
CONTINUOUS
 62
     6
 10
438.274466
 20
158.002786
 40
12.672440
 50
163.742994
 51
196.257016
  0
LINE
  8
CSLAYER1
  6
CONTINUOUS
 62
     6
 10
429.222723
 20
157.829116
 11
430.489934
 21
158.632663
  0
LINE
  8
CSLAYER1
  6
CONTINUOUS
 62
     6
 10
430.489934
 20
157.727488
 11
429.222723
 21
156.923942
  0
LINE
  8
CSLAYER1
  6
CONTINUOUS
 62
     6
 10
430.489831
 20
165.502757
 11
440.489831
 21
165.502757
  0
LINE
  8
CSLAYER1
  6
CONTINUOUS
 62
     6
 10
436.489862
 20
155.502757
 11
436.489862
 21
75.502757
  0
LINE
  8
CSLAYER1
  6
CONTINUOUS
 62
     6
 10
440.489831
 20
65.502757
 11
430.489831
 21
65.502757
  0
LINE
  8
CSLAYER1
  6
CONTINUOUS
 62
     6
 10
430.489923
 20
65.502757
 11
430.489923
 21
88.441509
  0
LINE
  8
CSLAYER1
  6
CONTINUOUS
 62
     6
 10
430.489923
 20
142.564006
 11
430.489923
 21
165.502757
  0
LINE
  8
CSLAYER1
  6
CONTINUOUS
 62
     6
 10
440.489862
 20
189.502757
 11
440.489862
 21
41.502757
  0
LINE
  8
CSLAYER1
  6
CONTINUOUS
 62
     6
 10
440.489831
 20
41.502757
 11
474.489862
 21
41.502757
  0
LINE
  8
CSLAYER1
  6
CONTINUOUS
 62
     6
 10
474.489862
 20
41.502757
 11
475.489862
 21
42.502757
  0
LINE
  8
CSLAYER1
  6
CONTINUOUS
 62
     6
 10
475.489862
 20
42.502757
 11
475.489862
 21
188.502757
  0
LINE
  8
CSLAYER1
  6
CONTINUOUS
 62
     6
 10
475.489862
 20
188.502757
 11
474.489862
 21
189.502757
  0
LINE
  8
CSLAYER1
  6
CONTINUOUS
 62
     6
 10
474.489862
 20
189.502757
 11
440.489862
 21
189.502757
  0
LINE
  8
CSLAYER1
  6
CONTINUOUS
 62
     6
 10
466.489862
 20
189.502757
 11
466.489862
 21
41.502757
  0
LINE
  8
CSLAYER1
  6
CONTINUOUS
 62
     6
 10
475.489862
 20
58.002757
 11
518.489862
 21
58.002757
  0
ARC
  8
CSLAYER1
  6
CONTINUOUS
 62
     6
 10
518.489862
 20
62.002757
 40
4.000000
 50
270.000000
 51
360.000000
  0
LINE
  8
CSLAYER1
  6
CONTINUOUS
 62
     6
 10
522.489862
 20
62.002757
 11
522.489862
 21
169.002757
  0
ARC
  8
CSLAYER1
  6
CONTINUOUS
 62
     6
 10
518.489862
 20
169.002757
 40
4.000000
 50
0.000000
 51
90.000000
  0
LINE
  8
CSLAYER1
  6
CONTINUOUS
 62
     6
 10
518.489862
 20
173.002757
 11
475.489862
 21
173.002757
  0
ARC
  8
CSLAYER1
  6
CONTINUOUS
 62
     6
 10
526.489862
 20
154.502757
 40
4.000000
 50
180.000000
 51
270.000000
  0
LINE
  8
CSLAYER1
  6
CONTINUOUS
 62
     6
 10
526.489862
 20
150.502757
 11
559.489862
 21
150.502757
  0
ARC
  8
CSLAYER1
  6
CONTINUOUS
 62
     6
 10
559.489862
 20
148.502757
 40
2.000000
 50
0.000000
 51
90.000000
  0
LINE
  8
CSLAYER1
  6
CONTINUOUS
 62
     6
 10
561.489862
 20
148.502757
 11
561.489862
 21
82.502757
  0
ARC
  8
CSLAYER1
  6
CONTINUOUS
 62
     6
 10
559.489862
 20
82.502757
 40
2.000000
 50
270.000000
 51
360.000000
  0
LINE
  8
CSLAYER1
  6
CONTINUOUS
 62
     6
 10
559.489862
 20
80.502757
 11
526.489862
 21
80.502757
  0
ARC
  8
CSLAYER1
  6
CONTINUOUS
 62
     6
 10
526.489862
 20
76.502757
 40
4.000000
 50
90.000000
 51
180.000000
  0
LINE
  8
CSLAYER1
  6
CONTINUOUS
 62
     6
 10
550.489862
 20
80.502757
 11
550.489862
 21
150.502757
  0
ARC
  8
CSLAYER1
  6
CONTINUOUS
 62
     6
 10
518.489862
 20
252.002757
 40
4.000000
 50
270.000000
 51
360.000000
  0
LINE
  8
CSLAYER1
  6
CONTINUOUS
 62
     6
 10
522.489862
 20
252.002757
 11
522.489862
 21
359.002757
  0
ARC
  8
CSLAYER1
  6
CONTINUOUS
 62
     6
 10
518.489862
 20
359.002757
 40
4.000000
 50
0.000000
 51
90.000000
  0
LINE
  8
CSLAYER1
  6
CONTINUOUS
 62
     6
 10
518.489862
 20
363.002757
 11
475.489862
 21
363.002757
  0
LINE
  8
CSLAYER1
  6
CONTINUOUS
 62
     6
 10
475.489862
 20
378.502757
 11
474.489862
 21
379.502757
  0
LINE
  8
CSLAYER1
  6
CONTINUOUS
 62
     6
 10
474.489862
 20
379.502757
 11
440.489862
 21
379.502757
  0
LINE
  8
CSLAYER1
  6
CONTINUOUS
 62
     6
 10
440.489862
 20
379.502757
 11
440.489862
 21
231.502757
  0
LINE
  8
CSLAYER1
  6
CONTINUOUS
 62
     6
 10
440.489831
 20
231.502757
 11
474.489862
 21
231.502757
  0
LINE
  8
CSLAYER1
  6
CONTINUOUS
 62
     6
 10
474.489862
 20
231.502757
 11
475.489862
 21
232.502757
  0
LINE
  8
CSLAYER1
  6
CONTINUOUS
 62
     6
 10
475.489862
 20
232.502757
 11
475.489862
 21
378.502757
  0
LINE
  8
CSLAYER1
  6
CONTINUOUS
 62
     6
 10
466.489862
 20
379.502757
 11
466.489862
 21
231.502757
  0
LINE
  8
CSLAYER1
  6
CONTINUOUS
 62
     6
 10
475.489862
 20
248.002757
 11
518.489862
 21
248.002757
  0
ARC
  8
CSLAYER1
  6
CONTINUOUS
 62
     6
 10
526.489862
 20
266.502757
 40
4.000000
 50
90.000000
 51
180.000000
  0
LINE
  8
CSLAYER1
  6
CONTINUOUS
 62
     6
 10
526.489862
 20
270.502757
 11
559.489862
 21
270.502757
  0
ARC
  8
CSLAYER1
  6
CONTINUOUS
 62
     6
 10
559.489862
 20
272.502757
 40
2.000000
 50
270.000000
 51
360.000000
  0
LINE
  8
CSLAYER1
  6
CONTINUOUS
 62
     6
 10
561.489862
 20
272.502757
 11
561.489862
 21
338.502757
  0
ARC
  8
CSLAYER1
  6
CONTINUOUS
 62
     6
 10
559.489862
 20
338.502757
 40
2.000000
 50
0.000000
 51
90.000000
  0
LINE
  8
CSLAYER1
  6
CONTINUOUS
 62
     6
 10
559.489862
 20
340.502757
 11
526.489862
 21
340.502757
  0
ARC
  8
CSLAYER1
  6
CONTINUOUS
 62
     6
 10
526.489862
 20
344.502757
 40
4.000000
 50
180.000000
 51
270.000000
  0
LINE
  8
CSLAYER1
  6
CONTINUOUS
 62
     6
 10
550.489862
 20
340.502757
 11
550.489862
 21
270.502757
  0
ARC
  8
CSLAYER1
  6
CONTINUOUS
 62
     6
 10
561.489862
 20
286.502757
 40
1.000000
 50
270.000000
 51
360.000000
  0
LINE
  8
CSLAYER1
  6
CONTINUOUS
 62
     6
 10
562.489862
 20
286.502757
 11
562.489862
 21
324.502757
  0
ARC
  8
CSLAYER1
  6
CONTINUOUS
 62
     6
 10
561.489862
 20
324.502757
 40
1.000000
 50
0.000000
 51
90.000000
  0
ARC
  8
CSLAYER1
  6
CONTINUOUS
 62
     6
 10
562.489862
 20
316.502757
 40
1.000000
 50
0.000000
 51
90.000000
  0
LINE
  8
CSLAYER1
  6
CONTINUOUS
 62
     6
 10
563.489862
 20
316.502757
 11
563.489862
 21
294.502757
  0
ARC
  8
CSLAYER1
  6
CONTINUOUS
 62
     6
 10
562.489862
 20
294.502757
 40
1.000000
 50
270.000000
 51
360.000000
  0
LINE
  8
CSLAYER1
  6
CONTINUOUS
 62
     6
 10
563.489862
 20
295.502757
 11
599.489862
 21
295.502757
  0
LINE
  8
CSLAYER1
  6
CONTINUOUS
 62
     6
 10
599.489862
 20
295.502757
 11
599.489862
 21
315.502757
  0
LINE
  8
CSLAYER1
  6
CONTINUOUS
 62
     6
 10
599.489862
 20
315.502757
 11
563.489862
 21
315.502757
  0
ARC
  8
CSLAYER1
  6
CONTINUOUS
 62
     6
 10
569.989862
 20
305.502757
 40
2.500000
 50
90.000000
 51
270.000000
  0
LINE
  8
CSLAYER1
  6
CONTINUOUS
 62
     6
 10
569.989862
 20
303.002757
 11
599.489862
 21
303.002757
  0
LINE
  8
CSLAYER1
  6
CONTINUOUS
 62
     6
 10
599.489862
 20
308.002757
 11
569.989862
 21
308.002757
  0
ARC
  8
CSLAYER1
  6
CONTINUOUS
 62
     6
 10
518.489862
 20
442.002757
 40
4.000000
 50
270.000000
 51
360.000000
  0
LINE
  8
CSLAYER1
  6
CONTINUOUS
 62
     6
 10
522.489862
 20
442.002757
 11
522.489862
 21
549.002757
  0
ARC
  8
CSLAYER1
  6
CONTINUOUS
 62
     6
 10
518.489862
 20
549.002757
 40
4.000000
 50
0.000000
 51
90.000000
  0
LINE
  8
CSLAYER1
  6
CONTINUOUS
 62
     6
 10
518.489862
 20
553.002757
 11
475.489862
 21
553.002757
  0
LINE
  8
CSLAYER1
  6
CONTINUOUS
 62
     6
 10
475.489862
 20
568.502757
 11
474.489862
 21
569.502757
  0
LINE
  8
CSLAYER1
  6
CONTINUOUS
 62
     6
 10
474.489862
 20
569.502757
 11
440.489831
 21
569.502757
  0
LINE
  8
CSLAYER1
  6
CONTINUOUS
 62
     6
 10
440.489862
 20
569.502757
 11
440.489862
 21
421.502757
  0
LINE
  8
CSLAYER1
  6
CONTINUOUS
 62
     6
 10
440.489862
 20
421.502757
 11
474.489862
 21
421.502757
  0
LINE
  8
CSLAYER1
  6
CONTINUOUS
 62
     6
 10
474.489862
 20
421.502757
 11
475.489862
 21
422.502757
  0
LINE
  8
CSLAYER1
  6
CONTINUOUS
 62
     6
 10
475.489862
 20
422.502757
 11
475.489862
 21
568.502757
  0
LINE
  8
CSLAYER1
  6
CONTINUOUS
 62
     6
 10
466.489862
 20
569.502757
 11
466.489862
 21
421.502757
  0
LINE
  8
CSLAYER1
  6
CONTINUOUS
 62
     6
 10
475.489862
 20
438.002757
 11
518.489862
 21
438.002757
  0
ARC
  8
CSLAYER1
  6
CONTINUOUS
 62
     6
 10
526.489862
 20
456.502757
 40
4.000000
 50
90.000000
 51
180.000000
  0
LINE
  8
CSLAYER1
  6
CONTINUOUS
 62
     6
 10
526.489862
 20
460.502757
 11
559.489862
 21
460.502757
  0
ARC
  8
CSLAYER1
  6
CONTINUOUS
 62
     6
 10
559.489862
 20
462.502757
 40
2.000000
 50
270.000000
 51
360.000000
  0
LINE
  8
CSLAYER1
  6
CONTINUOUS
 62
     6
 10
561.489862
 20
462.502757
 11
561.489862
 21
528.502757
  0
ARC
  8
CSLAYER1
  6
CONTINUOUS
 62
     6
 10
559.489862
 20
528.502757
 40
2.000000
 50
0.000000
 51
90.000000
  0
LINE
  8
CSLAYER1
  6
CONTINUOUS
 62
     6
 10
559.489862
 20
530.502757
 11
526.489862
 21
530.502757
  0
ARC
  8
CSLAYER1
  6
CONTINUOUS
 62
     6
 10
526.489862
 20
534.502757
 40
4.000000
 50
180.000000
 51
270.000000
  0
LINE
  8
CSLAYER1
  6
CONTINUOUS
 62
     6
 10
550.489862
 20
530.502757
 11
550.489862
 21
460.502757
  0
ARC
  8
CSLAYER1
  6
CONTINUOUS
 62
     6
 10
561.489862
 20
476.502757
 40
1.000000
 50
270.000000
 51
360.000000
  0
LINE
  8
CSLAYER1
  6
CONTINUOUS
 62
     6
 10
562.489862
 20
476.502757
 11
562.489862
 21
514.502757
  0
ARC
  8
CSLAYER1
  6
CONTINUOUS
 62
     6
 10
561.489862
 20
514.502757
 40
1.000000
 50
0.000000
 51
90.000000
  0
ARC
  8
CSLAYER1
  6
CONTINUOUS
 62
     6
 10
562.489862
 20
506.502757
 40
1.000000
 50
0.000000
 51
90.000000
  0
LINE
  8
CSLAYER1
  6
CONTINUOUS
 62
     6
 10
563.489862
 20
506.502757
 11
563.489862
 21
484.502757
  0
ARC
  8
CSLAYER1
  6
CONTINUOUS
 62
     6
 10
562.489862
 20
484.502757
 40
1.000000
 50
270.000000
 51
360.000000
  0
LINE
  8
CSLAYER1
  6
CONTINUOUS
 62
     6
 10
563.489862
 20
485.502757
 11
599.489862
 21
485.502757
  0
LINE
  8
CSLAYER1
  6
CONTINUOUS
 62
     6
 10
599.489862
 20
485.502757
 11
599.489862
 21
505.502757
  0
LINE
  8
CSLAYER1
  6
CONTINUOUS
 62
     6
 10
599.489862
 20
505.502757
 11
563.489862
 21
505.502757
  0
LINE
  8
CSLAYER1
  6
DASHED
 62
     6
 10
567.489862
 20
488.502757
 11
567.489862
 21
485.502757
  0
LINE
  8
CSLAYER1
  6
DASHED
 62
     6
 10
567.489862
 20
488.502757
 11
599.489862
 21
488.502757
  0
LINE
  8
CSLAYER1
  6
CONTINUOUS
 62
     6
 10
440.489831
 20
445.502757
 11
430.489831
 21
445.502757
  0
LINE
  8
CSLAYER1
  6
CONTINUOUS
 62
     6
 10
430.489923
 20
445.502757
 11
430.489923
 21
468.441509
  0
LINE
  8
CSLAYER1
  6
CONTINUOUS
 62
     6
 10
430.308888
 20
458.252785
 11
429.403714
 21
458.252785
  0
ARC
  8
CSLAYER1
  6
CONTINUOUS
 62
     6
 10
429.403714
 20
458.071739
 40
0.181035
 50
90.000003
 51
180.000005
  0
LINE
  8
CSLAYER1
  6
CONTINUOUS
 62
     6
 10
429.222723
 20
458.071739
 11
429.222723
 21
447.933831
  0
ARC
  8
CSLAYER1
  6
CONTINUOUS
 62
     6
 10
429.403714
 20
447.933831
 40
0.181035
 50
180.000005
 51
270.000001
  0
LINE
  8
CSLAYER1
  6
CONTINUOUS
 62
     6
 10
429.403714
 20
447.752785
 11
430.308888
 21
447.752785
  0
ARC
  8
CSLAYER1
  6
CONTINUOUS
 62
     6
 10
430.308888
 20
447.933831
 40
0.181035
 50
270.000001
 51
359.942691
  0
ARC
  8
CSLAYER1
  6
CONTINUOUS
 62
     6
 10
428.860631
 20
448.419456
 40
0.362070
 50
264.999865
 51
359.942691
  0
LINE
  8
CSLAYER1
  6
CONTINUOUS
 62
     6
 10
428.829030
 20
448.058773
 11
427.688833
 21
448.158522
  0
ARC
  8
CSLAYER1
  6
CONTINUOUS
 62
     6
 10
427.846619
 20
449.961993
 40
1.810349
 50
196.257399
 51
264.999892
  0
ARC
  8
CSLAYER1
  6
CONTINUOUS
 62
     6
 10
438.274466
 20
453.002785
 40
12.672440
 50
163.742994
 51
196.257016
  0
ARC
  8
CSLAYER1
  6
CONTINUOUS
 62
     6
 10
427.846619
 20
456.043577
 40
1.810349
 50
95.000111
 51
163.742611
  0
LINE
  8
CSLAYER1
  6
CONTINUOUS
 62
     6
 10
427.688833
 20
457.847048
 11
428.829030
 21
457.946797
  0
ARC
  8
CSLAYER1
  6
CONTINUOUS
 62
     6
 10
428.860631
 20
457.586114
 40
0.362070
 50
0.000000
 51
95.000152
  0
LINE
  8
CSLAYER1
  6
CONTINUOUS
 62
     6
 10
429.489862
 20
458.252785
 11
429.489862
 21
532.752786
  0
ARC
  8
CSLAYER1
  6
CONTINUOUS
 62
     6
 10
429.403714
 20
532.933832
 40
0.181035
 50
180.000005
 51
270.000001
  0
LINE
  8
CSLAYER1
  6
CONTINUOUS
 62
     6
 10
429.222723
 20
532.933832
 11
429.222723
 21
543.071741
  0
ARC
  8
CSLAYER1
  6
CONTINUOUS
 62
     6
 10
429.403714
 20
543.071741
 40
0.181035
 50
90.000003
 51
180.000005
  0
LINE
  8
CSLAYER1
  6
CONTINUOUS
 62
     6
 10
429.403714
 20
543.252786
 11
430.308888
 21
543.252786
  0
ARC
  8
CSLAYER1
  6
CONTINUOUS
 62
     6
 10
430.308888
 20
543.071741
 40
0.181035
 50
0.000000
 51
90.000003
  0
ARC
  8
CSLAYER1
  6
CONTINUOUS
 62
     6
 10
428.860631
 20
542.586115
 40
0.362070
 50
0.000000
 51
95.000152
  0
LINE
  8
CSLAYER1
  6
CONTINUOUS
 62
     6
 10
428.829030
 20
542.946798
 11
427.688833
 21
542.847049
  0
ARC
  8
CSLAYER1
  6
CONTINUOUS
 62
     6
 10
427.846619
 20
541.043579
 40
1.810349
 50
95.000111
 51
163.742611
  0
ARC
  8
CSLAYER1
  6
CONTINUOUS
 62
     6
 10
438.274466
 20
538.002786
 40
12.672440
 50
163.742994
 51
196.257016
  0
ARC
  8
CSLAYER1
  6
CONTINUOUS
 62
     6
 10
427.846619
 20
534.961994
 40
1.810349
 50
196.257399
 51
264.999892
  0
LINE
  8
CSLAYER1
  6
CONTINUOUS
 62
     6
 10
427.688833
 20
533.158524
 11
428.829030
 21
533.058775
  0
ARC
  8
CSLAYER1
  6
CONTINUOUS
 62
     6
 10
428.860631
 20
533.419458
 40
0.362070
 50
264.999865
 51
359.942691
  0
LINE
  8
CSLAYER1
  6
CONTINUOUS
 62
     6
 10
429.403714
 20
532.752786
 11
430.308888
 21
532.752786
  0
ARC
  8
CSLAYER1
  6
CONTINUOUS
 62
     6
 10
430.308888
 20
532.933832
 40
0.181035
 50
270.000001
 51
359.942691
  0
LINE
  8
CSLAYER1
  6
CONTINUOUS
 62
     6
 10
429.222723
 20
536.923942
 11
430.489934
 21
537.727488
  0
LINE
  8
CSLAYER1
  6
CONTINUOUS
 62
     6
 10
430.489934
 20
538.632663
 11
429.222723
 21
537.829116
  0
LINE
  8
CSLAYER1
  6
CONTINUOUS
 62
     6
 10
425.851065
 20
540.502757
 11
314.489862
 21
540.502757
  0
LINE
  8
CSLAYER1
  6
CONTINUOUS
 62
     6
 10
314.489862
 20
540.502757
 11
314.489862
 21
450.502757
  0
LINE
  8
CSLAYER1
  6
CONTINUOUS
 62
     6
 10
314.489862
 20
450.502757
 11
425.851077
 21
450.502757
  0
LINE
  8
CSLAYER1
  6
CONTINUOUS
 62
     6
 10
429.222723
 20
451.923940
 11
430.489934
 21
452.727487
  0
LINE
  8
CSLAYER1
  6
CONTINUOUS
 62
     6
 10
430.489934
 20
453.632661
 11
429.222723
 21
452.829115
  0
ARC
  8
CSLAYER1
  6
CONTINUOUS
 62
     6
 10
430.308888
 20
458.071739
 40
0.181035
 50
0.000000
 51
90.000003
  0
LINE
  8
CSLAYER1
  6
CONTINUOUS
 62
     6
 10
430.489923
 20
522.563976
 11
430.489923
 21
545.502757
  0
LINE
  8
CSLAYER1
  6
CONTINUOUS
 62
     6
 10
430.489831
 20
545.502757
 11
440.489831
 21
545.502757
  0
LINE
  8
CSLAYER1
  6
CONTINUOUS
 62
     6
 10
436.489862
 20
535.502757
 11
436.489862
 21
455.502757
  0
LINE
  8
CSLAYER1
  6
CONTINUOUS
 62
     6
 10
314.489862
 20
451.447002
 11
313.014795
 21
451.447002
  0
LINE
  8
CSLAYER1
  6
CONTINUOUS
 62
     6
 10
312.583948
 20
451.342510
 11
313.281579
 21
457.979961
  0
ARC
  8
CSLAYER1
  6
CONTINUOUS
 62
     6
 10
314.276086
 20
457.875469
 40
1.000000
 50
89.999999
 51
173.999974
  0
ARC
  8
CSLAYER1
  6
CONTINUOUS
 62
     6
 10
314.226465
 20
453.403178
 40
1.000000
 50
89.999999
 51
173.999974
  0
LINE
  8
CSLAYER1
  6
CONTINUOUS
 62
     6
 10
313.231897
 20
453.507732
 11
312.583948
 21
447.342510
  0
ARC
  8
CSLAYER1
  6
CONTINUOUS
 62
     6
 10
311.589380
 20
447.447002
 40
1.000000
 50
269.999984
 51
353.999997
  0
LINE
  8
CSLAYER1
  6
CONTINUOUS
 62
     6
 10
311.589380
 20
446.447002
 11
275.390222
 21
446.447002
  0
ARC
  8
CSLAYER1
  6
CONTINUOUS
 62
     6
 10
275.390222
 20
447.447002
 40
1.000000
 50
186.000002
 51
269.999997
  0
LINE
  8
CSLAYER1
  6
CONTINUOUS
 62
     6
 10
274.395715
 20
447.342510
 11
273.747705
 21
453.507732
  0
ARC
  8
CSLAYER1
  6
CONTINUOUS
 62
     6
 10
272.753198
 20
453.403178
 40
1.000000
 50
6.000011
 51
89.999999
  0
LINE
  8
CSLAYER1
  6
CONTINUOUS
 62
     6
 10
273.964258
 20
451.447002
 11
262.489831
 21
451.447002
  0
LINE
  8
CSLAYER1
  6
CONTINUOUS
 62
     6
 10
262.489831
 20
451.447002
 11
261.489831
 21
452.447002
  0
LINE
  8
CSLAYER1
  6
CONTINUOUS
 62
     6
 10
261.489862
 20
452.446986
 11
261.489862
 21
538.446986
  0
LINE
  8
CSLAYER1
  6
CONTINUOUS
 62
     6
 10
261.489862
 20
538.446986
 11
262.489862
 21
539.446986
  0
LINE
  8
CSLAYER1
  6
CONTINUOUS
 62
     6
 10
262.489862
 20
539.446986
 11
262.489862
 21
451.446986
  0
LINE
  8
CSLAYER1
  6
CONTINUOUS
 62
     6
 10
262.489862
 20
451.446986
 11
261.489862
 21
452.446986
  0
ARC
  8
CSLAYER1
  6
CONTINUOUS
 62
     6
 10
272.703515
 20
457.875469
 40
1.000000
 50
6.000011
 51
89.999999
  0
LINE
  8
CSLAYER1
  6
CONTINUOUS
 62
     6
 10
273.698083
 20
457.979961
 11
274.395715
 21
451.342510
  0
ARC
  8
CSLAYER1
  6
CONTINUOUS
 62
     6
 10
275.390222
 20
451.447002
 40
1.000000
 50
186.000002
 51
269.999997
  0
LINE
  8
CSLAYER1
  6
CONTINUOUS
 62
     6
 10
275.390222
 20
450.447002
 11
311.589380
 21
450.447002
  0
ARC
  8
CSLAYER1
  6
CONTINUOUS
 62
     6
 10
311.589380
 20
451.447002
 40
1.000000
 50
269.999984
 51
353.999997
  0
LINE
  8
CSLAYER1
  6
CONTINUOUS
 62
     6
 10
309.132898
 20
459.053813
 11
277.175805
 21
459.053813
  0
LINE
  8
CSLAYER1
  6
CONTINUOUS
 62
     6
 10
277.175805
 20
531.840190
 11
309.132898
 21
531.840190
  0
ARC
  8
CSLAYER1
  6
CONTINUOUS
 62
     6
 10
314.276086
 20
533.018596
 40
1.000000
 50
186.000016
 51
269.999991
  0
LINE
  8
CSLAYER1
  6
CONTINUOUS
 62
     6
 10
313.281579
 20
532.914043
 11
312.583948
 21
539.551555
  0
ARC
  8
CSLAYER1
  6
CONTINUOUS
 62
     6
 10
311.589380
 20
539.447002
 40
1.000000
 50
5.999983
 51
89.999999
  0
LINE
  8
CSLAYER1
  6
CONTINUOUS
 62
     6
 10
311.589380
 20
540.447002
 11
275.390222
 21
540.447002
  0
ARC
  8
CSLAYER1
  6
CONTINUOUS
 62
     6
 10
275.390222
 20
539.447002
 40
1.000000
 50
89.999999
 51
173.999988
  0
LINE
  8
CSLAYER1
  6
CONTINUOUS
 62
     6
 10
274.395715
 20
539.551555
 11
273.698083
 21
532.914043
  0
ARC
  8
CSLAYER1
  6
CONTINUOUS
 62
     6
 10
272.703515
 20
533.018596
 40
1.000000
 50
269.999991
 51
353.999979
  0
ARC
  8
CSLAYER1
  6
CONTINUOUS
 62
     6
 10
272.753198
 20
537.490825
 40
1.000000
 50
269.999991
 51
353.999979
  0
LINE
  8
CSLAYER1
  6
CONTINUOUS
 62
     6
 10
273.747705
 20
537.386272
 11
274.395715
 21
543.551555
  0
ARC
  8
CSLAYER1
  6
CONTINUOUS
 62
     6
 10
275.390222
 20
543.447002
 40
1.000000
 50
89.999999
 51
173.999988
  0
LINE
  8
CSLAYER1
  6
CONTINUOUS
 62
     6
 10
275.390222
 20
544.447002
 11
311.589380
 21
544.447002
  0
ARC
  8
CSLAYER1
  6
CONTINUOUS
 62
     6
 10
311.589380
 20
543.447002
 40
1.000000
 50
5.999983
 51
89.999999
  0
LINE
  8
CSLAYER1
  6
CONTINUOUS
 62
     6
 10
312.583948
 20
543.551555
 11
313.231897
 21
537.386272
  0
ARC
  8
CSLAYER1
  6
CONTINUOUS
 62
     6
 10
314.226465
 20
537.490825
 40
1.000000
 50
186.000016
 51
269.999991
  0
LINE
  8
CSLAYER1
  6
CONTINUOUS
 62
     6
 10
314.489862
 20
539.447002
 11
313.014795
 21
539.447002
  0
LINE
  8
CSLAYER1
  6
CONTINUOUS
 62
     6
 10
273.964258
 20
539.447002
 11
262.489831
 21
539.447002
  0
LINE
  8
CSLAYER1
  6
CONTINUOUS
 62
     6
 10
262.489831
 20
539.447002
 11
261.489831
 21
538.447002
  0
LINE
  8
CSLAYER1
  6
CONTINUOUS
 62
     6
 10
179.659883
 20
355.502757
 11
94.659883
 21
355.502757
  0
CIRCLE
  8
CSLAYER1
  6
CONTINUOUS
 62
     6
 10
137.159883
 20
371.502757
 40
4.250000
  0
ARC
  8
CSLAYER1
  6
CONTINUOUS
 62
     6
 10
160.000695
 20
351.102070
 40
6.000000
 50
243.393594
 51
303.753747
  0
LINE
  8
CSLAYER1
  6
CONTINUOUS
 62
     6
 10
163.334443
 20
346.113470
 11
175.492699
 21
354.238507
  0
ARC
  8
CSLAYER1
  6
CONTINUOUS
 62
     6
 10
179.659883
 20
348.002757
 40
7.500000
 50
-33.753747
 51
123.753747
  0
ARC
  8
CSLAYER1
  6
CONTINUOUS
 62
     6
 10
179.659890
 20
348.002734
 40
2.916667
 50
-16.601584
 51
16.601577
  0
LINE
  8
CSLAYER1
  6
CONTINUOUS
 62
     6
 10
182.454962
 20
348.836077
 11
181.326577
 21
348.836077
  0
ARC
  8
CSLAYER1
  6
CONTINUOUS
 62
     6
 10
181.326577
 20
349.669378
 40
0.833333
 50
180.000005
 51
269.942654
  0
LINE
  8
CSLAYER1
  6
CONTINUOUS
 62
     6
 10
180.493234
 20
349.669378
 11
180.493234
 21
350.797849
  0
ARC
  8
CSLAYER1
  6
CONTINUOUS
 62
     6
 10
179.659890
 20
348.002734
 40
2.916667
 50
73.398422
 51
106.601583
  0
LINE
  8
CSLAYER1
  6
CONTINUOUS
 62
     6
 10
178.826546
 20
350.797849
 11
178.826546
 21
349.669378
  0
ARC
  8
CSLAYER1
  6
CONTINUOUS
 62
     6
 10
177.993203
 20
349.669378
 40
0.833333
 50
270.000001
 51
359.942691
  0
LINE
  8
CSLAYER1
  6
CONTINUOUS
 62
     6
 10
177.993203
 20
348.836077
 11
176.864818
 21
348.836077
  0
ARC
  8
CSLAYER1
  6
CONTINUOUS
 62
     6
 10
179.659890
 20
348.002734
 40
2.916667
 50
163.398438
 51
196.601572
  0
LINE
  8
CSLAYER1
  6
CONTINUOUS
 62
     6
 10
176.864818
 20
347.169390
 11
177.993203
 21
347.169390
  0
ARC
  8
CSLAYER1
  6
CONTINUOUS
 62
     6
 10
177.993203
 20
346.336090
 40
0.833333
 50
0.000010
 51
90.000016
  0
LINE
  8
CSLAYER1
  6
CONTINUOUS
 62
     6
 10
178.826546
 20
346.336090
 11
178.826546
 21
345.207618
  0
ARC
  8
CSLAYER1
  6
CONTINUOUS
 62
     6
 10
179.659890
 20
348.002734
 40
2.916667
 50
253.398406
 51
286.601595
  0
LINE
  8
CSLAYER1
  6
CONTINUOUS
 62
     6
 10
180.493234
 20
345.207618
 11
180.493234
 21
346.336090
  0
ARC
  8
CSLAYER1
  6
CONTINUOUS
 62
     6
 10
181.326577
 20
346.336090
 40
0.833333
 50
90.000016
 51
180.000005
  0
LINE
  8
CSLAYER1
  6
CONTINUOUS
 62
     6
 10
181.326577
 20
347.169390
 11
182.454962
 21
347.169390
  0
CIRCLE
  8
CSLAYER1
  6
CONTINUOUS
 62
     6
 10
179.659871
 20
348.002735
 40
5.250000
  0
CIRCLE
  8
CSLAYER1
  6
CONTINUOUS
 62
     6
 10
137.159883
 20
305.502757
 40
44.000000
  0
CIRCLE
  8
CSLAYER1
  6
CONTINUOUS
 62
     6
 10
137.159883
 20
305.502757
 40
15.000000
  0
CIRCLE
  8
CSLAYER1
  6
CONTINUOUS
 62
     6
 10
137.159883
 20
305.502757
 40
74.000000
  0
CIRCLE
  8
CSLAYER1
  6
CONTINUOUS
 62
     6
 10
71.159883
 20
305.502757
 40
4.250000
  0
LINE
  8
CSLAYER1
  6
CONTINUOUS
 62
     6
 10
275.489862
 20
131.502757
 11
275.489862
 21
119.131117
  0
LINE
  8
CSLAYER1
  6
CONTINUOUS
 62
     6
 10
275.415423
 20
119.133861
 11
275.849856
 21
119.117844
  0
LINE
  8
CSLAYER1
  6
CONTINUOUS
 62
     6
 10
275.849856
 20
119.117844
 11
276.281978
 21
119.089636
  0
LINE
  8
CSLAYER1
  6
CONTINUOUS
 62
     6
 10
276.281978
 20
119.089636
 11
276.709895
 21
119.050751
  0
LINE
  8
CSLAYER1
  6
CONTINUOUS
 62
     6
 10
276.709895
 20
119.050751
 11
277.131715
 21
119.002705
  0
LINE
  8
CSLAYER1
  6
CONTINUOUS
 62
     6
 10
277.131715
 20
119.002705
 11
277.545542
 21
118.947011
  0
LINE
  8
CSLAYER1
  6
CONTINUOUS
 62
     6
 10
277.545542
 20
118.947011
 11
277.949484
 21
118.885185
  0
LINE
  8
CSLAYER1
  6
CONTINUOUS
 62
     6
 10
277.949484
 20
118.885185
 11
278.212861
 21
118.844661
  0
LINE
  8
CSLAYER1
  6
CONTINUOUS
 62
     6
 10
278.212861
 20
118.844661
 11
278.483247
 21
118.806739
  0
LINE
  8
CSLAYER1
  6
CONTINUOUS
 62
     6
 10
278.483247
 20
118.806739
 11
278.759074
 21
118.771138
  0
LINE
  8
CSLAYER1
  6
CONTINUOUS
 62
     6
 10
278.759074
 20
118.771138
 11
279.038772
 21
118.737580
  0
LINE
  8
CSLAYER1
  6
CONTINUOUS
 62
     6
 10
279.038772
 20
118.737580
 11
279.320775
 21
118.705784
  0
LINE
  8
CSLAYER1
  6
CONTINUOUS
 62
     6
 10
279.320775
 20
118.705784
 11
279.603513
 21
118.675470
  0
LINE
  8
CSLAYER1
  6
CONTINUOUS
 62
     6
 10
279.603513
 20
118.675470
 11
279.885418
 21
118.646359
  0
LINE
  8
CSLAYER1
  6
CONTINUOUS
 62
     6
 10
279.885418
 20
118.646359
 11
280.164923
 21
118.618170
  0
LINE
  8
CSLAYER1
  6
CONTINUOUS
 62
     6
 10
280.164923
 20
118.618170
 11
280.440458
 21
118.590623
  0
LINE
  8
CSLAYER1
  6
CONTINUOUS
 62
     6
 10
280.440458
 20
118.590623
 11
280.710455
 21
118.563439
  0
LINE
  8
CSLAYER1
  6
CONTINUOUS
 62
     6
 10
280.710455
 20
118.563439
 11
280.973347
 21
118.536337
  0
LINE
  8
CSLAYER1
  6
CONTINUOUS
 62
     6
 10
280.973347
 20
118.536337
 11
281.220836
 21
118.512026
  0
LINE
  8
CSLAYER1
  6
CONTINUOUS
 62
     6
 10
281.220836
 20
118.512026
 11
281.478094
 21
118.489756
  0
LINE
  8
CSLAYER1
  6
CONTINUOUS
 62
     6
 10
281.478094
 20
118.489756
 11
281.742566
 21
118.469437
  0
LINE
  8
CSLAYER1
  6
CONTINUOUS
 62
     6
 10
281.742566
 20
118.469437
 11
282.011697
 21
118.450976
  0
LINE
  8
CSLAYER1
  6
CONTINUOUS
 62
     6
 10
282.011697
 20
118.450976
 11
282.282933
 21
118.434282
  0
LINE
  8
CSLAYER1
  6
CONTINUOUS
 62
     6
 10
282.282933
 20
118.434282
 11
282.553719
 21
118.419262
  0
LINE
  8
CSLAYER1
  6
CONTINUOUS
 62
     6
 10
282.553719
 20
118.419262
 11
282.821500
 21
118.405825
  0
LINE
  8
CSLAYER1
  6
CONTINUOUS
 62
     6
 10
282.821500
 20
118.405825
 11
283.083721
 21
118.393878
  0
LINE
  8
CSLAYER1
  6
CONTINUOUS
 62
     6
 10
283.083721
 20
118.393878
 11
283.337828
 21
118.383330
  0
LINE
  8
CSLAYER1
  6
CONTINUOUS
 62
     6
 10
283.337828
 20
118.383330
 11
283.581267
 21
118.374088
  0
LINE
  8
CSLAYER1
  6
CONTINUOUS
 62
     6
 10
283.581267
 20
118.374088
 11
283.811481
 21
118.366062
  0
ARC
  8
CSLAYER1
  6
CONTINUOUS
 62
     6
 10
283.721609
 20
116.868777
 40
1.500000
 50
-93.433378
 51
86.566642
  0
LINE
  8
CSLAYER1
  6
CONTINUOUS
 62
     6
 10
283.631809
 20
115.371385
 11
283.395458
 21
115.379459
  0
LINE
  8
CSLAYER1
  6
CONTINUOUS
 62
     6
 10
283.395458
 20
115.379459
 11
283.145042
 21
115.388775
  0
LINE
  8
CSLAYER1
  6
CONTINUOUS
 62
     6
 10
283.145042
 20
115.388775
 11
282.883308
 21
115.399443
  0
LINE
  8
CSLAYER1
  6
CONTINUOUS
 62
     6
 10
282.883308
 20
115.399443
 11
282.613004
 21
115.411573
  0
LINE
  8
CSLAYER1
  6
CONTINUOUS
 62
     6
 10
282.613004
 20
115.411573
 11
282.336879
 21
115.425273
  0
LINE
  8
CSLAYER1
  6
CONTINUOUS
 62
     6
 10
282.336879
 20
115.425273
 11
282.057679
 21
115.440655
  0
LINE
  8
CSLAYER1
  6
CONTINUOUS
 62
     6
 10
282.057679
 20
115.440655
 11
281.778154
 21
115.457826
  0
LINE
  8
CSLAYER1
  6
CONTINUOUS
 62
     6
 10
281.778154
 20
115.457826
 11
281.501051
 21
115.476897
  0
LINE
  8
CSLAYER1
  6
CONTINUOUS
 62
     6
 10
281.501051
 20
115.476897
 11
281.229119
 21
115.497977
  0
LINE
  8
CSLAYER1
  6
CONTINUOUS
 62
     6
 10
281.229119
 20
115.497977
 11
280.965104
 21
115.521177
  0
LINE
  8
CSLAYER1
  6
CONTINUOUS
 62
     6
 10
280.965104
 20
115.521177
 11
280.711755
 21
115.546604
  0
LINE
  8
CSLAYER1
  6
CONTINUOUS
 62
     6
 10
280.711755
 20
115.546604
 11
280.455293
 21
115.573524
  0
LINE
  8
CSLAYER1
  6
CONTINUOUS
 62
     6
 10
280.455293
 20
115.573524
 11
280.191155
 21
115.600281
  0
LINE
  8
CSLAYER1
  6
CONTINUOUS
 62
     6
 10
280.191155
 20
115.600281
 11
279.921032
 21
115.627208
  0
LINE
  8
CSLAYER1
  6
CONTINUOUS
 62
     6
 10
279.921032
 20
115.627208
 11
279.646613
 21
115.654637
  0
LINE
  8
CSLAYER1
  6
CONTINUOUS
 62
     6
 10
279.646613
 20
115.654637
 11
279.369589
 21
115.682900
  0
LINE
  8
CSLAYER1
  6
CONTINUOUS
 62
     6
 10
279.369589
 20
115.682900
 11
279.091650
 21
115.712331
  0
LINE
  8
CSLAYER1
  6
CONTINUOUS
 62
     6
 10
279.091650
 20
115.712331
 11
278.814487
 21
115.743262
  0
LINE
  8
CSLAYER1
  6
CONTINUOUS
 62
     6
 10
278.814487
 20
115.743262
 11
278.539788
 21
115.776024
  0
LINE
  8
CSLAYER1
  6
CONTINUOUS
 62
     6
 10
278.539788
 20
115.776024
 11
278.269245
 21
115.810952
  0
LINE
  8
CSLAYER1
  6
CONTINUOUS
 62
     6
 10
278.269245
 20
115.810952
 11
278.004547
 21
115.848376
  0
LINE
  8
CSLAYER1
  6
CONTINUOUS
 62
     6
 10
278.004547
 20
115.848376
 11
277.747386
 21
115.888630
  0
LINE
  8
CSLAYER1
  6
CONTINUOUS
 62
     6
 10
277.747386
 20
115.888630
 11
277.401572
 21
115.942638
  0
LINE
  8
CSLAYER1
  6
CONTINUOUS
 62
     6
 10
277.401572
 20
115.942638
 11
277.046627
 21
115.991204
  0
LINE
  8
CSLAYER1
  6
CONTINUOUS
 62
     6
 10
277.046627
 20
115.991204
 11
276.684284
 21
116.033025
  0
LINE
  8
CSLAYER1
  6
CONTINUOUS
 62
     6
 10
276.684284
 20
116.033025
 11
276.316280
 21
116.066799
  0
LINE
  8
CSLAYER1
  6
CONTINUOUS
 62
     6
 10
276.316280
 20
116.066799
 11
275.944348
 21
116.091223
  0
LINE
  8
CSLAYER1
  6
CONTINUOUS
 62
     6
 10
275.944348
 20
116.091223
 11
275.570224
 21
116.104996
  0
LINE
  8
CSLAYER1
  6
CONTINUOUS
 62
     6
 10
275.570224
 20
116.104996
 11
275.195641
 21
116.106816
  0
LINE
  8
CSLAYER1
  6
CONTINUOUS
 62
     6
 10
275.195641
 20
116.106816
 11
274.822335
 21
116.095379
  0
LINE
  8
CSLAYER1
  6
CONTINUOUS
 62
     6
 10
274.822335
 20
116.095379
 11
274.452041
 21
116.069383
  0
LINE
  8
CSLAYER1
  6
CONTINUOUS
 62
     6
 10
274.452041
 20
116.069383
 11
274.086493
 21
116.027527
  0
LINE
  8
CSLAYER1
  6
CONTINUOUS
 62
     6
 10
274.086493
 20
116.027527
 11
273.727426
 21
115.968508
  0
LINE
  8
CSLAYER1
  6
CONTINUOUS
 62
     6
 10
273.727426
 20
115.968508
 11
273.506997
 21
115.922346
  0
LINE
  8
CSLAYER1
  6
CONTINUOUS
 62
     6
 10
273.506997
 20
115.922346
 11
273.287818
 21
115.869023
  0
LINE
  8
CSLAYER1
  6
CONTINUOUS
 62
     6
 10
273.287818
 20
115.869023
 11
273.069765
 21
115.809254
  0
LINE
  8
CSLAYER1
  6
CONTINUOUS
 62
     6
 10
273.069765
 20
115.809254
 11
272.852712
 21
115.743757
  0
LINE
  8
CSLAYER1
  6
CONTINUOUS
 62
     6
 10
272.852712
 20
115.743757
 11
272.636534
 21
115.673247
  0
LINE
  8
CSLAYER1
  6
CONTINUOUS
 62
     6
 10
272.636534
 20
115.673247
 11
272.421107
 21
115.598440
  0
LINE
  8
CSLAYER1
  6
CONTINUOUS
 62
     6
 10
272.421107
 20
115.598440
 11
272.206305
 21
115.520052
  0
LINE
  8
CSLAYER1
  6
CONTINUOUS
 62
     6
 10
272.206305
 20
115.520052
 11
271.992003
 21
115.438800
  0
LINE
  8
CSLAYER1
  6
CONTINUOUS
 62
     6
 10
271.992003
 20
115.438800
 11
271.778076
 21
115.355400
  0
LINE
  8
CSLAYER1
  6
CONTINUOUS
 62
     6
 10
271.778076
 20
115.355400
 11
271.564399
 21
115.270567
  0
LINE
  8
CSLAYER1
  6
CONTINUOUS
 62
     6
 10
271.564399
 20
115.270567
 11
271.350847
 21
115.185018
  0
ARC
  8
CSLAYER1
  6
CONTINUOUS
 62
     6
 10
269.882354
 20
115.490563
 40
1.499994
 50
-11.754089
 51
48.245911
  0
ARC
  8
CSLAYER1
  6
CONTINUOUS
 62
     6
 10
271.880151
 20
117.728584
 40
1.499994
 50
168.245911
 51
228.245911
  0
LINE
  8
CSLAYER1
  6
CONTINUOUS
 62
     6
 10
270.411558
 20
118.034186
 11
270.668762
 21
118.137588
  0
LINE
  8
CSLAYER1
  6
CONTINUOUS
 62
     6
 10
270.668762
 20
118.137588
 11
270.926121
 21
118.240111
  0
LINE
  8
CSLAYER1
  6
CONTINUOUS
 62
     6
 10
270.926121
 20
118.240111
 11
271.183789
 21
118.340874
  0
LINE
  8
CSLAYER1
  6
CONTINUOUS
 62
     6
 10
271.183789
 20
118.340874
 11
271.441923
 21
118.438997
  0
LINE
  8
CSLAYER1
  6
CONTINUOUS
 62
     6
 10
271.441923
 20
118.438997
 11
271.700675
 21
118.533602
  0
LINE
  8
CSLAYER1
  6
CONTINUOUS
 62
     6
 10
271.700675
 20
118.533602
 11
271.960203
 21
118.623808
  0
LINE
  8
CSLAYER1
  6
CONTINUOUS
 62
     6
 10
271.960203
 20
118.623808
 11
272.220660
 21
118.708736
  0
LINE
  8
CSLAYER1
  6
CONTINUOUS
 62
     6
 10
272.220660
 20
118.708736
 11
272.482201
 21
118.787506
  0
LINE
  8
CSLAYER1
  6
CONTINUOUS
 62
     6
 10
272.482201
 20
118.787506
 11
272.744981
 21
118.859237
  0
LINE
  8
CSLAYER1
  6
CONTINUOUS
 62
     6
 10
272.744981
 20
118.859237
 11
273.009156
 21
118.923052
  0
LINE
  8
CSLAYER1
  6
CONTINUOUS
 62
     6
 10
273.009156
 20
118.923052
 11
273.274880
 21
118.978069
  0
LINE
  8
CSLAYER1
  6
CONTINUOUS
 62
     6
 10
273.274880
 20
118.978069
 11
273.692460
 21
119.045727
  0
LINE
  8
CSLAYER1
  6
CONTINUOUS
 62
     6
 10
273.692460
 20
119.045727
 11
274.117198
 21
119.093620
  0
LINE
  8
CSLAYER1
  6
CONTINUOUS
 62
     6
 10
274.117198
 20
119.093620
 11
274.547200
 21
119.123264
  0
LINE
  8
CSLAYER1
  6
CONTINUOUS
 62
     6
 10
274.547200
 20
119.123264
 11
274.980573
 21
119.136173
  0
LINE
  8
CSLAYER1
  6
CONTINUOUS
 62
     6
 10
274.980573
 20
119.136173
 11
275.415423
 21
119.133861
  0
ARC
  8
CSLAYER1
  6
CONTINUOUS
 62
     6
 10
282.489840
 20
115.502720
 40
6.750000
 50
-154.073524
 51
148.329015
  0
LINE
  8
CSLAYER1
  6
CONTINUOUS
 62
     6
 10
276.393671
 20
112.548140
 11
276.195126
 21
112.518591
  0
LINE
  8
CSLAYER1
  6
CONTINUOUS
 62
     6
 10
276.195126
 20
112.518591
 11
276.002015
 21
112.486824
  0
LINE
  8
CSLAYER1
  6
CONTINUOUS
 62
     6
 10
276.002015
 20
112.486824
 11
275.815760
 21
112.453478
  0
LINE
  8
CSLAYER1
  6
CONTINUOUS
 62
     6
 10
275.815760
 20
112.453478
 11
275.654229
 21
112.420103
  0
LINE
  8
CSLAYER1
  6
CONTINUOUS
 62
     6
 10
275.654229
 20
112.420103
 11
275.490010
 21
112.379785
  0
LINE
  8
CSLAYER1
  6
CONTINUOUS
 62
     6
 10
275.490010
 20
112.379785
 11
275.323820
 21
112.332976
  0
LINE
  8
CSLAYER1
  6
CONTINUOUS
 62
     6
 10
275.323820
 20
112.332976
 11
275.156377
 21
112.280129
  0
LINE
  8
CSLAYER1
  6
CONTINUOUS
 62
     6
 10
275.156377
 20
112.280129
 11
274.988401
 21
112.221696
  0
LINE
  8
CSLAYER1
  6
CONTINUOUS
 62
     6
 10
274.988401
 20
112.221696
 11
274.820609
 21
112.158129
  0
LINE
  8
CSLAYER1
  6
CONTINUOUS
 62
     6
 10
274.820609
 20
112.158129
 11
274.653720
 21
112.089880
  0
LINE
  8
CSLAYER1
  6
CONTINUOUS
 62
     6
 10
274.653720
 20
112.089880
 11
274.488451
 21
112.017401
  0
LINE
  8
CSLAYER1
  6
CONTINUOUS
 62
     6
 10
274.488451
 20
112.017401
 11
274.325521
 21
111.941145
  0
LINE
  8
CSLAYER1
  6
CONTINUOUS
 62
     6
 10
274.325521
 20
111.941145
 11
274.165649
 21
111.861563
  0
LINE
  8
CSLAYER1
  6
CONTINUOUS
 62
     6
 10
274.165649
 20
111.861563
 11
274.009551
 21
111.779108
  0
LINE
  8
CSLAYER1
  6
CONTINUOUS
 62
     6
 10
274.009551
 20
111.779108
 11
273.880847
 21
111.707315
  0
LINE
  8
CSLAYER1
  6
CONTINUOUS
 62
     6
 10
273.880847
 20
111.707315
 11
273.753657
 21
111.632985
  0
LINE
  8
CSLAYER1
  6
CONTINUOUS
 62
     6
 10
273.753657
 20
111.632985
 11
273.627832
 21
111.556372
  0
LINE
  8
CSLAYER1
  6
CONTINUOUS
 62
     6
 10
273.627832
 20
111.556372
 11
273.503219
 21
111.477728
  0
LINE
  8
CSLAYER1
  6
CONTINUOUS
 62
     6
 10
273.503219
 20
111.477728
 11
273.379666
 21
111.397308
  0
LINE
  8
CSLAYER1
  6
CONTINUOUS
 62
     6
 10
273.379666
 20
111.397308
 11
273.257023
 21
111.315366
  0
LINE
  8
CSLAYER1
  6
CONTINUOUS
 62
     6
 10
273.257023
 20
111.315366
 11
273.135138
 21
111.232155
  0
LINE
  8
CSLAYER1
  6
CONTINUOUS
 62
     6
 10
273.135138
 20
111.232155
 11
273.013859
 21
111.147928
  0
LINE
  8
CSLAYER1
  6
CONTINUOUS
 62
     6
 10
273.013859
 20
111.147928
 11
272.893034
 21
111.062941
  0
LINE
  8
CSLAYER1
  6
CONTINUOUS
 62
     6
 10
272.893034
 20
111.062941
 11
272.772512
 21
110.977446
  0
LINE
  8
CSLAYER1
  6
CONTINUOUS
 62
     6
 10
272.772512
 20
110.977446
 11
272.652143
 21
110.891697
  0
ARC
  8
CSLAYER1
  6
CONTINUOUS
 62
     6
 10
271.154481
 20
110.808481
 40
1.500006
 50
3.178280
 51
63.178280
  0
ARC
  8
CSLAYER1
  6
CONTINUOUS
 62
     6
 10
273.329005
 20
112.230273
 40
1.500006
 50
183.178280
 51
243.178280
  0
ARC
  8
CSLAYER1
  6
CONTINUOUS
 62
     6
 10
272.508133
 20
113.485736
 40
1.500006
 50
183.178280
 51
243.178280
  0
LINE
  8
CSLAYER1
  6
CONTINUOUS
 62
     6
 10
271.010400
 20
113.402626
 11
271.155827
 21
113.505565
  0
LINE
  8
CSLAYER1
  6
CONTINUOUS
 62
     6
 10
271.155827
 20
113.505565
 11
271.301422
 21
113.608221
  0
LINE
  8
CSLAYER1
  6
CONTINUOUS
 62
     6
 10
271.301422
 20
113.608221
 11
271.447355
 21
113.710312
  0
LINE
  8
CSLAYER1
  6
CONTINUOUS
 62
     6
 10
271.447355
 20
113.710312
 11
271.593795
 21
113.811556
  0
LINE
  8
CSLAYER1
  6
CONTINUOUS
 62
     6
 10
271.593795
 20
113.811556
 11
271.740910
 21
113.911668
  0
LINE
  8
CSLAYER1
  6
CONTINUOUS
 62
     6
 10
271.740910
 20
113.911668
 11
271.888870
 21
114.010368
  0
LINE
  8
CSLAYER1
  6
CONTINUOUS
 62
     6
 10
271.888870
 20
114.010368
 11
272.037843
 21
114.107372
  0
LINE
  8
CSLAYER1
  6
CONTINUOUS
 62
     6
 10
272.037843
 20
114.107372
 11
272.187998
 21
114.202397
  0
LINE
  8
CSLAYER1
  6
CONTINUOUS
 62
     6
 10
272.187998
 20
114.202397
 11
272.339505
 21
114.295162
  0
LINE
  8
CSLAYER1
  6
CONTINUOUS
 62
     6
 10
272.339505
 20
114.295162
 11
272.492532
 21
114.385383
  0
LINE
  8
CSLAYER1
  6
CONTINUOUS
 62
     6
 10
272.492532
 20
114.385383
 11
272.647247
 21
114.472777
  0
LINE
  8
CSLAYER1
  6
CONTINUOUS
 62
     6
 10
272.647247
 20
114.472777
 11
272.863738
 21
114.588609
  0
LINE
  8
CSLAYER1
  6
CONTINUOUS
 62
     6
 10
272.863738
 20
114.588609
 11
273.085734
 21
114.700149
  0
LINE
  8
CSLAYER1
  6
CONTINUOUS
 62
     6
 10
273.085734
 20
114.700149
 11
273.312193
 21
114.806791
  0
LINE
  8
CSLAYER1
  6
CONTINUOUS
 62
     6
 10
273.312193
 20
114.806791
 11
273.542073
 21
114.907928
  0
LINE
  8
CSLAYER1
  6
CONTINUOUS
 62
     6
 10
273.542073
 20
114.907928
 11
273.774333
 21
115.002953
  0
LINE
  8
CSLAYER1
  6
CONTINUOUS
 62
     6
 10
273.774333
 20
115.002953
 11
274.007932
 21
115.091258
  0
LINE
  8
CSLAYER1
  6
CONTINUOUS
 62
     6
 10
274.007932
 20
115.091258
 11
274.241828
 21
115.172237
  0
LINE
  8
CSLAYER1
  6
CONTINUOUS
 62
     6
 10
274.241828
 20
115.172237
 11
274.474980
 21
115.245282
  0
LINE
  8
CSLAYER1
  6
CONTINUOUS
 62
     6
 10
274.474980
 20
115.245282
 11
274.706346
 21
115.309787
  0
LINE
  8
CSLAYER1
  6
CONTINUOUS
 62
     6
 10
274.706346
 20
115.309787
 11
274.934886
 21
115.365143
  0
LINE
  8
CSLAYER1
  6
CONTINUOUS
 62
     6
 10
274.934886
 20
115.365143
 11
275.159556
 21
115.410745
  0
LINE
  8
CSLAYER1
  6
CONTINUOUS
 62
     6
 10
275.159556
 20
115.410745
 11
275.403799
 21
115.453750
  0
LINE
  8
CSLAYER1
  6
CONTINUOUS
 62
     6
 10
275.403799
 20
115.453750
 11
275.656845
 21
115.494986
  0
LINE
  8
CSLAYER1
  6
CONTINUOUS
 62
     6
 10
275.656845
 20
115.494986
 11
275.916905
 21
115.533561
  0
LINE
  8
CSLAYER1
  6
CONTINUOUS
 62
     6
 10
275.916905
 20
115.533561
 11
276.182193
 21
115.568586
  0
LINE
  8
CSLAYER1
  6
CONTINUOUS
 62
     6
 10
276.182193
 20
115.568586
 11
276.450921
 21
115.599170
  0
LINE
  8
CSLAYER1
  6
CONTINUOUS
 62
     6
 10
276.450921
 20
115.599170
 11
276.721301
 21
115.624423
  0
LINE
  8
CSLAYER1
  6
CONTINUOUS
 62
     6
 10
276.721301
 20
115.624423
 11
276.991546
 21
115.643454
  0
LINE
  8
CSLAYER1
  6
CONTINUOUS
 62
     6
 10
276.991546
 20
115.643454
 11
277.259869
 21
115.655373
  0
LINE
  8
CSLAYER1
  6
CONTINUOUS
 62
     6
 10
277.259869
 20
115.655373
 11
277.524480
 21
115.659290
  0
LINE
  8
CSLAYER1
  6
CONTINUOUS
 62
     6
 10
277.524480
 20
115.659290
 11
277.783594
 21
115.654314
  0
LINE
  8
CSLAYER1
  6
CONTINUOUS
 62
     6
 10
277.783594
 20
115.654314
 11
278.035422
 21
115.639554
  0
LINE
  8
CSLAYER1
  6
CONTINUOUS
 62
     6
 10
278.035422
 20
115.639554
 11
278.224566
 21
115.624281
  0
LINE
  8
CSLAYER1
  6
CONTINUOUS
 62
     6
 10
278.224566
 20
115.624281
 11
278.418307
 21
115.608456
  0
LINE
  8
CSLAYER1
  6
CONTINUOUS
 62
     6
 10
278.418307
 20
115.608456
 11
278.615609
 21
115.591988
  0
LINE
  8
CSLAYER1
  6
CONTINUOUS
 62
     6
 10
278.615609
 20
115.591988
 11
278.815437
 21
115.574787
  0
LINE
  8
CSLAYER1
  6
CONTINUOUS
 62
     6
 10
278.815437
 20
115.574787
 11
279.016758
 21
115.556763
  0
LINE
  8
CSLAYER1
  6
CONTINUOUS
 62
     6
 10
279.016758
 20
115.556763
 11
279.218537
 21
115.537827
  0
LINE
  8
CSLAYER1
  6
CONTINUOUS
 62
     6
 10
279.218537
 20
115.537827
 11
279.419738
 21
115.517887
  0
LINE
  8
CSLAYER1
  6
CONTINUOUS
 62
     6
 10
279.419738
 20
115.517887
 11
279.619329
 21
115.496853
  0
LINE
  8
CSLAYER1
  6
CONTINUOUS
 62
     6
 10
279.619329
 20
115.496853
 11
279.816273
 21
115.474636
  0
LINE
  8
CSLAYER1
  6
CONTINUOUS
 62
     6
 10
279.816273
 20
115.474636
 11
280.009537
 21
115.451146
  0
LINE
  8
CSLAYER1
  6
CONTINUOUS
 62
     6
 10
280.009537
 20
115.451146
 11
280.198085
 21
115.426292
  0
LINE
  8
CSLAYER1
  6
CONTINUOUS
 62
     6
 10
280.198085
 20
115.426292
 11
280.346706
 21
115.406640
  0
LINE
  8
CSLAYER1
  6
CONTINUOUS
 62
     6
 10
280.346706
 20
115.406640
 11
280.499424
 21
115.388024
  0
LINE
  8
CSLAYER1
  6
CONTINUOUS
 62
     6
 10
280.499424
 20
115.388024
 11
280.655297
 21
115.370587
  0
LINE
  8
CSLAYER1
  6
CONTINUOUS
 62
     6
 10
280.655297
 20
115.370587
 11
280.813386
 21
115.354475
  0
LINE
  8
CSLAYER1
  6
CONTINUOUS
 62
     6
 10
280.813386
 20
115.354475
 11
280.972748
 21
115.339833
  0
LINE
  8
CSLAYER1
  6
CONTINUOUS
 62
     6
 10
280.972748
 20
115.339833
 11
281.132442
 21
115.326806
  0
LINE
  8
CSLAYER1
  6
CONTINUOUS
 62
     6
 10
281.132442
 20
115.326806
 11
281.291528
 21
115.315538
  0
LINE
  8
CSLAYER1
  6
CONTINUOUS
 62
     6
 10
281.291528
 20
115.315538
 11
281.449065
 21
115.306175
  0
LINE
  8
CSLAYER1
  6
CONTINUOUS
 62
     6
 10
281.449065
 20
115.306175
 11
281.604110
 21
115.298862
  0
LINE
  8
CSLAYER1
  6
CONTINUOUS
 62
     6
 10
281.604110
 20
115.298862
 11
281.755724
 21
115.293744
  0
LINE
  8
CSLAYER1
  6
CONTINUOUS
 62
     6
 10
281.755724
 20
115.293744
 11
281.902965
 21
115.290965
  0
LINE
  8
CSLAYER1
  6
CONTINUOUS
 62
     6
 10
281.902965
 20
115.290965
 11
282.046939
 21
115.290372
  0
LINE
  8
CSLAYER1
  6
CONTINUOUS
 62
     6
 10
282.046939
 20
115.290372
 11
282.196924
 21
115.291569
  0
LINE
  8
CSLAYER1
  6
CONTINUOUS
 62
     6
 10
282.196924
 20
115.291569
 11
282.351365
 21
115.294475
  0
LINE
  8
CSLAYER1
  6
CONTINUOUS
 62
     6
 10
282.351365
 20
115.294475
 11
282.508707
 21
115.299011
  0
LINE
  8
CSLAYER1
  6
CONTINUOUS
 62
     6
 10
282.508707
 20
115.299011
 11
282.667393
 21
115.305097
  0
LINE
  8
CSLAYER1
  6
CONTINUOUS
 62
     6
 10
282.667393
 20
115.305097
 11
282.825868
 21
115.312655
  0
LINE
  8
CSLAYER1
  6
CONTINUOUS
 62
     6
 10
282.825868
 20
115.312655
 11
282.982577
 21
115.321604
  0
LINE
  8
CSLAYER1
  6
CONTINUOUS
 62
     6
 10
282.982577
 20
115.321604
 11
283.135964
 21
115.331865
  0
LINE
  8
CSLAYER1
  6
CONTINUOUS
 62
     6
 10
283.135964
 20
115.331865
 11
283.284474
 21
115.343358
  0
LINE
  8
CSLAYER1
  6
CONTINUOUS
 62
     6
 10
283.284474
 20
115.343358
 11
283.426551
 21
115.356004
  0
LINE
  8
CSLAYER1
  6
CONTINUOUS
 62
     6
 10
283.426551
 20
115.356004
 11
283.560639
 21
115.369723
  0
ARC
  8
CSLAYER1
  6
CONTINUOUS
 62
     6
 10
283.667357
 20
113.872300
 40
1.500000
 50
-88.640300
 51
91.359720
  0
LINE
  8
CSLAYER1
  6
CONTINUOUS
 62
     6
 10
283.702979
 20
112.373107
 11
283.553299
 21
112.357870
  0
LINE
  8
CSLAYER1
  6
CONTINUOUS
 62
     6
 10
283.553299
 20
112.357870
 11
283.394578
 21
112.343835
  0
LINE
  8
CSLAYER1
  6
CONTINUOUS
 62
     6
 10
283.394578
 20
112.343835
 11
283.228609
 21
112.331088
  0
LINE
  8
CSLAYER1
  6
CONTINUOUS
 62
     6
 10
283.228609
 20
112.331088
 11
283.057187
 21
112.319709
  0
LINE
  8
CSLAYER1
  6
CONTINUOUS
 62
     6
 10
283.057187
 20
112.319709
 11
282.882103
 21
112.309784
  0
LINE
  8
CSLAYER1
  6
CONTINUOUS
 62
     6
 10
282.882103
 20
112.309784
 11
282.705153
 21
112.301393
  0
LINE
  8
CSLAYER1
  6
CONTINUOUS
 62
     6
 10
282.705153
 20
112.301393
 11
282.528128
 21
112.294622
  0
LINE
  8
CSLAYER1
  6
CONTINUOUS
 62
     6
 10
282.528128
 20
112.294622
 11
282.352823
 21
112.289552
  0
LINE
  8
CSLAYER1
  6
CONTINUOUS
 62
     6
 10
282.352823
 20
112.289552
 11
282.181030
 21
112.286266
  0
LINE
  8
CSLAYER1
  6
CONTINUOUS
 62
     6
 10
282.181030
 20
112.286266
 11
282.014544
 21
112.284849
  0
LINE
  8
CSLAYER1
  6
CONTINUOUS
 62
     6
 10
282.014544
 20
112.284849
 11
281.855157
 21
112.285382
  0
LINE
  8
CSLAYER1
  6
CONTINUOUS
 62
     6
 10
281.855157
 20
112.285382
 11
281.690010
 21
112.288317
  0
LINE
  8
CSLAYER1
  6
CONTINUOUS
 62
     6
 10
281.690010
 20
112.288317
 11
281.519205
 21
112.293832
  0
LINE
  8
CSLAYER1
  6
CONTINUOUS
 62
     6
 10
281.519205
 20
112.293832
 11
281.343980
 21
112.301795
  0
LINE
  8
CSLAYER1
  6
CONTINUOUS
 62
     6
 10
281.343980
 20
112.301795
 11
281.165576
 21
112.312077
  0
LINE
  8
CSLAYER1
  6
CONTINUOUS
 62
     6
 10
281.165576
 20
112.312077
 11
280.985233
 21
112.324547
  0
LINE
  8
CSLAYER1
  6
CONTINUOUS
 62
     6
 10
280.985233
 20
112.324547
 11
280.804191
 21
112.339075
  0
LINE
  8
CSLAYER1
  6
CONTINUOUS
 62
     6
 10
280.804191
 20
112.339075
 11
280.623689
 21
112.355531
  0
LINE
  8
CSLAYER1
  6
CONTINUOUS
 62
     6
 10
280.623689
 20
112.355531
 11
280.444968
 21
112.373783
  0
LINE
  8
CSLAYER1
  6
CONTINUOUS
 62
     6
 10
280.444968
 20
112.373783
 11
280.269268
 21
112.393703
  0
LINE
  8
CSLAYER1
  6
CONTINUOUS
 62
     6
 10
280.269268
 20
112.393703
 11
280.097828
 21
112.415159
  0
LINE
  8
CSLAYER1
  6
CONTINUOUS
 62
     6
 10
280.097828
 20
112.415159
 11
279.931888
 21
112.438021
  0
LINE
  8
CSLAYER1
  6
CONTINUOUS
 62
     6
 10
279.931888
 20
112.438021
 11
279.765805
 21
112.460828
  0
LINE
  8
CSLAYER1
  6
CONTINUOUS
 62
     6
 10
279.765805
 20
112.460828
 11
279.594675
 21
112.482163
  0
LINE
  8
CSLAYER1
  6
CONTINUOUS
 62
     6
 10
279.594675
 20
112.482163
 11
279.419586
 21
112.502146
  0
LINE
  8
CSLAYER1
  6
CONTINUOUS
 62
     6
 10
279.419586
 20
112.502146
 11
279.241626
 21
112.520897
  0
LINE
  8
CSLAYER1
  6
CONTINUOUS
 62
     6
 10
279.241626
 20
112.520897
 11
279.061883
 21
112.538537
  0
LINE
  8
CSLAYER1
  6
CONTINUOUS
 62
     6
 10
279.061883
 20
112.538537
 11
278.881445
 21
112.555185
  0
LINE
  8
CSLAYER1
  6
CONTINUOUS
 62
     6
 10
278.881445
 20
112.555185
 11
278.701400
 21
112.570962
  0
LINE
  8
CSLAYER1
  6
CONTINUOUS
 62
     6
 10
278.701400
 20
112.570962
 11
278.522835
 21
112.585988
  0
LINE
  8
CSLAYER1
  6
CONTINUOUS
 62
     6
 10
278.522835
 20
112.585988
 11
278.346838
 21
112.600382
  0
LINE
  8
CSLAYER1
  6
CONTINUOUS
 62
     6
 10
278.346838
 20
112.600382
 11
278.174496
 21
112.614266
  0
LINE
  8
CSLAYER1
  6
CONTINUOUS
 62
     6
 10
278.174496
 20
112.614266
 11
278.006899
 21
112.627758
  0
LINE
  8
CSLAYER1
  6
CONTINUOUS
 62
     6
 10
278.006899
 20
112.627758
 11
277.816108
 21
112.639028
  0
LINE
  8
CSLAYER1
  6
CONTINUOUS
 62
     6
 10
277.816108
 20
112.639028
 11
277.619368
 21
112.642953
  0
LINE
  8
CSLAYER1
  6
CONTINUOUS
 62
     6
 10
277.619368
 20
112.642953
 11
277.418101
 21
112.640173
  0
LINE
  8
CSLAYER1
  6
CONTINUOUS
 62
     6
 10
277.418101
 20
112.640173
 11
277.213731
 21
112.631331
  0
LINE
  8
CSLAYER1
  6
CONTINUOUS
 62
     6
 10
277.213731
 20
112.631331
 11
277.007680
 21
112.617065
  0
LINE
  8
CSLAYER1
  6
CONTINUOUS
 62
     6
 10
277.007680
 20
112.617065
 11
276.801371
 21
112.598018
  0
LINE
  8
CSLAYER1
  6
CONTINUOUS
 62
     6
 10
276.801371
 20
112.598018
 11
276.596227
 21
112.574829
  0
LINE
  8
CSLAYER1
  6
CONTINUOUS
 62
     6
 10
276.596227
 20
112.574829
 11
276.393671
 21
112.548140
  0
LINE
  8
CSLAYER1
  6
CONTINUOUS
 62
     6
 10
275.489862
 20
112.379785
 11
275.489862
 21
99.502757
  0
ARC
  8
CSLAYER1
  6
CONTINUOUS
 62
     6
 10
277.489862
 20
99.502757
 40
2.000000
 50
180.000000
 51
270.000000
  0
LINE
  8
CSLAYER1
  6
CONTINUOUS
 62
     6
 10
277.489862
 20
97.502757
 11
299.489862
 21
97.502757
  0
ARC
  8
CSLAYER1
  6
CONTINUOUS
 62
     6
 10
299.489862
 20
99.502757
 40
2.000000
 50
270.000000
 51
360.000000
  0
LINE
  8
CSLAYER1
  6
CONTINUOUS
 62
     6
 10
301.489862
 20
99.502757
 11
301.489862
 21
131.502757
  0
ARC
  8
CSLAYER1
  6
CONTINUOUS
 62
     6
 10
299.489862
 20
131.502757
 40
2.000000
 50
0.000000
 51
90.000000
  0
LINE
  8
CSLAYER1
  6
CONTINUOUS
 62
     6
 10
299.489862
 20
133.502757
 11
277.489862
 21
133.502757
  0
ARC
  8
CSLAYER1
  6
CONTINUOUS
 62
     6
 10
277.489862
 20
131.502757
 40
2.000000
 50
90.000000
 51
180.000000
  0
ARC
  8
CSLAYER1
  6
CONTINUOUS
 62
     6
 10
288.489858
 20
130.502770
 40
1.527778
 50
163.398416
 51
196.601577
  0
LINE
  8
CSLAYER1
  6
CONTINUOUS
 62
     6
 10
287.025773
 20
130.066256
 11
287.616832
 21
130.066256
  0
ARC
  8
CSLAYER1
  6
CONTINUOUS
 62
     6
 10
287.616832
 20
129.629766
 40
0.436508
 50
0.000005
 51
89.942654
  0
LINE
  8
CSLAYER1
  6
CONTINUOUS
 62
     6
 10
288.053345
 20
129.629766
 11
288.053345
 21
129.038662
  0
ARC
  8
CSLAYER1
  6
CONTINUOUS
 62
     6
 10
288.489858
 20
130.502770
 40
1.527778
 50
253.398422
 51
286.601583
  0
LINE
  8
CSLAYER1
  6
CONTINUOUS
 62
     6
 10
288.926372
 20
129.038662
 11
288.926372
 21
129.629766
  0
ARC
  8
CSLAYER1
  6
CONTINUOUS
 62
     6
 10
289.362885
 20
129.629766
 40
0.436508
 50
90.000001
 51
179.942691
  0
LINE
  8
CSLAYER1
  6
CONTINUOUS
 62
     6
 10
289.362885
 20
130.066256
 11
289.953944
 21
130.066256
  0
ARC
  8
CSLAYER1
  6
CONTINUOUS
 62
     6
 10
288.489858
 20
130.502770
 40
1.527778
 50
-16.601562
 51
16.601572
  0
LINE
  8
CSLAYER1
  6
CONTINUOUS
 62
     6
 10
289.953944
 20
130.939283
 11
289.362885
 21
130.939283
  0
ARC
  8
CSLAYER1
  6
CONTINUOUS
 62
     6
 10
289.362885
 20
131.375774
 40
0.436508
 50
180.000010
 51
270.000016
  0
LINE
  8
CSLAYER1
  6
CONTINUOUS
 62
     6
 10
288.926372
 20
131.375774
 11
288.926372
 21
131.966878
  0
ARC
  8
CSLAYER1
  6
CONTINUOUS
 62
     6
 10
288.489858
 20
130.502770
 40
1.527778
 50
73.398406
 51
106.601595
  0
LINE
  8
CSLAYER1
  6
CONTINUOUS
 62
     6
 10
288.053345
 20
131.966878
 11
288.053345
 21
131.375774
  0
ARC
  8
CSLAYER1
  6
CONTINUOUS
 62
     6
 10
287.616832
 20
131.375774
 40
0.436508
 50
-89.999984
 51
0.000005
  0
LINE
  8
CSLAYER1
  6
CONTINUOUS
 62
     6
 10
287.616832
 20
130.939283
 11
287.025773
 21
130.939283
  0
CIRCLE
  8
CSLAYER1
  6
CONTINUOUS
 62
     6
 10
288.489868
 20
130.502769
 40
2.750000
  0
ARC
  8
CSLAYER1
  6
CONTINUOUS
 62
     6
 10
282.489840
 20
115.502720
 40
4.000000
 50
-129.735526
 51
128.465835
  0
ARC
  8
CSLAYER1
  6
CONTINUOUS
 62
     6
 10
282.489840
 20
115.502720
 40
4.000000
 50
176.007555
 51
178.572301
  0
ARC
  8
CSLAYER1
  6
CONTINUOUS
 62
     6
 10
282.489840
 20
115.502720
 40
6.750000
 50
174.942367
 51
179.961149
  0
LINE
  8
CSLAYER1
  6
CONTINUOUS
 62
     6
 10
275.489833
 20
115.502700
 11
275.489891
 21
116.104052
  0
LINE
  8
CSLAYER1
  6
CONTINUOUS
 62
     6
 10
275.489862
 20
116.105387
 11
275.489862
 21
115.467775
  0
ARC
  8
CSLAYER1
  6
CONTINUOUS
 62
     6
 10
272.349794
 20
116.304007
 40
1.499994
 50
168.245911
 51
228.245911
  0
ARC
  8
CSLAYER1
  6
CONTINUOUS
 62
     6
 10
269.178838
 20
116.733759
 40
1.499998
 50
182.735346
 51
242.735346
  0
ARC
  8
CSLAYER1
  6
CONTINUOUS
 62
     6
 10
266.993398
 20
115.328827
 40
1.499998
 50
2.735346
 51
62.735346
  0
ARC
  8
CSLAYER1
  6
CONTINUOUS
 62
     6
 10
267.804536
 20
114.067062
 40
1.499998
 50
2.735346
 51
62.735346
  0
LINE
  8
CSLAYER1
  6
CONTINUOUS
 62
     6
 10
269.302774
 20
114.138595
 11
269.176640
 21
114.077329
  0
LINE
  8
CSLAYER1
  6
CONTINUOUS
 62
     6
 10
269.176640
 20
114.077329
 11
269.045683
 21
114.008049
  0
LINE
  8
CSLAYER1
  6
CONTINUOUS
 62
     6
 10
269.045683
 20
114.008049
 11
268.911152
 21
113.931874
  0
LINE
  8
CSLAYER1
  6
CONTINUOUS
 62
     6
 10
268.911152
 20
113.931874
 11
268.774293
 21
113.849922
  0
LINE
  8
CSLAYER1
  6
CONTINUOUS
 62
     6
 10
268.774293
 20
113.849922
 11
268.636352
 21
113.763312
  0
LINE
  8
CSLAYER1
  6
CONTINUOUS
 62
     6
 10
268.636352
 20
113.763312
 11
268.498577
 21
113.673162
  0
LINE
  8
CSLAYER1
  6
CONTINUOUS
 62
     6
 10
268.498577
 20
113.673162
 11
268.362213
 21
113.580591
  0
LINE
  8
CSLAYER1
  6
CONTINUOUS
 62
     6
 10
268.362213
 20
113.580591
 11
268.228508
 21
113.486719
  0
LINE
  8
CSLAYER1
  6
CONTINUOUS
 62
     6
 10
268.228508
 20
113.486719
 11
268.098709
 21
113.392662
  0
LINE
  8
CSLAYER1
  6
CONTINUOUS
 62
     6
 10
268.098709
 20
113.392662
 11
267.974061
 21
113.299541
  0
LINE
  8
CSLAYER1
  6
CONTINUOUS
 62
     6
 10
267.974061
 20
113.299541
 11
267.855813
 21
113.208474
  0
LINE
  8
CSLAYER1
  6
CONTINUOUS
 62
     6
 10
267.855813
 20
113.208474
 11
267.763631
 21
113.133322
  0
LINE
  8
CSLAYER1
  6
CONTINUOUS
 62
     6
 10
267.763631
 20
113.133322
 11
267.672221
 21
113.052924
  0
LINE
  8
CSLAYER1
  6
CONTINUOUS
 62
     6
 10
267.672221
 20
113.052924
 11
267.581806
 21
112.967820
  0
LINE
  8
CSLAYER1
  6
CONTINUOUS
 62
     6
 10
267.581806
 20
112.967820
 11
267.492608
 21
112.878552
  0
LINE
  8
CSLAYER1
  6
CONTINUOUS
 62
     6
 10
267.492608
 20
112.878552
 11
267.404852
 21
112.785662
  0
LINE
  8
CSLAYER1
  6
CONTINUOUS
 62
     6
 10
267.404852
 20
112.785662
 11
267.318760
 21
112.689690
  0
LINE
  8
CSLAYER1
  6
CONTINUOUS
 62
     6
 10
267.318760
 20
112.689690
 11
267.234556
 21
112.591177
  0
LINE
  8
CSLAYER1
  6
CONTINUOUS
 62
     6
 10
267.234556
 20
112.591177
 11
267.152463
 21
112.490666
  0
LINE
  8
CSLAYER1
  6
CONTINUOUS
 62
     6
 10
267.152463
 20
112.490666
 11
267.072704
 21
112.388696
  0
LINE
  8
CSLAYER1
  6
CONTINUOUS
 62
     6
 10
267.072704
 20
112.388696
 11
266.995503
 21
112.285810
  0
LINE
  8
CSLAYER1
  6
CONTINUOUS
 62
     6
 10
266.995503
 20
112.285810
 11
266.921082
 21
112.182548
  0
LINE
  8
CSLAYER1
  6
CONTINUOUS
 62
     6
 10
266.921082
 20
112.182548
 11
266.827415
 21
112.046203
  0
LINE
  8
CSLAYER1
  6
CONTINUOUS
 62
     6
 10
266.827415
 20
112.046203
 11
266.737238
 21
111.907746
  0
LINE
  8
CSLAYER1
  6
CONTINUOUS
 62
     6
 10
266.737238
 20
111.907746
 11
266.650203
 21
111.767389
  0
LINE
  8
CSLAYER1
  6
CONTINUOUS
 62
     6
 10
266.650203
 20
111.767389
 11
266.565961
 21
111.625343
  0
LINE
  8
CSLAYER1
  6
CONTINUOUS
 62
     6
 10
266.565961
 20
111.625343
 11
266.484161
 21
111.481819
  0
LINE
  8
CSLAYER1
  6
CONTINUOUS
 62
     6
 10
266.484161
 20
111.481819
 11
266.404456
 21
111.337028
  0
LINE
  8
CSLAYER1
  6
CONTINUOUS
 62
     6
 10
266.404456
 20
111.337028
 11
266.326496
 21
111.191182
  0
LINE
  8
CSLAYER1
  6
CONTINUOUS
 62
     6
 10
266.326496
 20
111.191182
 11
266.249933
 21
111.044491
  0
LINE
  8
CSLAYER1
  6
CONTINUOUS
 62
     6
 10
266.249933
 20
111.044491
 11
266.174416
 21
110.897167
  0
LINE
  8
CSLAYER1
  6
CONTINUOUS
 62
     6
 10
266.174416
 20
110.897167
 11
266.099598
 21
110.749421
  0
LINE
  8
CSLAYER1
  6
CONTINUOUS
 62
     6
 10
266.099598
 20
110.749421
 11
266.025129
 21
110.601464
  0
ARC
  8
CSLAYER1
  6
CONTINUOUS
 62
     6
 10
266.013058
 20
112.101459
 40
1.499998
 50
210.461270
 51
270.461270
  0
ARC
  8
CSLAYER1
  6
CONTINUOUS
 62
     6
 10
264.732177
 20
109.841076
 40
1.499998
 50
30.461270
 51
90.461270
  0
LINE
  8
CSLAYER1
  6
CONTINUOUS
 62
     6
 10
265.151922
 20
110.937928
 11
264.259458
 21
107.655859
  0
LINE
  8
CSLAYER1
  6
CONTINUOUS
 62
     6
 10
263.395770
 20
107.943744
 11
264.489788
 21
111.139496
  0
ARC
  8
CSLAYER1
  6
CONTINUOUS
 62
     6
 10
264.708026
 20
112.840975
 40
1.499998
 50
210.461270
 51
270.461270
  0
LINE
  8
CSLAYER1
  6
CONTINUOUS
 62
     6
 10
263.415045
 20
112.080538
 11
263.504349
 21
112.255111
  0
LINE
  8
CSLAYER1
  6
CONTINUOUS
 62
     6
 10
263.504349
 20
112.255111
 11
263.594015
 21
112.429474
  0
LINE
  8
CSLAYER1
  6
CONTINUOUS
 62
     6
 10
263.594015
 20
112.429474
 11
263.684404
 21
112.603412
  0
LINE
  8
CSLAYER1
  6
CONTINUOUS
 62
     6
 10
263.684404
 20
112.603412
 11
263.775877
 21
112.776716
  0
LINE
  8
CSLAYER1
  6
CONTINUOUS
 62
     6
 10
263.775877
 20
112.776716
 11
263.868795
 21
112.949172
  0
LINE
  8
CSLAYER1
  6
CONTINUOUS
 62
     6
 10
263.868795
 20
112.949172
 11
263.963520
 21
113.120570
  0
LINE
  8
CSLAYER1
  6
CONTINUOUS
 62
     6
 10
263.963520
 20
113.120570
 11
264.060413
 21
113.290697
  0
LINE
  8
CSLAYER1
  6
CONTINUOUS
 62
     6
 10
264.060413
 20
113.290697
 11
264.159836
 21
113.459341
  0
LINE
  8
CSLAYER1
  6
CONTINUOUS
 62
     6
 10
264.159836
 20
113.459341
 11
264.262150
 21
113.626292
  0
LINE
  8
CSLAYER1
  6
CONTINUOUS
 62
     6
 10
264.262150
 20
113.626292
 11
264.367716
 21
113.791337
  0
LINE
  8
CSLAYER1
  6
CONTINUOUS
 62
     6
 10
264.367716
 20
113.791337
 11
264.476896
 21
113.954265
  0
LINE
  8
CSLAYER1
  6
CONTINUOUS
 62
     6
 10
264.476896
 20
113.954265
 11
264.588596
 21
114.113252
  0
LINE
  8
CSLAYER1
  6
CONTINUOUS
 62
     6
 10
264.588596
 20
114.113252
 11
264.704987
 21
114.271500
  0
LINE
  8
CSLAYER1
  6
CONTINUOUS
 62
     6
 10
264.704987
 20
114.271500
 11
264.825700
 21
114.428143
  0
LINE
  8
CSLAYER1
  6
CONTINUOUS
 62
     6
 10
264.825700
 20
114.428143
 11
264.950368
 21
114.582314
  0
LINE
  8
CSLAYER1
  6
CONTINUOUS
 62
     6
 10
264.950368
 20
114.582314
 11
265.078622
 21
114.733144
  0
LINE
  8
CSLAYER1
  6
CONTINUOUS
 62
     6
 10
265.078622
 20
114.733144
 11
265.210096
 21
114.879767
  0
LINE
  8
CSLAYER1
  6
CONTINUOUS
 62
     6
 10
265.210096
 20
114.879767
 11
265.344421
 21
115.021316
  0
LINE
  8
CSLAYER1
  6
CONTINUOUS
 62
     6
 10
265.344421
 20
115.021316
 11
265.481229
 21
115.156923
  0
LINE
  8
CSLAYER1
  6
CONTINUOUS
 62
     6
 10
265.481229
 20
115.156923
 11
265.620152
 21
115.285722
  0
LINE
  8
CSLAYER1
  6
CONTINUOUS
 62
     6
 10
265.620152
 20
115.285722
 11
265.760823
 21
115.406846
  0
LINE
  8
CSLAYER1
  6
CONTINUOUS
 62
     6
 10
265.760823
 20
115.406846
 11
265.902873
 21
115.519427
  0
LINE
  8
CSLAYER1
  6
CONTINUOUS
 62
     6
 10
265.902873
 20
115.519427
 11
266.049323
 21
115.629133
  0
LINE
  8
CSLAYER1
  6
CONTINUOUS
 62
     6
 10
266.049323
 20
115.629133
 11
266.203048
 21
115.741728
  0
LINE
  8
CSLAYER1
  6
CONTINUOUS
 62
     6
 10
266.203048
 20
115.741728
 11
266.362631
 21
115.855860
  0
LINE
  8
CSLAYER1
  6
CONTINUOUS
 62
     6
 10
266.362631
 20
115.855860
 11
266.526660
 21
115.970180
  0
LINE
  8
CSLAYER1
  6
CONTINUOUS
 62
     6
 10
266.526660
 20
115.970180
 11
266.693718
 21
116.083337
  0
LINE
  8
CSLAYER1
  6
CONTINUOUS
 62
     6
 10
266.693718
 20
116.083337
 11
266.862391
 21
116.193981
  0
LINE
  8
CSLAYER1
  6
CONTINUOUS
 62
     6
 10
266.862391
 20
116.193981
 11
267.031264
 21
116.300761
  0
LINE
  8
CSLAYER1
  6
CONTINUOUS
 62
     6
 10
267.031264
 20
116.300761
 11
267.198924
 21
116.402326
  0
LINE
  8
CSLAYER1
  6
CONTINUOUS
 62
     6
 10
267.198924
 20
116.402326
 11
267.363955
 21
116.497328
  0
LINE
  8
CSLAYER1
  6
CONTINUOUS
 62
     6
 10
267.363955
 20
116.497328
 11
267.524942
 21
116.584414
  0
LINE
  8
CSLAYER1
  6
CONTINUOUS
 62
     6
 10
267.524942
 20
116.584414
 11
267.680471
 21
116.662235
  0
LINE
  8
CSLAYER1
  6
CONTINUOUS
 62
     6
 10
268.925177
 20
111.704192
 11
268.822976
 21
111.614953
  0
LINE
  8
CSLAYER1
  6
CONTINUOUS
 62
     6
 10
268.822976
 20
111.614953
 11
268.718801
 21
111.517860
  0
LINE
  8
CSLAYER1
  6
CONTINUOUS
 62
     6
 10
268.718801
 20
111.517860
 11
268.613576
 21
111.414115
  0
LINE
  8
CSLAYER1
  6
CONTINUOUS
 62
     6
 10
268.613576
 20
111.414115
 11
268.508226
 21
111.304918
  0
LINE
  8
CSLAYER1
  6
CONTINUOUS
 62
     6
 10
268.508226
 20
111.304918
 11
268.403675
 21
111.191470
  0
LINE
  8
CSLAYER1
  6
CONTINUOUS
 62
     6
 10
268.403675
 20
111.191470
 11
268.300846
 21
111.074973
  0
LINE
  8
CSLAYER1
  6
CONTINUOUS
 62
     6
 10
268.300846
 20
111.074973
 11
268.200663
 21
110.956627
  0
LINE
  8
CSLAYER1
  6
CONTINUOUS
 62
     6
 10
268.200663
 20
110.956627
 11
268.104050
 21
110.837634
  0
LINE
  8
CSLAYER1
  6
CONTINUOUS
 62
     6
 10
268.104050
 20
110.837634
 11
268.011932
 21
110.719194
  0
LINE
  8
CSLAYER1
  6
CONTINUOUS
 62
     6
 10
268.011932
 20
110.719194
 11
267.925233
 21
110.602510
  0
LINE
  8
CSLAYER1
  6
CONTINUOUS
 62
     6
 10
267.925233
 20
110.602510
 11
267.844876
 21
110.488780
  0
LINE
  8
CSLAYER1
  6
CONTINUOUS
 62
     6
 10
267.844876
 20
110.488780
 11
267.763559
 21
110.363294
  0
LINE
  8
CSLAYER1
  6
CONTINUOUS
 62
     6
 10
267.763559
 20
110.363294
 11
267.686529
 21
110.230595
  0
LINE
  8
CSLAYER1
  6
CONTINUOUS
 62
     6
 10
267.686529
 20
110.230595
 11
267.613509
 21
110.091630
  0
LINE
  8
CSLAYER1
  6
CONTINUOUS
 62
     6
 10
267.613509
 20
110.091630
 11
267.544218
 21
109.947347
  0
LINE
  8
CSLAYER1
  6
CONTINUOUS
 62
     6
 10
267.544218
 20
109.947347
 11
267.478377
 21
109.798693
  0
LINE
  8
CSLAYER1
  6
CONTINUOUS
 62
     6
 10
267.478377
 20
109.798693
 11
267.415709
 21
109.646615
  0
LINE
  8
CSLAYER1
  6
CONTINUOUS
 62
     6
 10
267.415709
 20
109.646615
 11
267.355933
 21
109.492060
  0
LINE
  8
CSLAYER1
  6
CONTINUOUS
 62
     6
 10
267.355933
 20
109.492060
 11
267.298770
 21
109.335976
  0
LINE
  8
CSLAYER1
  6
CONTINUOUS
 62
     6
 10
267.298770
 20
109.335976
 11
267.243942
 21
109.179310
  0
LINE
  8
CSLAYER1
  6
CONTINUOUS
 62
     6
 10
267.243942
 20
109.179310
 11
267.191170
 21
109.023009
  0
LINE
  8
CSLAYER1
  6
CONTINUOUS
 62
     6
 10
267.191170
 20
109.023009
 11
267.140174
 21
108.868021
  0
LINE
  8
CSLAYER1
  6
CONTINUOUS
 62
     6
 10
267.140174
 20
108.868021
 11
267.093667
 21
108.724273
  0
LINE
  8
CSLAYER1
  6
CONTINUOUS
 62
     6
 10
267.093667
 20
108.724273
 11
267.047844
 21
108.580630
  0
LINE
  8
CSLAYER1
  6
CONTINUOUS
 62
     6
 10
267.047844
 20
108.580630
 11
267.002635
 21
108.437082
  0
LINE
  8
CSLAYER1
  6
CONTINUOUS
 62
     6
 10
267.002635
 20
108.437082
 11
266.957974
 21
108.293618
  0
LINE
  8
CSLAYER1
  6
CONTINUOUS
 62
     6
 10
266.957974
 20
108.293618
 11
266.913791
 21
108.150228
  0
LINE
  8
CSLAYER1
  6
CONTINUOUS
 62
     6
 10
266.913791
 20
108.150228
 11
266.870018
 21
108.006901
  0
LINE
  8
CSLAYER1
  6
CONTINUOUS
 62
     6
 10
266.870018
 20
108.006901
 11
266.826587
 21
107.863626
  0
LINE
  8
CSLAYER1
  6
CONTINUOUS
 62
     6
 10
266.826587
 20
107.863626
 11
266.783429
 21
107.720393
  0
LINE
  8
CSLAYER1
  6
CONTINUOUS
 62
     6
 10
266.783429
 20
107.720393
 11
266.740477
 21
107.577192
  0
LINE
  8
CSLAYER1
  6
CONTINUOUS
 62
     6
 10
266.740477
 20
107.577192
 11
266.697661
 21
107.434011
  0
LINE
  8
CSLAYER1
  6
CONTINUOUS
 62
     6
 10
266.697661
 20
107.434011
 11
266.654914
 21
107.290841
  0
ARC
  8
CSLAYER1
  6
CONTINUOUS
 62
     6
 10
267.753775
 20
108.311902
 40
1.500000
 50
222.897147
 51
282.897147
  0
ARC
  8
CSLAYER1
  6
CONTINUOUS
 62
     6
 10
269.187442
 20
107.870771
 40
1.500000
 50
222.897147
 51
282.897147
  0
ARC
  8
CSLAYER1
  6
CONTINUOUS
 62
     6
 10
268.423380
 20
105.387586
 40
1.500000
 50
42.897147
 51
102.897147
  0
LINE
  8
CSLAYER1
  6
CONTINUOUS
 62
     6
 10
268.002208
 20
106.878533
 11
267.196082
 21
103.797943
  0
LINE
  8
CSLAYER1
  6
CONTINUOUS
 62
     6
 10
266.476316
 20
104.316222
 11
267.282421
 21
106.734604
  0
LINE
  8
CSLAYER1
  6
CONTINUOUS
 62
     6
 10
268.721952
 20
106.360329
 11
268.059774
 21
103.423689
  0
LINE
  8
CSLAYER1
  6
CONTINUOUS
 62
     6
 10
269.522211
 20
106.408596
 11
269.560279
 21
106.537285
  0
LINE
  8
CSLAYER1
  6
CONTINUOUS
 62
     6
 10
269.560279
 20
106.537285
 11
269.598425
 21
106.665980
  0
LINE
  8
CSLAYER1
  6
CONTINUOUS
 62
     6
 10
269.598425
 20
106.665980
 11
269.636728
 21
106.794688
  0
LINE
  8
CSLAYER1
  6
CONTINUOUS
 62
     6
 10
269.636728
 20
106.794688
 11
269.675266
 21
106.923415
  0
LINE
  8
CSLAYER1
  6
CONTINUOUS
 62
     6
 10
269.675266
 20
106.923415
 11
269.714118
 21
107.052168
  0
LINE
  8
CSLAYER1
  6
CONTINUOUS
 62
     6
 10
269.714118
 20
107.052168
 11
269.753362
 21
107.180954
  0
LINE
  8
CSLAYER1
  6
CONTINUOUS
 62
     6
 10
269.753362
 20
107.180954
 11
269.793076
 21
107.309778
  0
LINE
  8
CSLAYER1
  6
CONTINUOUS
 62
     6
 10
269.793076
 20
107.309778
 11
269.833339
 21
107.438647
  0
LINE
  8
CSLAYER1
  6
CONTINUOUS
 62
     6
 10
269.833339
 20
107.438647
 11
269.874230
 21
107.567568
  0
LINE
  8
CSLAYER1
  6
CONTINUOUS
 62
     6
 10
269.874230
 20
107.567568
 11
269.915826
 21
107.696547
  0
LINE
  8
CSLAYER1
  6
CONTINUOUS
 62
     6
 10
269.915826
 20
107.696547
 11
269.958206
 21
107.825591
  0
LINE
  8
CSLAYER1
  6
CONTINUOUS
 62
     6
 10
269.958206
 20
107.825591
 11
269.991018
 21
107.923712
  0
LINE
  8
CSLAYER1
  6
CONTINUOUS
 62
     6
 10
269.991018
 20
107.923712
 11
270.024857
 21
108.022529
  0
LINE
  8
CSLAYER1
  6
CONTINUOUS
 62
     6
 10
270.024857
 20
108.022529
 11
270.059902
 21
108.121497
  0
LINE
  8
CSLAYER1
  6
CONTINUOUS
 62
     6
 10
270.059902
 20
108.121497
 11
270.096331
 21
108.220074
  0
LINE
  8
CSLAYER1
  6
CONTINUOUS
 62
     6
 10
270.096331
 20
108.220074
 11
270.134324
 21
108.317717
  0
LINE
  8
CSLAYER1
  6
CONTINUOUS
 62
     6
 10
270.134324
 20
108.317717
 11
270.174060
 21
108.413883
  0
LINE
  8
CSLAYER1
  6
CONTINUOUS
 62
     6
 10
270.174060
 20
108.413883
 11
270.215719
 21
108.508029
  0
LINE
  8
CSLAYER1
  6
CONTINUOUS
 62
     6
 10
270.215719
 20
108.508029
 11
270.259479
 21
108.599612
  0
LINE
  8
CSLAYER1
  6
CONTINUOUS
 62
     6
 10
270.259479
 20
108.599612
 11
270.305520
 21
108.688089
  0
LINE
  8
CSLAYER1
  6
CONTINUOUS
 62
     6
 10
270.305520
 20
108.688089
 11
270.354021
 21
108.772917
  0
LINE
  8
CSLAYER1
  6
CONTINUOUS
 62
     6
 10
270.354021
 20
108.772917
 11
270.405162
 21
108.853553
  0
LINE
  8
CSLAYER1
  6
CONTINUOUS
 62
     6
 10
270.405162
 20
108.853553
 11
270.461454
 21
108.934932
  0
LINE
  8
CSLAYER1
  6
CONTINUOUS
 62
     6
 10
270.461454
 20
108.934932
 11
270.522362
 21
109.018106
  0
LINE
  8
CSLAYER1
  6
CONTINUOUS
 62
     6
 10
270.522362
 20
109.018106
 11
270.587216
 21
109.102247
  0
LINE
  8
CSLAYER1
  6
CONTINUOUS
 62
     6
 10
270.587216
 20
109.102247
 11
270.655344
 21
109.186529
  0
LINE
  8
CSLAYER1
  6
CONTINUOUS
 62
     6
 10
270.655344
 20
109.186529
 11
270.726073
 21
109.270127
  0
LINE
  8
CSLAYER1
  6
CONTINUOUS
 62
     6
 10
270.726073
 20
109.270127
 11
270.798733
 21
109.352214
  0
LINE
  8
CSLAYER1
  6
CONTINUOUS
 62
     6
 10
270.798733
 20
109.352214
 11
270.872650
 21
109.431965
  0
LINE
  8
CSLAYER1
  6
CONTINUOUS
 62
     6
 10
270.872650
 20
109.431965
 11
270.947155
 21
109.508553
  0
LINE
  8
CSLAYER1
  6
CONTINUOUS
 62
     6
 10
270.947155
 20
109.508553
 11
271.021574
 21
109.581152
  0
LINE
  8
CSLAYER1
  6
CONTINUOUS
 62
     6
 10
271.021574
 20
109.581152
 11
271.095237
 21
109.648937
  0
LINE
  8
CSLAYER1
  6
CONTINUOUS
 62
     6
 10
271.095237
 20
109.648937
 11
271.167471
 21
109.711081
  0
ARC
  8
CSLAYER1
  6
CONTINUOUS
 62
     6
 10
269.743811
 20
109.238403
 40
1.500000
 50
18.366208
 51
78.366208
  0
ARC
  8
CSLAYER1
  6
CONTINUOUS
 62
     6
 10
270.348778
 20
112.176772
 40
1.500000
 50
198.366208
 51
258.366208
  0
ARC
  8
CSLAYER1
  6
CONTINUOUS
 62
     6
 10
268.622702
 20
110.234953
 40
1.500000
 50
18.366208
 51
78.366208
  0
LINE
  8
CSLAYER1
  6
CONTINUOUS
 62
     6
 10
263.942731
 20
111.600150
 11
262.503237
 21
108.490764
  0
ARC
  8
CSLAYER1
  6
CONTINUOUS
 62
     6
 10
288.489858
 20
100.502745
 40
1.527778
 50
163.398423
 51
196.601584
  0
LINE
  8
CSLAYER1
  6
CONTINUOUS
 62
     6
 10
287.025773
 20
100.066232
 11
287.616832
 21
100.066232
  0
ARC
  8
CSLAYER1
  6
CONTINUOUS
 62
     6
 10
287.616832
 20
99.629741
 40
0.436508
 50
-0.000005
 51
89.999984
  0
LINE
  8
CSLAYER1
  6
CONTINUOUS
 62
     6
 10
288.053345
 20
99.629741
 11
288.053345
 21
99.038637
  0
ARC
  8
CSLAYER1
  6
CONTINUOUS
 62
     6
 10
288.489858
 20
100.502745
 40
1.527778
 50
253.398405
 51
286.601594
  0
LINE
  8
CSLAYER1
  6
CONTINUOUS
 62
     6
 10
288.926372
 20
99.038637
 11
288.926372
 21
99.629741
  0
ARC
  8
CSLAYER1
  6
CONTINUOUS
 62
     6
 10
289.362885
 20
99.629741
 40
0.436508
 50
89.999984
 51
179.999990
  0
LINE
  8
CSLAYER1
  6
CONTINUOUS
 62
     6
 10
289.362885
 20
100.066232
 11
289.953944
 21
100.066232
  0
ARC
  8
CSLAYER1
  6
CONTINUOUS
 62
     6
 10
288.489858
 20
100.502745
 40
1.527778
 50
-16.601572
 51
16.601562
  0
LINE
  8
CSLAYER1
  6
CONTINUOUS
 62
     6
 10
289.953944
 20
100.939258
 11
289.362885
 21
100.939258
  0
ARC
  8
CSLAYER1
  6
CONTINUOUS
 62
     6
 10
289.362885
 20
101.375749
 40
0.436508
 50
180.057309
 51
269.999999
  0
LINE
  8
CSLAYER1
  6
CONTINUOUS
 62
     6
 10
288.926372
 20
101.375749
 11
288.926372
 21
101.966853
  0
ARC
  8
CSLAYER1
  6
CONTINUOUS
 62
     6
 10
288.489858
 20
100.502745
 40
1.527778
 50
73.398417
 51
106.601578
  0
LINE
  8
CSLAYER1
  6
CONTINUOUS
 62
     6
 10
288.053345
 20
101.966853
 11
288.053345
 21
101.375749
  0
ARC
  8
CSLAYER1
  6
CONTINUOUS
 62
     6
 10
287.616832
 20
101.375749
 40
0.436508
 50
270.057346
 51
359.999995
  0
LINE
  8
CSLAYER1
  6
CONTINUOUS
 62
     6
 10
287.616832
 20
100.939258
 11
287.025773
 21
100.939258
  0
CIRCLE
  8
CSLAYER1
  6
CONTINUOUS
 62
     6
 10
288.489868
 20
100.502746
 40
2.750000
  0
LINE
  8
CSLAYER1
  6
CONTINUOUS
 62
     6
 10
277.175836
 20
79.109554
 11
309.132928
 21
79.109554
  0
ARC
  8
CSLAYER1
  6
CONTINUOUS
 62
     6
 10
314.276117
 20
77.931148
 40
1.000000
 50
90.000009
 51
173.999984
  0
LINE
  8
CSLAYER1
  6
CONTINUOUS
 62
     6
 10
313.281610
 20
78.035701
 11
312.583978
 21
71.398189
  0
ARC
  8
CSLAYER1
  6
CONTINUOUS
 62
     6
 10
311.589410
 20
71.502742
 40
1.000000
 50
270.000001
 51
354.000017
  0
LINE
  8
CSLAYER1
  6
CONTINUOUS
 62
     6
 10
311.589410
 20
70.502742
 11
275.390252
 21
70.502742
  0
ARC
  8
CSLAYER1
  6
CONTINUOUS
 62
     6
 10
275.390252
 20
71.502742
 40
1.000000
 50
186.000012
 51
270.000001
  0
LINE
  8
CSLAYER1
  6
CONTINUOUS
 62
     6
 10
274.395746
 20
71.398189
 11
273.698114
 21
78.035701
  0
ARC
  8
CSLAYER1
  6
CONTINUOUS
 62
     6
 10
272.703546
 20
77.931148
 40
1.000000
 50
6.000021
 51
90.000009
  0
ARC
  8
CSLAYER1
  6
CONTINUOUS
 62
     6
 10
272.753229
 20
73.458919
 40
1.000000
 50
6.000021
 51
90.000009
  0
LINE
  8
CSLAYER1
  6
CONTINUOUS
 62
     6
 10
273.747735
 20
73.563472
 11
274.395746
 21
67.398189
  0
ARC
  8
CSLAYER1
  6
CONTINUOUS
 62
     6
 10
275.390252
 20
67.502742
 40
1.000000
 50
186.000012
 51
270.000001
  0
LINE
  8
CSLAYER1
  6
CONTINUOUS
 62
     6
 10
275.390252
 20
66.502742
 11
311.589410
 21
66.502742
  0
ARC
  8
CSLAYER1
  6
CONTINUOUS
 62
     6
 10
311.589410
 20
67.502742
 40
1.000000
 50
270.000001
 51
354.000017
  0
LINE
  8
CSLAYER1
  6
CONTINUOUS
 62
     6
 10
312.583978
 20
67.398189
 11
313.231927
 21
73.563472
  0
ARC
  8
CSLAYER1
  6
CONTINUOUS
 62
     6
 10
314.226495
 20
73.458919
 40
1.000000
 50
90.000009
 51
173.999984
  0
LINE
  8
CSLAYER1
  6
CONTINUOUS
 62
     6
 10
314.489862
 20
71.502742
 11
313.014825
 21
71.502742
  0
LINE
  8
CSLAYER1
  6
CONTINUOUS
 62
     6
 10
273.964288
 20
71.502742
 11
262.489831
 21
71.502742
  0
LINE
  8
CSLAYER1
  6
CONTINUOUS
 62
     6
 10
262.489831
 20
71.502742
 11
261.489831
 21
72.502742
  0
ARC
  8
CSLAYER1
  6
CONTINUOUS
 62
     6
 10
561.489862
 20
96.502757
 40
1.000000
 50
270.000000
 51
360.000000
  0
LINE
  8
CSLAYER1
  6
CONTINUOUS
 62
     6
 10
562.489862
 20
96.502757
 11
562.489862
 21
134.502757
  0
ARC
  8
CSLAYER1
  6
CONTINUOUS
 62
     6
 10
561.489862
 20
134.502757
 40
1.000000
 50
0.000000
 51
90.000000
  0
ARC
  8
CSLAYER1
  6
CONTINUOUS
 62
     6
 10
562.489862
 20
126.502757
 40
1.000000
 50
0.000000
 51
90.000000
  0
LINE
  8
CSLAYER1
  6
CONTINUOUS
 62
     6
 10
563.489862
 20
126.502757
 11
563.489862
 21
104.502757
  0
ARC
  8
CSLAYER1
  6
CONTINUOUS
 62
     6
 10
562.489862
 20
104.502757
 40
1.000000
 50
270.000000
 51
360.000000
  0
LINE
  8
CSLAYER1
  6
CONTINUOUS
 62
     6
 10
563.489862
 20
105.502757
 11
599.489862
 21
105.502757
  0
LINE
  8
CSLAYER1
  6
CONTINUOUS
 62
     6
 10
599.489862
 20
105.502757
 11
599.489862
 21
125.502757
  0
LINE
  8
CSLAYER1
  6
CONTINUOUS
 62
     6
 10
599.489862
 20
125.502757
 11
563.489862
 21
125.502757
  0
LINE
  8
CSLAYER1
  6
CONTINUOUS
 62
     6
 10
666.106526
 20
256.437917
 11
666.106526
 21
257.405178
  0
ARC
  8
CSLAYER1
  6
CONTINUOUS
 62
     6
 10
665.392231
 20
257.405178
 40
0.714286
 50
0.057309
 51
89.999999
  0
LINE
  8
CSLAYER1
  6
CONTINUOUS
 62
     6
 10
665.392231
 20
258.119435
 11
664.425044
 21
258.119435
  0
ARC
  8
CSLAYER1
  6
CONTINUOUS
 62
     6
 10
666.820820
 20
258.833730
 40
2.500000
 50
163.398428
 51
196.601562
  0
LINE
  8
CSLAYER1
  6
CONTINUOUS
 62
     6
 10
664.425044
 20
259.548024
 11
665.392231
 21
259.548024
  0
ARC
  8
CSLAYER1
  6
CONTINUOUS
 62
     6
 10
665.392231
 20
260.262282
 40
0.714286
 50
269.999984
 51
359.999990
  0
LINE
  8
CSLAYER1
  6
CONTINUOUS
 62
     6
 10
666.106526
 20
260.262282
 11
666.106526
 21
261.229543
  0
ARC
  8
CSLAYER1
  6
CONTINUOUS
 62
     6
 10
666.820820
 20
258.833730
 40
2.500000
 50
73.398405
 51
106.601594
  0
LINE
  8
CSLAYER1
  6
CONTINUOUS
 62
     6
 10
667.535115
 20
261.229543
 11
667.535115
 21
260.262282
  0
ARC
  8
CSLAYER1
  6
CONTINUOUS
 62
     6
 10
668.249409
 20
260.262282
 40
0.714286
 50
179.999995
 51
269.999984
  0
LINE
  8
CSLAYER1
  6
CONTINUOUS
 62
     6
 10
668.249409
 20
259.548024
 11
669.216596
 21
259.548024
  0
ARC
  8
CSLAYER1
  6
CONTINUOUS
 62
     6
 10
666.820820
 20
258.833730
 40
2.500000
 50
-16.601577
 51
16.601584
  0
LINE
  8
CSLAYER1
  6
CONTINUOUS
 62
     6
 10
669.216596
 20
258.119435
 11
668.249409
 21
258.119435
  0
ARC
  8
CSLAYER1
  6
CONTINUOUS
 62
     6
 10
668.249409
 20
257.405178
 40
0.714286
 50
90.057346
 51
179.999995
  0
LINE
  8
CSLAYER1
  6
CONTINUOUS
 62
     6
 10
667.535115
 20
257.405178
 11
667.535115
 21
256.437917
  0
ARC
  8
CSLAYER1
  6
CONTINUOUS
 62
     6
 10
666.820820
 20
258.833730
 40
2.500000
 50
253.398417
 51
286.601578
  0
CIRCLE
  8
CSLAYER1
  6
CONTINUOUS
 62
     6
 10
666.820814
 20
258.833710
 40
5.500000
  0
CIRCLE
  8
CSLAYER1
  6
CONTINUOUS
 62
     6
 10
666.820804
 20
258.833729
 40
4.500000
  0
CIRCLE
  8
CSLAYER1
  6
CONTINUOUS
 62
     6
 10
692.276658
 20
284.289554
 40
2.000000
  0
CIRCLE
  8
CSLAYER1
  6
CONTINUOUS
 62
     6
 10
692.276658
 20
284.289554
 40
3.500000
  0
CIRCLE
  8
CSLAYER1
  6
CONTINUOUS
 62
     6
 10
734.703065
 20
284.289554
 40
2.000000
  0
CIRCLE
  8
CSLAYER1
  6
CONTINUOUS
 62
     6
 10
734.703065
 20
284.289554
 40
3.500000
  0
LINE
  8
CSLAYER1
  6
CONTINUOUS
 62
     6
 10
759.444609
 20
261.229543
 11
759.444609
 21
260.262282
  0
ARC
  8
CSLAYER1
  6
CONTINUOUS
 62
     6
 10
758.730315
 20
260.262282
 40
0.714286
 50
-89.999984
 51
0.000005
  0
LINE
  8
CSLAYER1
  6
CONTINUOUS
 62
     6
 10
758.730315
 20
259.548024
 11
757.763128
 21
259.548024
  0
ARC
  8
CSLAYER1
  6
CONTINUOUS
 62
     6
 10
760.158904
 20
258.833730
 40
2.500000
 50
163.398416
 51
196.601577
  0
LINE
  8
CSLAYER1
  6
CONTINUOUS
 62
     6
 10
757.763128
 20
258.119435
 11
758.730315
 21
258.119435
  0
ARC
  8
CSLAYER1
  6
CONTINUOUS
 62
     6
 10
758.730315
 20
257.405178
 40
0.714286
 50
0.000005
 51
89.942654
  0
LINE
  8
CSLAYER1
  6
CONTINUOUS
 62
     6
 10
759.444609
 20
257.405178
 11
759.444609
 21
256.437917
  0
ARC
  8
CSLAYER1
  6
CONTINUOUS
 62
     6
 10
760.158904
 20
258.833730
 40
2.500000
 50
253.398422
 51
286.601583
  0
LINE
  8
CSLAYER1
  6
CONTINUOUS
 62
     6
 10
760.873198
 20
256.437917
 11
760.873198
 21
257.405178
  0
ARC
  8
CSLAYER1
  6
CONTINUOUS
 62
     6
 10
761.587493
 20
257.405178
 40
0.714286
 50
90.000001
 51
179.942691
  0
LINE
  8
CSLAYER1
  6
CONTINUOUS
 62
     6
 10
761.587493
 20
258.119435
 11
762.554680
 21
258.119435
  0
ARC
  8
CSLAYER1
  6
CONTINUOUS
 62
     6
 10
760.158904
 20
258.833730
 40
2.500000
 50
-16.601562
 51
16.601572
  0
LINE
  8
CSLAYER1
  6
CONTINUOUS
 62
     6
 10
762.554680
 20
259.548024
 11
761.587493
 21
259.548024
  0
ARC
  8
CSLAYER1
  6
CONTINUOUS
 62
     6
 10
761.587493
 20
260.262282
 40
0.714286
 50
180.000010
 51
270.000016
  0
LINE
  8
CSLAYER1
  6
CONTINUOUS
 62
     6
 10
760.873198
 20
260.262282
 11
760.873198
 21
261.229543
  0
ARC
  8
CSLAYER1
  6
CONTINUOUS
 62
     6
 10
760.158904
 20
258.833730
 40
2.500000
 50
73.398406
 51
106.601595
  0
CIRCLE
  8
CSLAYER1
  6
CONTINUOUS
 62
     6
 10
760.158920
 20
258.833729
 40
4.500000
  0
CIRCLE
  8
CSLAYER1
  6
CONTINUOUS
 62
     6
 10
760.158909
 20
258.833710
 40
5.500000
  0
CIRCLE
  8
CSLAYER1
  6
CONTINUOUS
 62
     6
 10
713.489862
 20
239.502757
 40
4.250000
  0
LINE
  8
CSLAYER1
  6
CONTINUOUS
 62
     6
 10
706.489862
 20
303.002757
 11
703.807403
 21
303.002757
  0
LINE
  8
CSLAYER1
  6
CONTINUOUS
 62
     6
 10
706.489862
 20
303.002757
 11
706.489862
 21
308.002757
  0
LINE
  8
CSLAYER1
  6
CONTINUOUS
 62
     6
 10
706.489862
 20
308.002757
 11
703.807403
 21
308.002757
  0
CIRCLE
  8
CSLAYER1
  6
CONTINUOUS
 62
     6
 10
713.489862
 20
305.502757
 40
10.000000
  0
CIRCLE
  8
CSLAYER1
  6
CONTINUOUS
 62
     6
 10
713.489862
 20
305.502757
 40
12.000000
  0
CIRCLE
  8
CSLAYER1
  6
CONTINUOUS
 62
     6
 10
713.489862
 20
305.502757
 40
35.000000
  0
CIRCLE
  8
CSLAYER1
  6
CONTINUOUS
 62
     6
 10
713.489862
 20
305.502757
 40
20.000000
  0
CIRCLE
  8
CSLAYER1
  6
CONTINUOUS
 62
     6
 10
713.489862
 20
305.502757
 40
74.000000
  0
CIRCLE
  8
CSLAYER1
  6
CONTINUOUS
 62
     6
 10
713.489862
 20
305.502757
 40
57.500000
  0
CIRCLE
  8
CSLAYER1
  6
CONTINUOUS
 62
     6
 10
734.703065
 20
326.715961
 40
2.000000
  0
CIRCLE
  8
CSLAYER1
  6
CONTINUOUS
 62
     6
 10
734.703065
 20
326.715961
 40
3.500000
  0
LINE
  8
CSLAYER1
  6
CONTINUOUS
 62
     6
 10
759.444609
 20
349.775972
 11
759.444609
 21
350.743233
  0
ARC
  8
CSLAYER1
  6
CONTINUOUS
 62
     6
 10
758.730315
 20
350.743233
 40
0.714286
 50
-0.000005
 51
89.999984
  0
LINE
  8
CSLAYER1
  6
CONTINUOUS
 62
     6
 10
758.730315
 20
351.457490
 11
757.763128
 21
351.457490
  0
ARC
  8
CSLAYER1
  6
CONTINUOUS
 62
     6
 10
760.158904
 20
352.171785
 40
2.500000
 50
163.398423
 51
196.601584
  0
LINE
  8
CSLAYER1
  6
CONTINUOUS
 62
     6
 10
757.763128
 20
352.886079
 11
758.730315
 21
352.886079
  0
ARC
  8
CSLAYER1
  6
CONTINUOUS
 62
     6
 10
758.730315
 20
353.600337
 40
0.714286
 50
270.057346
 51
359.999995
  0
LINE
  8
CSLAYER1
  6
CONTINUOUS
 62
     6
 10
759.444609
 20
353.600337
 11
759.444609
 21
354.567598
  0
ARC
  8
CSLAYER1
  6
CONTINUOUS
 62
     6
 10
760.158904
 20
352.171785
 40
2.500000
 50
73.398417
 51
106.601578
  0
LINE
  8
CSLAYER1
  6
CONTINUOUS
 62
     6
 10
760.873198
 20
354.567598
 11
760.873198
 21
353.600337
  0
ARC
  8
CSLAYER1
  6
CONTINUOUS
 62
     6
 10
761.587493
 20
353.600337
 40
0.714286
 50
180.057309
 51
269.999999
  0
LINE
  8
CSLAYER1
  6
CONTINUOUS
 62
     6
 10
761.587493
 20
352.886079
 11
762.554680
 21
352.886079
  0
ARC
  8
CSLAYER1
  6
CONTINUOUS
 62
     6
 10
760.158904
 20
352.171785
 40
2.500000
 50
-16.601572
 51
16.601562
  0
LINE
  8
CSLAYER1
  6
CONTINUOUS
 62
     6
 10
762.554680
 20
351.457490
 11
761.587493
 21
351.457490
  0
ARC
  8
CSLAYER1
  6
CONTINUOUS
 62
     6
 10
761.587493
 20
350.743233
 40
0.714286
 50
89.999984
 51
179.999990
  0
LINE
  8
CSLAYER1
  6
CONTINUOUS
 62
     6
 10
760.873198
 20
350.743233
 11
760.873198
 21
349.775972
  0
ARC
  8
CSLAYER1
  6
CONTINUOUS
 62
     6
 10
760.158904
 20
352.171785
 40
2.500000
 50
253.398405
 51
286.601594
  0
CIRCLE
  8
CSLAYER1
  6
CONTINUOUS
 62
     6
 10
760.158920
 20
352.171786
 40
4.500000
  0
CIRCLE
  8
CSLAYER1
  6
CONTINUOUS
 62
     6
 10
760.158909
 20
352.171805
 40
5.500000
  0
CIRCLE
  8
CSLAYER1
  6
CONTINUOUS
 62
     6
 10
713.489862
 20
371.502757
 40
4.250000
  0
ARC
  8
CSLAYER1
  6
CONTINUOUS
 62
     6
 10
666.820820
 20
352.171785
 40
2.500000
 50
-16.601584
 51
16.601577
  0
LINE
  8
CSLAYER1
  6
CONTINUOUS
 62
     6
 10
669.216596
 20
351.457490
 11
668.249409
 21
351.457490
  0
ARC
  8
CSLAYER1
  6
CONTINUOUS
 62
     6
 10
668.249409
 20
350.743233
 40
0.714286
 50
90.000016
 51
180.000005
  0
LINE
  8
CSLAYER1
  6
CONTINUOUS
 62
     6
 10
667.535115
 20
350.743233
 11
667.535115
 21
349.775972
  0
ARC
  8
CSLAYER1
  6
CONTINUOUS
 62
     6
 10
666.820820
 20
352.171785
 40
2.500000
 50
253.398406
 51
286.601595
  0
LINE
  8
CSLAYER1
  6
CONTINUOUS
 62
     6
 10
666.106526
 20
349.775972
 11
666.106526
 21
350.743233
  0
ARC
  8
CSLAYER1
  6
CONTINUOUS
 62
     6
 10
665.392231
 20
350.743233
 40
0.714286
 50
0.000010
 51
90.000016
  0
LINE
  8
CSLAYER1
  6
CONTINUOUS
 62
     6
 10
665.392231
 20
351.457490
 11
664.425044
 21
351.457490
  0
ARC
  8
CSLAYER1
  6
CONTINUOUS
 62
     6
 10
666.820820
 20
352.171785
 40
2.500000
 50
163.398438
 51
196.601572
  0
LINE
  8
CSLAYER1
  6
CONTINUOUS
 62
     6
 10
664.425044
 20
352.886079
 11
665.392231
 21
352.886079
  0
ARC
  8
CSLAYER1
  6
CONTINUOUS
 62
     6
 10
665.392231
 20
353.600337
 40
0.714286
 50
270.000001
 51
359.942691
  0
LINE
  8
CSLAYER1
  6
CONTINUOUS
 62
     6
 10
666.106526
 20
353.600337
 11
666.106526
 21
354.567598
  0
ARC
  8
CSLAYER1
  6
CONTINUOUS
 62
     6
 10
666.820820
 20
352.171785
 40
2.500000
 50
73.398422
 51
106.601583
  0
LINE
  8
CSLAYER1
  6
CONTINUOUS
 62
     6
 10
667.535115
 20
354.567598
 11
667.535115
 21
353.600337
  0
ARC
  8
CSLAYER1
  6
CONTINUOUS
 62
     6
 10
668.249409
 20
353.600337
 40
0.714286
 50
180.000005
 51
269.942654
  0
LINE
  8
CSLAYER1
  6
CONTINUOUS
 62
     6
 10
668.249409
 20
352.886079
 11
669.216596
 21
352.886079
  0
CIRCLE
  8
CSLAYER1
  6
CONTINUOUS
 62
     6
 10
666.820814
 20
352.171805
 40
5.500000
  0
CIRCLE
  8
CSLAYER1
  6
CONTINUOUS
 62
     6
 10
666.820804
 20
352.171786
 40
4.500000
  0
CIRCLE
  8
CSLAYER1
  6
CONTINUOUS
 62
     6
 10
692.276658
 20
326.715961
 40
2.000000
  0
CIRCLE
  8
CSLAYER1
  6
CONTINUOUS
 62
     6
 10
692.276658
 20
326.715961
 40
3.500000
  0
CIRCLE
  8
CSLAYER1
  6
CONTINUOUS
 62
     6
 10
647.489862
 20
305.502757
 40
4.250000
  0
CIRCLE
  8
CSLAYER1
  6
CONTINUOUS
 62
     6
 10
779.489862
 20
305.502757
 40
4.250000
  0
ENDSEC
  0
EOF
