  0
SECTION
  2
HEADER
  9
$ACADVER
  1
AC1006
  9
$INSBASE
 10
0.000000
 20
0.000000
 30
0.0
  9
$EXTMIN
 10
0.000000
 20
0.000000
  9
$EXTMAX
 10
841.000000
 20
594.000000
  9
$LIMMIN
 10
0.000000
 20
0.000000
  9
$LIMMAX
 10
841.000000
 20
594.000000
  9
$VIEWCTR
 10
420.500000
 20
297.000000
  9
$VIEWSIZE
 40
594.000000
  9
$SNAPMODE
 70
     0
  9
$SNAPUNIT
 10
1.0
 20
1.0
  9
$SNAPBASE
 10
0.0
 20
0.0
  9
$SNAPANG
 50
0.0
  9
$SNAPSTYLE
 70
     0
  9
$SNAPISOPAIR
 70
     0
  9
$GRIDMODE
 70
     0
  9
$GRIDUNIT
 10
0.0
 20
0.0
  9
$ORTHOMODE
 70
     0
  9
$REGENMODE
 70
     1
  9
$FILLMODE
 70
     1
  9
$QTEXTMODE
 70
     0
  9
$DRAGMODE
 70
     2
  9
$LTSCALE
 40
15.000000
  9
$OSMODE
 70
     0
  9
$ATTMODE
 70
     1
  9
$TEXTSIZE
 40
0.2
  9
$TRACEWID
 40
0.05
  9
$TEXTSTYLE
  7
STANDARD
  9
$CLAYER
  8
CSLAYER1
  9
$CELTYPE
  6
BYLAYER
  9
$CECOLOR
 62
   256
  9
$DIMSCALE
 40
1.0
  9
$DIMASZ
 40
0.18
  9
$DIMEXO
 40
0.0625
  9
$DIMDLI
 40
0.38
  9
$DIMRND
 40
0.0
  9
$DIMDLE
 40
0.0
  9
$DIMEXE
 40
0.18
  9
$DIMTP
 40
0.0
  9
$DIMTM
 40
0.0
  9
$DIMTXT
 40
0.18
  9
$DIMCEN
 40
0.09
  9
$DIMTSZ
 40
0.0
  9
$DIMTOL
 70
     0
  9
$DIMLIM
 70
     0
  9
$DIMTIH
 70
     1
  9
$DIMTOH
 70
     1
  9
$DIMSE1
 70
     0
  9
$DIMSE2
 70
     0
  9
$DIMTAD
 70
     0
  9
$DIMZIN
 70
     0
  9
$DIMBLK
  1

  9
$LUNITS
 70
     2
  9
$LUPREC
 70
     4
  9
$AXISMODE
 70
     0
  9
$AXISUNIT
 10
0.0
 20
0.0
  9
$SKETCHINC
 40
0.1
  9
$FILLETRAD
 40
0.0
  9
$AUNITS
 70
     0
  9
$AUPREC
 70
     0
  9
$MENU
  1
ACAD
  9
$ELEVATION
 40
0.0
  9
$THICKNESS
 40
0.0
  9
$VIEWDIR
 10
0.0
 20
0.0
 30
1.0
  9
$LIMCHECK
 70
     0
  9
$BLIPMODE
 70
     1
  9
$CHAMFERA
 40
0.0
  9
$CHAMFERB
 40
0.0
  9
$FASTZOOM
 70
     1
  9
$SKPOLY
 70
     0
  9
$TDCREATE
 40
0.000000
  9
$TDUPDATE
 40
0.000000
  9
$TDINDWG
 40
0.0
  9
$TDUSRTIMER
 40
0.0
  9
$USRTIMER
 70
     1
  9
$ANGBASE
 50
0.0
  9
$ANGDIR
 70
     0
  9
$PDMODE
 70
     0
  9
$PDSIZE
 40
0.0
  9
$PLINEWID
 40
0.0
  9
$COORDS
 70
     0
  9
$USERI1
 70
     0
  9
$USERI2
 70
     0
  9
$USERI3
 70
     0
  9
$USERI4
 70
     0
  9
$USERI5
 70
     0
  9
$USERR1
 40
0.0
  9
$USERR2
 40
0.0
  9
$USERR3
 40
0.0
  9
$USERR4
 40
0.0
  9
$USERR5
 40
0.0
  0
ENDSEC
  0
SECTION
  2
TABLES
  0
TABLE
  2
LTYPE
 70
     9
  0
LTYPE
  2
CONTINUOUS
 70
    64
  3
Solid line
 72
    65
 73
     0
 40
0.0
  0
LTYPE
  2
DASHED
 70
    64
  3
__ __ __ __ __ __ __ __ __ __ __ __ __ __ __
 72
    65
 73
     2
 40
0.75
 49
0.5
 49
-0.25
  0
LTYPE
  2
HIDDEN
 70
    64
  3
_ _ _ _ _ _ _ _ _ _ _ _ _ _ _ _ _ _ _ _ _ _ _
 72
    65
 73
     2
 40
0.375
 49
0.25
 49
-0.125
  0
LTYPE
  2
DOT
 70
    64
  3
...............................................
 72
    65
 73
     2
 40
0.25
 49
0.0
 49
-0.25
  0
LTYPE
  2
DASHDOT
 70
    64
  3
__ . __ . __ . __ . __ . __ . __ . __ . __ . __
 72
    65
 73
     4
 40
1.0
 49
0.5
 49
-0.25
 49
0.0
 49
-0.25
  0
LTYPE
  2
DIVIDE
 70
    64
  3
__ . . __ . . __ . . __ . . __ . . __ . . __
 72
    65
 73
     6
 40
1.25
 49
0.5
 49
-0.25
 49
0.0
 49
-0.25
 49
0.0
 49
-0.25
  0
LTYPE
  2
CENTER
 70
    64
  3
____ _ ____ _ ____ _ ____ _ ____ _ ____ _ ____ 
 72
    65
 73
     4
 40
2.0
 49
1.25
 49
-0.25
 49
0.25
 49
-0.25
  0
LTYPE
  2
PHANTOM
 70
    64
  3
______  __  __  ______  __  __  ______  __  __ 
 72
    65
 73
     6
 40
2.5
 49
1.25
 49
-0.25
 49
0.25
 49
-0.25
 49
0.25
 49
-0.25
  0
LTYPE
  2
BORDER
 70
    64
  3
__ __ . __ __ . __ __ . __ __ . __ __ . __ __ .
 72
    65
 73
     6
 40
1.75
 49
0.5
 49
-0.25
 49
0.5
 49
-0.25
 49
0.0
 49
-0.25
  0
ENDTAB
  0
TABLE
  2
LAYER
 70
    16
  0
LAYER
  2
CSLAYER1
 70
    64
 62
     7
  6
CONTINUOUS
  0
LAYER
  2
CSLAYER2
 70
    64
 62
     7
  6
CONTINUOUS
  0
LAYER
  2
CSLAYER3
 70
    64
 62
     7
  6
CONTINUOUS
  0
LAYER
  2
CSLAYER4
 70
    64
 62
     7
  6
CONTINUOUS
  0
LAYER
  2
CSLAYER5
 70
    64
 62
     7
  6
CONTINUOUS
  0
LAYER
  2
CSLAYER6
 70
    64
 62
     7
  6
CONTINUOUS
  0
LAYER
  2
CSLAYER7
 70
    64
 62
     7
  6
CONTINUOUS
  0
LAYER
  2
CSLAYER8
 70
    64
 62
     7
  6
CONTINUOUS
  0
LAYER
  2
CSLAYER9
 70
    64
 62
     7
  6
CONTINUOUS
  0
LAYER
  2
CSLAYER10
 70
    64
 62
     7
  6
CONTINUOUS
  0
LAYER
  2
CSLAYER11
 70
    64
 62
     7
  6
CONTINUOUS
  0
LAYER
  2
CSLAYER12
 70
    64
 62
     7
  6
CONTINUOUS
  0
LAYER
  2
CSLAYER13
 70
    64
 62
     7
  6
CONTINUOUS
  0
LAYER
  2
CSLAYER14
 70
    64
 62
     7
  6
CONTINUOUS
  0
LAYER
  2
CSLAYER15
 70
    64
 62
     7
  6
CONTINUOUS
  0
LAYER
  2
CSLAYER16
 70
    64
 62
     7
  6
CONTINUOUS
  0
ENDTAB
  0
TABLE
  2
STYLE
 70
     1
  0
STYLE
  2
JX_FONT
 70
     0
 40
1.0
 41
1.0
 50
0.0
 71
     0
 42
1.0
  3
monotxt
  4
bigfont
  0
ENDTAB
  0
TABLE
  2
VIEW
 70
     0
  0
ENDTAB
  0
ENDSEC
  0
SECTION
  2
BLOCKS
  0
ENDSEC
  0
SECTION
  2
ENTITIES
  0
LINE
  8
CSLAYER1
  6
CENTER
 62
     3
 10
66.473542
 20
149.606760
 11
85.821766
 21
168.954984
  0
ARC
  8
CSLAYER1
  6
CENTER
 62
     3
 10
122.109595
 20
205.242813
 40
65.000000
 50
212.917958
 51
237.082042
  0
LINE
  8
CSLAYER1
  6
CENTER
 62
     3
 10
36.109426
 20
205.243012
 11
208.109365
 21
205.243012
  0
LINE
  8
CSLAYER1
  6
CENTER
 62
     3
 10
230.773953
 20
205.243012
 11
573.773882
 21
205.243012
  0
LINE
  8
CSLAYER1
  6
CENTER
 62
     3
 10
177.745250
 20
260.879263
 11
158.397026
 21
241.531039
  0
ARC
  8
CSLAYER1
  6
CENTER
 62
     3
 10
122.109197
 20
205.243210
 40
65.000000
 50
32.917958
 51
57.082042
  0
ARC
  8
CSLAYER1
  6
CENTER
 62
     3
 10
122.109197
 20
205.242813
 40
65.000000
 50
302.917958
 51
327.082042
  0
LINE
  8
CSLAYER1
  6
CENTER
 62
     3
 10
158.397026
 20
168.954984
 11
178.677740
 21
148.674271
  0
LINE
  8
CSLAYER1
  6
CENTER
 62
     3
 10
122.109396
 20
119.243042
 11
122.109396
 21
291.242981
  0
ARC
  8
CSLAYER1
  6
CENTER
 62
     3
 10
122.109595
 20
205.243210
 40
65.000000
 50
122.917958
 51
147.082042
  0
LINE
  8
CSLAYER1
  6
CENTER
 62
     3
 10
85.821766
 20
241.531039
 11
66.473542
 21
260.879263
  0
LINE
  8
CSLAYER1
  6
CENTER
 62
     3
 10
268.773923
 20
237.243012
 11
268.773923
 21
173.243012
  0
LINE
  8
CSLAYER1
  6
CENTER
 62
     3
 10
263.773923
 20
168.243012
 11
263.773923
 21
157.543000
  0
LINE
  8
CSLAYER1
  6
CONTINUOUS
 62
     6
 10
69.647654
 20
155.528096
 11
76.147654
 21
151.775319
  0
LINE
  8
CSLAYER1
  6
CONTINUOUS
 62
     6
 10
76.147654
 20
151.775319
 11
82.647654
 21
155.528096
  0
LINE
  8
CSLAYER1
  6
CONTINUOUS
 62
     6
 10
82.647654
 20
155.528096
 11
82.647654
 21
163.033649
  0
LINE
  8
CSLAYER1
  6
CONTINUOUS
 62
     6
 10
82.647654
 20
163.033649
 11
76.147654
 21
166.786426
  0
LINE
  8
CSLAYER1
  6
CONTINUOUS
 62
     6
 10
76.147654
 20
166.786426
 11
69.647654
 21
163.033649
  0
LINE
  8
CSLAYER1
  6
CONTINUOUS
 62
     6
 10
69.647654
 20
163.033649
 11
69.647654
 21
155.528096
  0
CIRCLE
  8
CSLAYER1
  6
CONTINUOUS
 62
     6
 10
76.147654
 20
159.280872
 40
7.700000
  0
CIRCLE
  8
CSLAYER1
  6
CONTINUOUS
 62
     6
 10
76.147654
 20
159.280872
 40
6.305000
  0
LINE
  8
CSLAYER1
  6
CONTINUOUS
 62
     6
 10
78.109396
 20
179.243012
 11
86.957244
 21
178.779334
  0
ARC
  8
CSLAYER1
  6
CONTINUOUS
 62
     6
 10
122.109396
 20
205.243012
 40
45.000000
 50
215.914393
 51
324.085608
  0
LINE
  8
CSLAYER1
  6
CONTINUOUS
 62
     6
 10
157.261548
 20
178.779335
 11
166.109396
 21
179.243012
  0
ARC
  8
CSLAYER1
  6
CONTINUOUS
 62
     6
 10
166.109396
 20
180.243012
 40
1.000000
 50
270.000019
 51
360.000000
  0
LINE
  8
CSLAYER1
  6
CONTINUOUS
 62
     6
 10
167.109396
 20
180.243012
 11
167.109396
 21
181.243012
  0
ARC
  8
CSLAYER1
  6
CONTINUOUS
 62
     6
 10
166.124441
 20
181.243012
 40
1.000000
 50
0.000018
 51
89.999999
  0
LINE
  8
CSLAYER1
  6
CONTINUOUS
 62
     6
 10
166.124441
 20
182.243012
 11
162.550121
 21
182.430371
  0
ARC
  8
CSLAYER1
  6
CONTINUOUS
 62
     6
 10
162.639113
 20
184.128115
 40
1.700075
 50
92.999690
 51
266.999412
  0
LINE
  8
CSLAYER1
  6
CONTINUOUS
 62
     6
 10
162.550147
 20
185.825861
 11
170.129812
 21
186.223053
  0
ARC
  8
CSLAYER1
  6
CONTINUOUS
 62
     6
 10
170.109396
 20
187.222809
 40
1.000000
 50
271.169236
 51
359.999982
  0
LINE
  8
CSLAYER1
  6
CONTINUOUS
 62
     6
 10
171.109396
 20
187.222809
 11
171.109396
 21
223.263215
  0
ARC
  8
CSLAYER1
  6
CONTINUOUS
 62
     6
 10
170.109396
 20
223.263215
 40
1.000000
 50
0.000000
 51
88.830746
  0
LINE
  8
CSLAYER1
  6
CONTINUOUS
 62
     6
 10
170.129812
 20
224.262971
 11
162.550147
 21
224.660163
  0
ARC
  8
CSLAYER1
  6
CONTINUOUS
 62
     6
 10
162.639113
 20
226.357909
 40
1.700075
 50
93.000588
 51
267.000310
  0
LINE
  8
CSLAYER1
  6
CONTINUOUS
 62
     6
 10
162.550121
 20
228.055653
 11
166.124441
 21
228.243012
  0
ARC
  8
CSLAYER1
  6
CONTINUOUS
 62
     6
 10
166.124441
 20
229.243012
 40
1.000000
 50
270.000001
 51
359.999982
  0
LINE
  8
CSLAYER1
  6
CONTINUOUS
 62
     6
 10
167.109396
 20
229.243012
 11
167.109396
 21
230.243012
  0
ARC
  8
CSLAYER1
  6
CONTINUOUS
 62
     6
 10
166.109396
 20
230.243012
 40
1.000000
 50
0.000000
 51
89.999981
  0
LINE
  8
CSLAYER1
  6
CONTINUOUS
 62
     6
 10
166.109396
 20
231.243012
 11
157.261548
 21
231.706689
  0
ARC
  8
CSLAYER1
  6
CONTINUOUS
 62
     6
 10
122.109396
 20
205.243012
 40
45.000000
 50
35.914392
 51
144.085607
  0
LINE
  8
CSLAYER1
  6
CONTINUOUS
 62
     6
 10
86.957244
 20
231.706690
 11
78.109396
 21
231.243012
  0
ARC
  8
CSLAYER1
  6
CONTINUOUS
 62
     6
 10
78.109396
 20
230.243012
 40
1.000000
 50
90.000039
 51
180.000020
  0
LINE
  8
CSLAYER1
  6
CONTINUOUS
 62
     6
 10
77.109396
 20
230.243012
 11
77.109396
 21
229.243012
  0
ARC
  8
CSLAYER1
  6
CONTINUOUS
 62
     6
 10
78.094351
 20
229.243012
 40
1.000000
 50
180.000020
 51
270.000001
  0
LINE
  8
CSLAYER1
  6
CONTINUOUS
 62
     6
 10
78.094351
 20
228.243012
 11
81.668671
 21
228.055653
  0
ARC
  8
CSLAYER1
  6
CONTINUOUS
 62
     6
 10
81.579679
 20
226.357909
 40
1.700075
 50
-87.000310
 51
86.999412
  0
LINE
  8
CSLAYER1
  6
CONTINUOUS
 62
     6
 10
81.668644
 20
224.660163
 11
74.088980
 21
224.262971
  0
ARC
  8
CSLAYER1
  6
CONTINUOUS
 62
     6
 10
74.109396
 20
223.263215
 40
1.000000
 50
91.169216
 51
180.000020
  0
LINE
  8
CSLAYER1
  6
CONTINUOUS
 62
     6
 10
73.109396
 20
223.263215
 11
73.109396
 21
187.222809
  0
ARC
  8
CSLAYER1
  6
CONTINUOUS
 62
     6
 10
74.109396
 20
187.222809
 40
1.000000
 50
180.000020
 51
268.830766
  0
LINE
  8
CSLAYER1
  6
CONTINUOUS
 62
     6
 10
74.088980
 20
186.223053
 11
81.668644
 21
185.825861
  0
ARC
  8
CSLAYER1
  6
CONTINUOUS
 62
     6
 10
81.579679
 20
184.128115
 40
1.700075
 50
-86.999412
 51
87.000310
  0
LINE
  8
CSLAYER1
  6
CONTINUOUS
 62
     6
 10
81.668671
 20
182.430371
 11
78.094351
 21
182.243012
  0
ARC
  8
CSLAYER1
  6
CONTINUOUS
 62
     6
 10
78.094351
 20
181.243012
 40
1.000000
 50
90.000039
 51
180.000020
  0
LINE
  8
CSLAYER1
  6
CONTINUOUS
 62
     6
 10
77.109396
 20
181.243012
 11
77.109396
 21
180.243012
  0
ARC
  8
CSLAYER1
  6
CONTINUOUS
 62
     6
 10
78.109396
 20
180.243012
 40
1.000000
 50
180.000020
 51
270.000001
  0
ARC
  8
CSLAYER1
  6
CONTINUOUS
 62
     6
 10
122.109396
 20
205.243012
 40
45.000000
 50
205.543092
 51
209.475790
  0
ARC
  8
CSLAYER1
  6
CONTINUOUS
 62
     6
 10
122.109396
 20
205.243012
 40
37.000000
 50
210.132722
 51
228.917667
  0
ARC
  8
CSLAYER1
  6
CONTINUOUS
 62
     6
 10
99.109396
 20
178.861200
 40
2.000000
 50
228.917667
 51
360.000000
  0
LINE
  8
CSLAYER1
  6
CONTINUOUS
 62
     6
 10
101.109396
 20
178.861200
 11
101.109396
 21
192.243012
  0
ARC
  8
CSLAYER1
  6
CONTINUOUS
 62
     6
 10
98.109396
 20
192.243012
 40
3.000000
 50
0.000000
 51
90.000000
  0
LINE
  8
CSLAYER1
  6
CONTINUOUS
 62
     6
 10
98.109396
 20
195.243012
 11
92.109396
 21
195.243012
  0
ARC
  8
CSLAYER1
  6
CONTINUOUS
 62
     6
 10
92.109396
 20
193.243012
 40
2.000000
 50
90.000000
 51
180.000000
  0
LINE
  8
CSLAYER1
  6
CONTINUOUS
 62
     6
 10
90.109396
 20
193.243012
 11
90.109396
 21
186.668836
  0
LINE
  8
CSLAYER1
  6
CONTINUOUS
 62
     6
 10
108.109396
 20
185.621595
 11
108.109396
 21
175.243012
  0
ARC
  8
CSLAYER1
  6
CONTINUOUS
 62
     6
 10
110.109396
 20
175.243012
 40
2.000000
 50
180.000000
 51
270.000000
  0
LINE
  8
CSLAYER1
  6
CONTINUOUS
 62
     6
 10
110.109396
 20
173.243012
 11
115.109396
 21
173.243012
  0
ARC
  8
CSLAYER1
  6
CONTINUOUS
 62
     6
 10
115.109396
 20
175.243012
 40
2.000000
 50
270.000000
 51
360.000000
  0
LINE
  8
CSLAYER1
  6
CONTINUOUS
 62
     6
 10
117.109396
 20
175.243012
 11
117.109396
 21
183.334109
  0
ARC
  8
CSLAYER1
  6
CONTINUOUS
 62
     6
 10
115.109396
 20
183.334109
 40
2.000000
 50
0.000000
 51
72.281068
  0
ARC
  8
CSLAYER1
  6
CONTINUOUS
 62
     6
 10
122.109396
 20
205.243012
 40
21.000000
 50
238.551019
 51
252.281068
  0
ARC
  8
CSLAYER1
  6
CONTINUOUS
 62
     6
 10
110.109396
 20
185.621595
 40
2.000000
 50
58.551019
 51
180.000000
  0
LINE
  8
CSLAYER1
  6
CONTINUOUS
 62
     6
 10
117.715368
 20
190.901047
 11
118.297713
 21
192.801817
  0
ARC
  8
CSLAYER1
  6
CONTINUOUS
 62
     6
 10
115.617267
 20
193.966276
 40
2.922462
 50
-23.481547
 51
129.764151
  0
ARC
  8
CSLAYER1
  6
CONTINUOUS
 62
     6
 10
112.875765
 20
197.260939
 40
1.363635
 50
217.903413
 51
309.763730
  0
ARC
  8
CSLAYER1
  6
CONTINUOUS
 62
     6
 10
122.109396
 20
204.449890
 40
13.065822
 50
-37.903067
 51
217.903051
  0
ARC
  8
CSLAYER1
  6
CONTINUOUS
 62
     6
 10
131.343015
 20
197.260939
 40
1.363635
 50
230.236329
 51
322.096590
  0
ARC
  8
CSLAYER1
  6
CONTINUOUS
 62
     6
 10
128.601516
 20
193.966276
 40
2.922462
 50
50.235851
 51
203.481549
  0
LINE
  8
CSLAYER1
  6
CONTINUOUS
 62
     6
 10
125.921067
 20
192.801817
 11
126.503412
 21
190.901047
  0
CIRCLE
  8
CSLAYER1
  6
CONTINUOUS
 62
     6
 10
128.601516
 20
193.966276
 40
1.363635
  0
ARC
  8
CSLAYER1
  6
CONTINUOUS
 62
     6
 10
122.109396
 20
205.243012
 40
21.000000
 50
287.718932
 51
301.448981
  0
ARC
  8
CSLAYER1
  6
CONTINUOUS
 62
     6
 10
129.109396
 20
183.334109
 40
2.000000
 50
107.718932
 51
180.000000
  0
LINE
  8
CSLAYER1
  6
CONTINUOUS
 62
     6
 10
127.109396
 20
183.334109
 11
127.109396
 21
175.243012
  0
ARC
  8
CSLAYER1
  6
CONTINUOUS
 62
     6
 10
129.109396
 20
175.243012
 40
2.000000
 50
180.000000
 51
270.000000
  0
LINE
  8
CSLAYER1
  6
CONTINUOUS
 62
     6
 10
129.109396
 20
173.243012
 11
134.109396
 21
173.243012
  0
ARC
  8
CSLAYER1
  6
CONTINUOUS
 62
     6
 10
134.109396
 20
175.243012
 40
2.000000
 50
270.000000
 51
360.000000
  0
LINE
  8
CSLAYER1
  6
CONTINUOUS
 62
     6
 10
136.109396
 20
175.243012
 11
136.109396
 21
185.621595
  0
ARC
  8
CSLAYER1
  6
CONTINUOUS
 62
     6
 10
134.109396
 20
185.621595
 40
2.000000
 50
0.000000
 51
121.448981
  0
LINE
  8
CSLAYER1
  6
CONTINUOUS
 62
     6
 10
143.109396
 20
192.243012
 11
143.109396
 21
178.861200
  0
ARC
  8
CSLAYER1
  6
CONTINUOUS
 62
     6
 10
145.109396
 20
178.861200
 40
2.000000
 50
180.000000
 51
311.082333
  0
ARC
  8
CSLAYER1
  6
CONTINUOUS
 62
     6
 10
122.109396
 20
205.243012
 40
37.000000
 50
311.082333
 51
329.867278
  0
LINE
  8
CSLAYER1
  6
CONTINUOUS
 62
     6
 10
154.109396
 20
186.668836
 11
154.109396
 21
193.243012
  0
ARC
  8
CSLAYER1
  6
CONTINUOUS
 62
     6
 10
152.109396
 20
193.243012
 40
2.000000
 50
0.000000
 51
90.000000
  0
LINE
  8
CSLAYER1
  6
CONTINUOUS
 62
     6
 10
152.109396
 20
195.243012
 11
146.109396
 21
195.243012
  0
ARC
  8
CSLAYER1
  6
CONTINUOUS
 62
     6
 10
146.109396
 20
192.243012
 40
3.000000
 50
90.000000
 51
180.000000
  0
ARC
  8
CSLAYER1
  6
CONTINUOUS
 62
     6
 10
122.109396
 20
205.243012
 40
45.000000
 50
330.524210
 51
334.456908
  0
LINE
  8
CSLAYER1
  6
CONTINUOUS
 62
     6
 10
168.071138
 20
166.786426
 11
161.571138
 21
163.033649
  0
LINE
  8
CSLAYER1
  6
CONTINUOUS
 62
     6
 10
161.571138
 20
163.033649
 11
161.571138
 21
155.528096
  0
LINE
  8
CSLAYER1
  6
CONTINUOUS
 62
     6
 10
161.571138
 20
155.528096
 11
168.071138
 21
151.775319
  0
LINE
  8
CSLAYER1
  6
CONTINUOUS
 62
     6
 10
168.071138
 20
151.775319
 11
174.571138
 21
155.528096
  0
LINE
  8
CSLAYER1
  6
CONTINUOUS
 62
     6
 10
174.571138
 20
155.528096
 11
174.571138
 21
163.033649
  0
LINE
  8
CSLAYER1
  6
CONTINUOUS
 62
     6
 10
174.571138
 20
163.033649
 11
168.071138
 21
166.786426
  0
CIRCLE
  8
CSLAYER1
  6
CONTINUOUS
 62
     6
 10
168.071138
 20
159.280872
 40
7.700000
  0
CIRCLE
  8
CSLAYER1
  6
CONTINUOUS
 62
     6
 10
168.071138
 20
159.280872
 40
6.305000
  0
LINE
  8
CSLAYER1
  6
CONTINUOUS
 62
     6
 10
126.345886
 20
141.640791
 11
124.127609
 21
140.487836
  0
ARC
  8
CSLAYER1
  6
CONTINUOUS
 62
     6
 10
140.017295
 20
148.746775
 40
17.907879
 50
180.000020
 51
207.463892
  0
LINE
  8
CSLAYER1
  6
CONTINUOUS
 62
     6
 10
122.109367
 20
148.728805
 11
122.109397
 21
150.193582
  0
ARC
  8
CSLAYER1
  6
CONTINUOUS
 62
     6
 10
122.734395
 20
151.276124
 40
1.250008
 50
240.000345
 51
300.000345
  0
ARC
  8
CSLAYER1
  6
CONTINUOUS
 62
     6
 10
122.734408
 20
149.111047
 40
1.250008
 50
60.000345
 51
120.000345
  0
ARC
  8
CSLAYER1
  6
CONTINUOUS
 62
     6
 10
121.484380
 20
149.111054
 40
1.250008
 50
60.000345
 51
120.000345
  0
ARC
  8
CSLAYER1
  6
CONTINUOUS
 62
     6
 10
120.234372
 20
149.111047
 40
1.250008
 50
60.000345
 51
120.000345
  0
ARC
  8
CSLAYER1
  6
CONTINUOUS
 62
     6
 10
120.234359
 20
151.276124
 40
1.250008
 50
240.000345
 51
300.000345
  0
LINE
  8
CSLAYER1
  6
CONTINUOUS
 62
     6
 10
119.609370
 20
150.193589
 11
119.609370
 21
148.746775
  0
ARC
  8
CSLAYER1
  6
CONTINUOUS
 62
     6
 10
104.201497
 20
148.746718
 40
15.407880
 50
332.536225
 51
359.942687
  0
LINE
  8
CSLAYER1
  6
CONTINUOUS
 62
     6
 10
117.872926
 20
141.640829
 11
120.091203
 21
140.487836
  0
ARC
  8
CSLAYER1
  6
CONTINUOUS
 62
     6
 10
104.201497
 20
148.746718
 40
17.907879
 50
332.536225
 51
359.942687
  0
ARC
  8
CSLAYER1
  6
CONTINUOUS
 62
     6
 10
123.984416
 20
149.111054
 40
1.250008
 50
60.000345
 51
120.000345
  0
LINE
  8
CSLAYER1
  6
CONTINUOUS
 62
     6
 10
124.609423
 20
150.193589
 11
124.609423
 21
148.746775
  0
ARC
  8
CSLAYER1
  6
CONTINUOUS
 62
     6
 10
140.017295
 20
148.746718
 40
15.407880
 50
179.999963
 51
207.463892
  0
LINE
  8
CSLAYER1
  6
CONTINUOUS
 62
     6
 10
125.809122
 20
141.361806
 11
127.623318
 21
138.369598
  0
LINE
  8
CSLAYER1
  6
CONTINUOUS
 62
     6
 10
126.886550
 20
137.857607
 11
125.236748
 21
141.064313
  0
LINE
  8
CSLAYER1
  6
CONTINUOUS
 62
     6
 10
124.661920
 20
140.771588
 11
126.041623
 21
137.555840
  0
LINE
  8
CSLAYER1
  6
CONTINUOUS
 62
     6
 10
119.574650
 20
140.756325
 11
118.007862
 21
137.345615
  0
LINE
  8
CSLAYER1
  6
CONTINUOUS
 62
     6
 10
117.221143
 20
137.632830
 11
118.982064
 21
141.064333
  0
LINE
  8
CSLAYER1
  6
CONTINUOUS
 62
     6
 10
118.386298
 20
141.366143
 11
116.529068
 21
138.104478
  0
ARC
  8
CSLAYER1
  6
CONTINUOUS
 62
     6
 10
123.984451
 20
150.973532
 40
1.250017
 50
59.999981
 51
119.999981
  0
ARC
  8
CSLAYER1
  6
CONTINUOUS
 62
     6
 10
123.984452
 20
153.138625
 40
1.250017
 50
239.999981
 51
299.999981
  0
LINE
  8
CSLAYER1
  6
CONTINUOUS
 62
     6
 10
124.609423
 20
152.056078
 11
124.609413
 21
160.298651
  0
LINE
  8
CSLAYER1
  6
CONTINUOUS
 62
     6
 10
122.109396
 20
160.243012
 11
122.109423
 21
152.056078
  0
ARC
  8
CSLAYER1
  6
CONTINUOUS
 62
     6
 10
121.484415
 20
153.138625
 40
1.250017
 50
239.999981
 51
299.999981
  0
ARC
  8
CSLAYER1
  6
CONTINUOUS
 62
     6
 10
121.484415
 20
150.973532
 40
1.250017
 50
59.999981
 51
119.999981
  0
ARC
  8
CSLAYER1
  6
CONTINUOUS
 62
     6
 10
122.734435
 20
153.138625
 40
1.250017
 50
239.999981
 51
299.999981
  0
ARC
  8
CSLAYER1
  6
CONTINUOUS
 62
     6
 10
120.234398
 20
153.138625
 40
1.250017
 50
239.999981
 51
299.999981
  0
LINE
  8
CSLAYER1
  6
CONTINUOUS
 62
     6
 10
119.609388
 20
152.056078
 11
119.609378
 21
160.298651
  0
CIRCLE
  8
CSLAYER1
  6
CONTINUOUS
 62
     6
 10
115.617267
 20
193.966276
 40
1.363635
  0
CIRCLE
  8
CSLAYER1
  6
CONTINUOUS
 62
     6
 10
122.109396
 20
205.243012
 40
44.000000
  0
CIRCLE
  8
CSLAYER1
  6
CONTINUOUS
 62
     6
 10
122.109396
 20
205.243012
 40
15.000000
  0
ARC
  8
CSLAYER1
  6
CONTINUOUS
 62
     6
 10
122.109396
 20
205.243012
 40
21.000000
 50
107.718932
 51
121.448981
  0
ARC
  8
CSLAYER1
  6
CONTINUOUS
 62
     6
 10
110.109396
 20
224.864429
 40
2.000000
 50
180.000000
 51
301.448981
  0
LINE
  8
CSLAYER1
  6
CONTINUOUS
 62
     6
 10
108.109396
 20
224.864429
 11
108.109396
 21
235.243012
  0
ARC
  8
CSLAYER1
  6
CONTINUOUS
 62
     6
 10
110.109396
 20
235.243012
 40
2.000000
 50
90.000000
 51
180.000000
  0
LINE
  8
CSLAYER1
  6
CONTINUOUS
 62
     6
 10
110.109396
 20
237.243012
 11
115.109396
 21
237.243012
  0
ARC
  8
CSLAYER1
  6
CONTINUOUS
 62
     6
 10
115.109396
 20
235.243012
 40
2.000000
 50
0.000000
 51
90.000000
  0
LINE
  8
CSLAYER1
  6
CONTINUOUS
 62
     6
 10
117.109396
 20
235.243012
 11
117.109396
 21
227.151914
  0
ARC
  8
CSLAYER1
  6
CONTINUOUS
 62
     6
 10
115.109396
 20
227.151914
 40
2.000000
 50
287.718932
 51
360.000000
  0
LINE
  8
CSLAYER1
  6
CONTINUOUS
 62
     6
 10
127.109396
 20
227.151914
 11
127.109396
 21
235.243012
  0
ARC
  8
CSLAYER1
  6
CONTINUOUS
 62
     6
 10
129.109396
 20
235.243012
 40
2.000000
 50
90.000000
 51
180.000000
  0
LINE
  8
CSLAYER1
  6
CONTINUOUS
 62
     6
 10
129.109396
 20
237.243012
 11
134.109396
 21
237.243012
  0
ARC
  8
CSLAYER1
  6
CONTINUOUS
 62
     6
 10
134.109396
 20
235.243012
 40
2.000000
 50
0.000000
 51
90.000000
  0
LINE
  8
CSLAYER1
  6
CONTINUOUS
 62
     6
 10
136.109396
 20
235.243012
 11
136.109396
 21
224.864429
  0
ARC
  8
CSLAYER1
  6
CONTINUOUS
 62
     6
 10
134.109396
 20
224.864429
 40
2.000000
 50
238.551019
 51
360.000000
  0
ARC
  8
CSLAYER1
  6
CONTINUOUS
 62
     6
 10
122.109396
 20
205.243012
 40
21.000000
 50
58.551019
 51
72.281068
  0
ARC
  8
CSLAYER1
  6
CONTINUOUS
 62
     6
 10
129.109396
 20
227.151914
 40
2.000000
 50
180.000000
 51
252.281068
  0
LINE
  8
CSLAYER1
  6
CONTINUOUS
 62
     6
 10
143.109396
 20
231.624824
 11
143.109396
 21
218.243012
  0
ARC
  8
CSLAYER1
  6
CONTINUOUS
 62
     6
 10
146.109396
 20
218.243012
 40
3.000000
 50
180.000000
 51
270.000000
  0
LINE
  8
CSLAYER1
  6
CONTINUOUS
 62
     6
 10
146.109396
 20
215.243012
 11
152.109396
 21
215.243012
  0
ARC
  8
CSLAYER1
  6
CONTINUOUS
 62
     6
 10
152.109396
 20
217.243012
 40
2.000000
 50
270.000000
 51
360.000000
  0
LINE
  8
CSLAYER1
  6
CONTINUOUS
 62
     6
 10
154.109396
 20
217.243012
 11
154.109396
 21
223.817187
  0
ARC
  8
CSLAYER1
  6
CONTINUOUS
 62
     6
 10
122.109396
 20
205.243012
 40
37.000000
 50
30.132722
 51
48.917667
  0
ARC
  8
CSLAYER1
  6
CONTINUOUS
 62
     6
 10
145.109396
 20
231.624824
 40
2.000000
 50
48.917667
 51
180.000000
  0
ARC
  8
CSLAYER1
  6
CONTINUOUS
 62
     6
 10
122.109396
 20
205.243012
 40
45.000000
 50
25.550580
 51
29.475790
  0
LINE
  8
CSLAYER1
  6
CONTINUOUS
 62
     6
 10
168.071138
 20
243.699598
 11
161.571138
 21
247.452374
  0
LINE
  8
CSLAYER1
  6
CONTINUOUS
 62
     6
 10
161.571138
 20
247.452374
 11
161.571138
 21
254.957928
  0
LINE
  8
CSLAYER1
  6
CONTINUOUS
 62
     6
 10
161.571138
 20
254.957928
 11
168.071138
 21
258.710705
  0
LINE
  8
CSLAYER1
  6
CONTINUOUS
 62
     6
 10
168.071138
 20
258.710705
 11
174.571138
 21
254.957928
  0
LINE
  8
CSLAYER1
  6
CONTINUOUS
 62
     6
 10
174.571138
 20
254.957928
 11
174.571138
 21
247.452374
  0
LINE
  8
CSLAYER1
  6
CONTINUOUS
 62
     6
 10
174.571138
 20
247.452374
 11
168.071138
 21
243.699598
  0
CIRCLE
  8
CSLAYER1
  6
CONTINUOUS
 62
     6
 10
168.071138
 20
251.205151
 40
7.700000
  0
CIRCLE
  8
CSLAYER1
  6
CONTINUOUS
 62
     6
 10
168.071138
 20
251.205151
 40
6.305000
  0
LINE
  8
CSLAYER1
  6
CONTINUOUS
 62
     6
 10
101.109396
 20
231.624824
 11
101.109396
 21
218.243012
  0
ARC
  8
CSLAYER1
  6
CONTINUOUS
 62
     6
 10
98.109396
 20
218.243012
 40
3.000000
 50
270.000000
 51
360.000000
  0
LINE
  8
CSLAYER1
  6
CONTINUOUS
 62
     6
 10
98.109396
 20
215.243012
 11
92.109396
 21
215.243012
  0
ARC
  8
CSLAYER1
  6
CONTINUOUS
 62
     6
 10
92.109396
 20
217.243012
 40
2.000000
 50
180.000000
 51
270.000000
  0
LINE
  8
CSLAYER1
  6
CONTINUOUS
 62
     6
 10
90.109396
 20
217.243012
 11
90.109396
 21
223.817187
  0
ARC
  8
CSLAYER1
  6
CONTINUOUS
 62
     6
 10
122.109396
 20
205.243012
 40
37.000000
 50
131.082333
 51
149.867278
  0
ARC
  8
CSLAYER1
  6
CONTINUOUS
 62
     6
 10
99.109396
 20
231.624824
 40
2.000000
 50
0.000000
 51
131.082333
  0
ARC
  8
CSLAYER1
  6
CONTINUOUS
 62
     6
 10
122.109396
 20
205.243012
 40
45.000000
 50
150.524210
 51
154.449420
  0
LINE
  8
CSLAYER1
  6
CONTINUOUS
 62
     6
 10
76.147654
 20
243.699598
 11
82.647654
 21
247.452374
  0
LINE
  8
CSLAYER1
  6
CONTINUOUS
 62
     6
 10
82.647654
 20
247.452374
 11
82.647654
 21
254.957928
  0
LINE
  8
CSLAYER1
  6
CONTINUOUS
 62
     6
 10
82.647654
 20
254.957928
 11
76.147654
 21
258.710705
  0
LINE
  8
CSLAYER1
  6
CONTINUOUS
 62
     6
 10
76.147654
 20
258.710705
 11
69.647654
 21
254.957928
  0
LINE
  8
CSLAYER1
  6
CONTINUOUS
 62
     6
 10
69.647654
 20
254.957928
 11
69.647654
 21
247.452374
  0
LINE
  8
CSLAYER1
  6
CONTINUOUS
 62
     6
 10
69.647654
 20
247.452374
 11
76.147654
 21
243.699598
  0
CIRCLE
  8
CSLAYER1
  6
CONTINUOUS
 62
     6
 10
76.147654
 20
251.205151
 40
7.700000
  0
CIRCLE
  8
CSLAYER1
  6
CONTINUOUS
 62
     6
 10
76.147654
 20
251.205151
 40
6.305000
  0
LINE
  8
CSLAYER1
  6
CONTINUOUS
 62
     6
 10
236.773923
 20
248.131470
 11
237.773923
 21
249.131470
  0
LINE
  8
CSLAYER1
  6
CONTINUOUS
 62
     6
 10
237.773923
 20
249.131470
 11
289.773923
 21
249.131470
  0
LINE
  8
CSLAYER1
  6
CONTINUOUS
 62
     6
 10
289.773923
 20
250.243012
 11
397.473958
 21
250.243012
  0
LINE
  8
CSLAYER1
  6
CONTINUOUS
 62
     6
 10
397.473993
 20
160.243012
 11
289.773923
 21
160.243012
  0
LINE
  8
CSLAYER1
  6
CONTINUOUS
 62
     6
 10
289.773923
 20
160.243012
 11
289.773923
 21
250.243012
  0
LINE
  8
CSLAYER1
  6
CONTINUOUS
 62
     6
 10
286.773923
 20
231.243012
 11
250.773923
 21
231.243012
  0
ARC
  8
CSLAYER1
  6
CONTINUOUS
 62
     6
 10
250.773923
 20
230.243012
 40
1.000000
 50
90.000016
 51
180.000005
  0
LINE
  8
CSLAYER1
  6
CONTINUOUS
 62
     6
 10
249.773923
 20
230.243012
 11
249.773923
 21
229.243012
  0
ARC
  8
CSLAYER1
  6
CONTINUOUS
 62
     6
 10
250.773923
 20
229.243012
 40
1.000000
 50
180.000019
 51
270.000001
  0
LINE
  8
CSLAYER1
  6
CONTINUOUS
 62
     6
 10
250.773923
 20
228.243012
 11
286.773923
 21
228.243012
  0
ARC
  8
CSLAYER1
  6
CONTINUOUS
 62
     6
 10
286.773923
 20
229.243012
 40
1.000000
 50
270.000001
 51
359.942691
  0
LINE
  8
CSLAYER1
  6
CONTINUOUS
 62
     6
 10
287.773923
 20
229.243012
 11
287.773923
 21
230.243012
  0
ARC
  8
CSLAYER1
  6
CONTINUOUS
 62
     6
 10
286.773923
 20
230.243012
 40
1.000000
 50
0.000000
 51
90.000003
  0
ARC
  8
CSLAYER1
  6
CONTINUOUS
 62
     6
 10
286.773923
 20
223.243012
 40
1.000000
 50
0.000000
 51
90.000003
  0
LINE
  8
CSLAYER1
  6
CONTINUOUS
 62
     6
 10
287.773923
 20
223.243012
 11
287.773923
 21
222.243012
  0
ARC
  8
CSLAYER1
  6
CONTINUOUS
 62
     6
 10
286.773923
 20
222.243012
 40
1.000000
 50
270.000001
 51
359.942691
  0
LINE
  8
CSLAYER1
  6
CONTINUOUS
 62
     6
 10
286.773923
 20
221.243012
 11
282.002683
 21
221.243012
  0
ARC
  8
CSLAYER1
  6
CONTINUOUS
 62
     6
 10
282.002683
 20
220.243012
 40
1.000000
 50
90.000003
 51
228.590367
  0
ARC
  8
CSLAYER1
  6
CONTINUOUS
 62
     6
 10
268.773923
 20
205.243012
 40
19.000000
 50
-48.590366
 51
48.590386
  0
ARC
  8
CSLAYER1
  6
CONTINUOUS
 62
     6
 10
282.002683
 20
190.243012
 40
1.000000
 50
131.409643
 51
270.000001
  0
LINE
  8
CSLAYER1
  6
CONTINUOUS
 62
     6
 10
282.002683
 20
189.243012
 11
286.773923
 21
189.243012
  0
ARC
  8
CSLAYER1
  6
CONTINUOUS
 62
     6
 10
286.773923
 20
188.243012
 40
1.000000
 50
0.057309
 51
89.999999
  0
LINE
  8
CSLAYER1
  6
CONTINUOUS
 62
     6
 10
287.773923
 20
188.243012
 11
287.773923
 21
187.243012
  0
ARC
  8
CSLAYER1
  6
CONTINUOUS
 62
     6
 10
286.773923
 20
187.243012
 40
1.000000
 50
269.999997
 51
360.000000
  0
LINE
  8
CSLAYER1
  6
CONTINUOUS
 62
     6
 10
286.773923
 20
186.243012
 11
250.773923
 21
186.243012
  0
ARC
  8
CSLAYER1
  6
CONTINUOUS
 62
     6
 10
250.773923
 20
187.243012
 40
1.000000
 50
179.999995
 51
269.999984
  0
LINE
  8
CSLAYER1
  6
CONTINUOUS
 62
     6
 10
249.773923
 20
187.243012
 11
249.773923
 21
188.243012
  0
ARC
  8
CSLAYER1
  6
CONTINUOUS
 62
     6
 10
250.773923
 20
188.243012
 40
1.000000
 50
89.999999
 51
179.999981
  0
LINE
  8
CSLAYER1
  6
CONTINUOUS
 62
     6
 10
250.773923
 20
189.243012
 11
255.545163
 21
189.243012
  0
ARC
  8
CSLAYER1
  6
CONTINUOUS
 62
     6
 10
255.545163
 20
190.243012
 40
1.000000
 50
-89.999999
 51
48.590386
  0
ARC
  8
CSLAYER1
  6
CONTINUOUS
 62
     6
 10
268.773923
 20
205.243012
 40
19.000000
 50
131.409657
 51
228.590367
  0
ARC
  8
CSLAYER1
  6
CONTINUOUS
 62
     6
 10
255.545163
 20
220.243012
 40
1.000000
 50
-48.590366
 51
90.000019
  0
LINE
  8
CSLAYER1
  6
CONTINUOUS
 62
     6
 10
255.545163
 20
221.243012
 11
250.773923
 21
221.243012
  0
ARC
  8
CSLAYER1
  6
CONTINUOUS
 62
     6
 10
250.773923
 20
222.243012
 40
1.000000
 50
180.000019
 51
270.000001
  0
LINE
  8
CSLAYER1
  6
CONTINUOUS
 62
     6
 10
249.773923
 20
222.243012
 11
249.773923
 21
223.243012
  0
ARC
  8
CSLAYER1
  6
CONTINUOUS
 62
     6
 10
250.773923
 20
223.243012
 40
1.000000
 50
90.000016
 51
180.000005
  0
LINE
  8
CSLAYER1
  6
CONTINUOUS
 62
     6
 10
250.773923
 20
224.243012
 11
286.773923
 21
224.243012
  0
LINE
  8
CSLAYER1
  6
CONTINUOUS
 62
     6
 10
274.773923
 20
206.143006
 11
262.773923
 21
206.143006
  0
LINE
  8
CSLAYER1
  6
CONTINUOUS
 62
     6
 10
262.773923
 20
206.143006
 11
262.773923
 21
204.343018
  0
LINE
  8
CSLAYER1
  6
CONTINUOUS
 62
     6
 10
262.773923
 20
204.343018
 11
274.773923
 21
204.343018
  0
LINE
  8
CSLAYER1
  6
CONTINUOUS
 62
     6
 10
274.773923
 20
204.343018
 11
274.773923
 21
206.143006
  0
CIRCLE
  8
CSLAYER1
  6
CONTINUOUS
 62
     6
 10
268.773923
 20
205.243012
 40
12.000000
  0
CIRCLE
  8
CSLAYER1
  6
CONTINUOUS
 62
     6
 10
268.773923
 20
205.243012
 40
15.000000
  0
CIRCLE
  8
CSLAYER1
  6
CONTINUOUS
 62
     6
 10
268.773923
 20
205.243012
 40
16.000000
  0
ARC
  8
CSLAYER1
  6
CONTINUOUS
 62
     6
 10
250.773923
 20
181.243012
 40
1.000000
 50
89.999999
 51
179.999981
  0
LINE
  8
CSLAYER1
  6
CONTINUOUS
 62
     6
 10
249.773923
 20
181.243012
 11
249.773923
 21
180.243012
  0
ARC
  8
CSLAYER1
  6
CONTINUOUS
 62
     6
 10
250.773923
 20
180.243012
 40
1.000000
 50
179.999995
 51
269.999984
  0
LINE
  8
CSLAYER1
  6
CONTINUOUS
 62
     6
 10
250.773923
 20
179.243012
 11
286.773923
 21
179.243012
  0
ARC
  8
CSLAYER1
  6
CONTINUOUS
 62
     6
 10
286.773923
 20
180.243012
 40
1.000000
 50
269.999997
 51
360.000000
  0
LINE
  8
CSLAYER1
  6
CONTINUOUS
 62
     6
 10
287.773923
 20
180.243012
 11
287.773923
 21
181.243012
  0
ARC
  8
CSLAYER1
  6
CONTINUOUS
 62
     6
 10
286.773923
 20
181.243012
 40
1.000000
 50
0.057309
 51
89.999999
  0
LINE
  8
CSLAYER1
  6
CONTINUOUS
 62
     6
 10
286.773923
 20
182.243012
 11
250.773923
 21
182.243012
  0
LINE
  8
CSLAYER1
  6
CONTINUOUS
 62
     6
 10
250.773923
 20
165.243012
 11
250.773923
 21
161.243012
  0
LINE
  8
CSLAYER1
  6
CONTINUOUS
 62
     6
 10
250.773923
 20
161.243012
 11
237.773923
 21
161.243012
  0
LINE
  8
CSLAYER1
  6
CONTINUOUS
 62
     6
 10
237.773923
 20
161.243012
 11
237.773923
 21
249.131470
  0
LINE
  8
CSLAYER1
  6
CONTINUOUS
 62
     6
 10
236.773923
 20
248.131470
 11
236.773923
 21
162.243012
  0
LINE
  8
CSLAYER1
  6
CONTINUOUS
 62
     6
 10
236.773923
 20
162.243012
 11
237.773923
 21
161.243012
  0
LINE
  8
CSLAYER1
  6
CONTINUOUS
 62
     6
 10
246.657762
 20
152.239195
 11
246.486867
 21
152.072183
  0
LINE
  8
CSLAYER1
  6
CONTINUOUS
 62
     6
 10
246.486867
 20
152.072183
 11
246.313864
 21
151.904068
  0
LINE
  8
CSLAYER1
  6
CONTINUOUS
 62
     6
 10
246.313864
 20
151.904068
 11
246.140528
 21
151.737173
  0
LINE
  8
CSLAYER1
  6
CONTINUOUS
 62
     6
 10
246.140528
 20
151.737173
 11
245.968637
 21
151.573824
  0
LINE
  8
CSLAYER1
  6
CONTINUOUS
 62
     6
 10
245.968637
 20
151.573824
 11
245.799964
 21
151.416344
  0
LINE
  8
CSLAYER1
  6
CONTINUOUS
 62
     6
 10
245.799964
 20
151.416344
 11
245.636287
 21
151.267060
  0
LINE
  8
CSLAYER1
  6
CONTINUOUS
 62
     6
 10
245.636287
 20
151.267060
 11
245.479381
 21
151.128296
  0
LINE
  8
CSLAYER1
  6
CONTINUOUS
 62
     6
 10
245.479381
 20
151.128296
 11
245.338150
 21
151.005498
  0
LINE
  8
CSLAYER1
  6
CONTINUOUS
 62
     6
 10
245.338150
 20
151.005498
 11
245.191967
 21
150.877612
  0
LINE
  8
CSLAYER1
  6
CONTINUOUS
 62
     6
 10
245.191967
 20
150.877612
 11
245.041973
 21
150.745106
  0
LINE
  8
CSLAYER1
  6
CONTINUOUS
 62
     6
 10
245.041973
 20
150.745106
 11
244.889312
 21
150.608446
  0
LINE
  8
CSLAYER1
  6
CONTINUOUS
 62
     6
 10
244.889312
 20
150.608446
 11
244.735125
 21
150.468101
  0
LINE
  8
CSLAYER1
  6
CONTINUOUS
 62
     6
 10
244.735125
 20
150.468101
 11
244.580555
 21
150.324539
  0
LINE
  8
CSLAYER1
  6
CONTINUOUS
 62
     6
 10
244.580555
 20
150.324539
 11
244.426743
 21
150.178226
  0
LINE
  8
CSLAYER1
  6
CONTINUOUS
 62
     6
 10
244.426743
 20
150.178226
 11
244.274833
 21
150.029632
  0
LINE
  8
CSLAYER1
  6
CONTINUOUS
 62
     6
 10
244.274833
 20
150.029632
 11
244.125966
 21
149.879222
  0
LINE
  8
CSLAYER1
  6
CONTINUOUS
 62
     6
 10
244.125966
 20
149.879222
 11
243.981284
 21
149.727466
  0
LINE
  8
CSLAYER1
  6
CONTINUOUS
 62
     6
 10
243.981284
 20
149.727466
 11
243.841930
 21
149.574830
  0
LINE
  8
CSLAYER1
  6
CONTINUOUS
 62
     6
 10
243.841930
 20
149.574830
 11
243.786406
 21
149.511886
  0
LINE
  8
CSLAYER1
  6
CONTINUOUS
 62
     6
 10
243.786406
 20
149.511886
 11
243.731478
 21
149.448385
  0
LINE
  8
CSLAYER1
  6
CONTINUOUS
 62
     6
 10
243.731478
 20
149.448385
 11
243.677087
 21
149.384384
  0
LINE
  8
CSLAYER1
  6
CONTINUOUS
 62
     6
 10
243.677087
 20
149.384384
 11
243.623174
 21
149.319938
  0
LINE
  8
CSLAYER1
  6
CONTINUOUS
 62
     6
 10
243.623174
 20
149.319938
 11
243.569678
 21
149.255102
  0
LINE
  8
CSLAYER1
  6
CONTINUOUS
 62
     6
 10
243.569678
 20
149.255102
 11
243.516540
 21
149.189932
  0
LINE
  8
CSLAYER1
  6
CONTINUOUS
 62
     6
 10
243.516540
 20
149.189932
 11
243.463700
 21
149.124484
  0
LINE
  8
CSLAYER1
  6
CONTINUOUS
 62
     6
 10
243.463700
 20
149.124484
 11
243.411099
 21
149.058814
  0
LINE
  8
CSLAYER1
  6
CONTINUOUS
 62
     6
 10
243.411099
 20
149.058814
 11
243.358677
 21
148.992976
  0
LINE
  8
CSLAYER1
  6
CONTINUOUS
 62
     6
 10
243.358677
 20
148.992976
 11
243.306374
 21
148.927027
  0
LINE
  8
CSLAYER1
  6
CONTINUOUS
 62
     6
 10
243.306374
 20
148.927027
 11
243.177819
 21
148.764610
  0
LINE
  8
CSLAYER1
  6
CONTINUOUS
 62
     6
 10
243.177819
 20
148.764610
 11
243.206557
 21
148.717755
  0
LINE
  8
CSLAYER1
  6
CONTINUOUS
 62
     6
 10
243.206557
 20
148.717755
 11
243.247148
 21
148.657874
  0
LINE
  8
CSLAYER1
  6
CONTINUOUS
 62
     6
 10
243.247148
 20
148.657874
 11
243.291431
 21
148.598006
  0
LINE
  8
CSLAYER1
  6
CONTINUOUS
 62
     6
 10
243.291431
 20
148.598006
 11
243.338882
 21
148.538733
  0
LINE
  8
CSLAYER1
  6
CONTINUOUS
 62
     6
 10
243.338882
 20
148.538733
 11
243.388981
 21
148.480635
  0
LINE
  8
CSLAYER1
  6
CONTINUOUS
 62
     6
 10
243.388981
 20
148.480635
 11
243.441205
 21
148.424294
  0
LINE
  8
CSLAYER1
  6
CONTINUOUS
 62
     6
 10
243.441205
 20
148.424294
 11
243.495033
 21
148.370291
  0
LINE
  8
CSLAYER1
  6
CONTINUOUS
 62
     6
 10
243.495033
 20
148.370291
 11
243.549944
 21
148.319206
  0
LINE
  8
CSLAYER1
  6
CONTINUOUS
 62
     6
 10
243.549944
 20
148.319206
 11
243.605415
 21
148.271620
  0
LINE
  8
CSLAYER1
  6
CONTINUOUS
 62
     6
 10
243.605415
 20
148.271620
 11
243.660925
 21
148.228114
  0
LINE
  8
CSLAYER1
  6
CONTINUOUS
 62
     6
 10
243.660925
 20
148.228114
 11
243.715953
 21
148.189270
  0
LINE
  8
CSLAYER1
  6
CONTINUOUS
 62
     6
 10
243.715953
 20
148.189270
 11
243.772439
 21
148.154976
  0
LINE
  8
CSLAYER1
  6
CONTINUOUS
 62
     6
 10
243.772439
 20
148.154976
 11
243.833041
 21
148.124009
  0
LINE
  8
CSLAYER1
  6
CONTINUOUS
 62
     6
 10
243.833041
 20
148.124009
 11
243.897201
 21
148.096020
  0
LINE
  8
CSLAYER1
  6
CONTINUOUS
 62
     6
 10
243.897201
 20
148.096020
 11
243.964363
 21
148.070659
  0
LINE
  8
CSLAYER1
  6
CONTINUOUS
 62
     6
 10
243.964363
 20
148.070659
 11
244.033970
 21
148.047577
  0
LINE
  8
CSLAYER1
  6
CONTINUOUS
 62
     6
 10
244.033970
 20
148.047577
 11
244.105464
 21
148.026423
  0
LINE
  8
CSLAYER1
  6
CONTINUOUS
 62
     6
 10
244.105464
 20
148.026423
 11
244.178289
 21
148.006849
  0
LINE
  8
CSLAYER1
  6
CONTINUOUS
 62
     6
 10
244.178289
 20
148.006849
 11
244.251887
 21
147.988504
  0
LINE
  8
CSLAYER1
  6
CONTINUOUS
 62
     6
 10
244.251887
 20
147.988504
 11
244.325702
 21
147.971038
  0
LINE
  8
CSLAYER1
  6
CONTINUOUS
 62
     6
 10
244.325702
 20
147.971038
 11
244.399176
 21
147.954103
  0
LINE
  8
CSLAYER1
  6
CONTINUOUS
 62
     6
 10
244.399176
 20
147.954103
 11
244.471752
 21
147.937348
  0
LINE
  8
CSLAYER1
  6
CONTINUOUS
 62
     6
 10
244.471752
 20
147.937348
 11
244.545976
 21
147.919747
  0
LINE
  8
CSLAYER1
  6
CONTINUOUS
 62
     6
 10
244.545976
 20
147.919747
 11
244.619711
 21
147.901723
  0
LINE
  8
CSLAYER1
  6
CONTINUOUS
 62
     6
 10
244.619711
 20
147.901723
 11
244.693008
 21
147.883317
  0
LINE
  8
CSLAYER1
  6
CONTINUOUS
 62
     6
 10
244.693008
 20
147.883317
 11
244.765913
 21
147.864571
  0
LINE
  8
CSLAYER1
  6
CONTINUOUS
 62
     6
 10
244.765913
 20
147.864571
 11
244.838477
 21
147.845529
  0
LINE
  8
CSLAYER1
  6
CONTINUOUS
 62
     6
 10
244.838477
 20
147.845529
 11
244.910749
 21
147.826232
  0
LINE
  8
CSLAYER1
  6
CONTINUOUS
 62
     6
 10
244.910749
 20
147.826232
 11
244.982776
 21
147.806724
  0
LINE
  8
CSLAYER1
  6
CONTINUOUS
 62
     6
 10
244.982776
 20
147.806724
 11
245.054608
 21
147.787045
  0
LINE
  8
CSLAYER1
  6
CONTINUOUS
 62
     6
 10
245.054608
 20
147.787045
 11
245.126293
 21
147.767240
  0
LINE
  8
CSLAYER1
  6
CONTINUOUS
 62
     6
 10
245.126293
 20
147.767240
 11
245.197881
 21
147.747350
  0
LINE
  8
CSLAYER1
  6
CONTINUOUS
 62
     6
 10
245.197881
 20
147.747350
 11
245.278500
 21
147.724887
  0
LINE
  8
CSLAYER1
  6
CONTINUOUS
 62
     6
 10
245.278500
 20
147.724887
 11
245.405756
 21
147.897037
  0
LINE
  8
CSLAYER1
  6
CONTINUOUS
 62
     6
 10
245.405756
 20
147.897037
 11
245.500535
 21
148.024199
  0
LINE
  8
CSLAYER1
  6
CONTINUOUS
 62
     6
 10
245.500535
 20
148.024199
 11
245.596187
 21
148.150431
  0
LINE
  8
CSLAYER1
  6
CONTINUOUS
 62
     6
 10
245.596187
 20
148.150431
 11
245.693145
 21
148.275267
  0
LINE
  8
CSLAYER1
  6
CONTINUOUS
 62
     6
 10
245.693145
 20
148.275267
 11
245.791848
 21
148.398241
  0
LINE
  8
CSLAYER1
  6
CONTINUOUS
 62
     6
 10
245.791848
 20
148.398241
 11
245.892729
 21
148.518890
  0
LINE
  8
CSLAYER1
  6
CONTINUOUS
 62
     6
 10
245.892729
 20
148.518890
 11
245.996225
 21
148.636747
  0
LINE
  8
CSLAYER1
  6
CONTINUOUS
 62
     6
 10
245.996225
 20
148.636747
 11
246.102773
 21
148.751347
  0
LINE
  8
CSLAYER1
  6
CONTINUOUS
 62
     6
 10
246.102773
 20
148.751347
 11
246.212807
 21
148.862225
  0
LINE
  8
CSLAYER1
  6
CONTINUOUS
 62
     6
 10
246.212807
 20
148.862225
 11
246.326764
 21
148.968916
  0
LINE
  8
CSLAYER1
  6
CONTINUOUS
 62
     6
 10
246.326764
 20
148.968916
 11
246.445079
 21
149.070954
  0
LINE
  8
CSLAYER1
  6
CONTINUOUS
 62
     6
 10
246.445079
 20
149.070954
 11
246.596504
 21
149.189992
  0
LINE
  8
CSLAYER1
  6
CONTINUOUS
 62
     6
 10
246.596504
 20
149.189992
 11
246.754743
 21
149.304504
  0
LINE
  8
CSLAYER1
  6
CONTINUOUS
 62
     6
 10
246.754743
 20
149.304504
 11
246.917864
 21
149.415444
  0
LINE
  8
CSLAYER1
  6
CONTINUOUS
 62
     6
 10
246.917864
 20
149.415444
 11
247.083932
 21
149.523762
  0
LINE
  8
CSLAYER1
  6
CONTINUOUS
 62
     6
 10
247.083932
 20
149.523762
 11
247.251014
 21
149.630412
  0
LINE
  8
CSLAYER1
  6
CONTINUOUS
 62
     6
 10
247.251014
 20
149.630412
 11
247.417175
 21
149.736345
  0
LINE
  8
CSLAYER1
  6
CONTINUOUS
 62
     6
 10
247.417175
 20
149.736345
 11
247.580482
 21
149.842512
  0
LINE
  8
CSLAYER1
  6
CONTINUOUS
 62
     6
 10
247.580482
 20
149.842512
 11
247.739000
 21
149.949867
  0
LINE
  8
CSLAYER1
  6
CONTINUOUS
 62
     6
 10
247.739000
 20
149.949867
 11
247.890795
 21
150.059361
  0
LINE
  8
CSLAYER1
  6
CONTINUOUS
 62
     6
 10
247.890795
 20
150.059361
 11
248.033935
 21
150.171946
  0
LINE
  8
CSLAYER1
  6
CONTINUOUS
 62
     6
 10
248.033935
 20
150.171946
 11
248.166484
 21
150.288575
  0
LINE
  8
CSLAYER1
  6
CONTINUOUS
 62
     6
 10
248.166484
 20
150.288575
 11
248.269489
 21
150.391589
  0
LINE
  8
CSLAYER1
  6
CONTINUOUS
 62
     6
 10
248.269489
 20
150.391589
 11
248.371153
 21
150.505025
  0
LINE
  8
CSLAYER1
  6
CONTINUOUS
 62
     6
 10
248.371153
 20
150.505025
 11
248.470907
 21
150.627193
  0
LINE
  8
CSLAYER1
  6
CONTINUOUS
 62
     6
 10
248.470907
 20
150.627193
 11
248.568185
 21
150.756401
  0
LINE
  8
CSLAYER1
  6
CONTINUOUS
 62
     6
 10
248.568185
 20
150.756401
 11
248.662420
 21
150.890962
  0
LINE
  8
CSLAYER1
  6
CONTINUOUS
 62
     6
 10
248.662420
 20
150.890962
 11
248.753044
 21
151.029183
  0
LINE
  8
CSLAYER1
  6
CONTINUOUS
 62
     6
 10
248.753044
 20
151.029183
 11
248.839491
 21
151.169376
  0
LINE
  8
CSLAYER1
  6
CONTINUOUS
 62
     6
 10
248.839491
 20
151.169376
 11
248.921192
 21
151.309851
  0
LINE
  8
CSLAYER1
  6
CONTINUOUS
 62
     6
 10
248.921192
 20
151.309851
 11
248.997581
 21
151.448917
  0
LINE
  8
CSLAYER1
  6
CONTINUOUS
 62
     6
 10
248.997581
 20
151.448917
 11
249.068090
 21
151.584885
  0
LINE
  8
CSLAYER1
  6
CONTINUOUS
 62
     6
 10
249.068090
 20
151.584885
 11
249.173350
 21
151.800426
  0
ARC
  8
CSLAYER1
  6
CONTINUOUS
 62
     6
 10
248.247239
 20
151.244348
 40
1.080690
 50
30.945197
 51
90.945197
  0
ARC
  8
CSLAYER1
  6
CONTINUOUS
 62
     6
 10
247.302548
 20
151.769181
 40
1.080690
 50
30.945197
 51
90.945197
  0
ARC
  8
CSLAYER1
  6
CONTINUOUS
 62
     6
 10
248.211585
 20
153.405434
 40
1.080690
 50
210.945197
 51
270.945197
  0
LINE
  8
CSLAYER1
  6
CONTINUOUS
 62
     6
 10
247.284740
 20
152.849701
 11
247.140037
 21
152.710355
  0
LINE
  8
CSLAYER1
  6
CONTINUOUS
 62
     6
 10
247.140037
 20
152.710355
 11
246.986123
 21
152.560605
  0
LINE
  8
CSLAYER1
  6
CONTINUOUS
 62
     6
 10
246.986123
 20
152.560605
 11
246.824772
 21
152.402777
  0
LINE
  8
CSLAYER1
  6
CONTINUOUS
 62
     6
 10
246.824772
 20
152.402777
 11
246.657762
 21
152.239195
  0
ARC
  8
CSLAYER1
  6
CONTINUOUS
 62
     6
 10
249.758680
 20
154.253549
 40
1.095863
 50
203.568976
 51
263.568976
  0
ARC
  8
CSLAYER1
  6
CONTINUOUS
 62
     6
 10
250.640381
 20
153.602766
 40
1.095863
 50
203.568976
 51
263.568976
  0
ARC
  8
CSLAYER1
  6
CONTINUOUS
 62
     6
 10
249.513192
 20
152.075615
 40
1.095863
 50
23.568976
 51
83.568976
  0
LINE
  8
CSLAYER1
  6
CONTINUOUS
 62
     6
 10
249.007365
 20
153.995336
 11
248.754253
 21
153.815369
  0
LINE
  8
CSLAYER1
  6
CONTINUOUS
 62
     6
 10
249.007365
 20
153.995336
 11
249.260226
 21
154.175656
  0
LINE
  8
CSLAYER1
  6
CONTINUOUS
 62
     6
 10
249.260226
 20
154.175656
 11
249.512586
 21
154.356682
  0
LINE
  8
CSLAYER1
  6
CONTINUOUS
 62
     6
 10
249.512586
 20
154.356682
 11
249.764194
 21
154.538765
  0
LINE
  8
CSLAYER1
  6
CONTINUOUS
 62
     6
 10
249.764194
 20
154.538765
 11
250.014799
 21
154.722261
  0
LINE
  8
CSLAYER1
  6
CONTINUOUS
 62
     6
 10
250.014799
 20
154.722261
 11
250.264152
 21
154.907519
  0
LINE
  8
CSLAYER1
  6
CONTINUOUS
 62
     6
 10
250.264152
 20
154.907519
 11
250.512001
 21
155.094895
  0
LINE
  8
CSLAYER1
  6
CONTINUOUS
 62
     6
 10
250.512001
 20
155.094895
 11
250.758095
 21
155.284740
  0
LINE
  8
CSLAYER1
  6
CONTINUOUS
 62
     6
 10
250.758095
 20
155.284740
 11
251.002185
 21
155.477407
  0
LINE
  8
CSLAYER1
  6
CONTINUOUS
 62
     6
 10
251.002185
 20
155.477407
 11
251.244020
 21
155.673250
  0
LINE
  8
CSLAYER1
  6
CONTINUOUS
 62
     6
 10
251.244020
 20
155.673250
 11
251.483348
 21
155.872620
  0
LINE
  8
CSLAYER1
  6
CONTINUOUS
 62
     6
 10
251.483348
 20
155.872620
 11
251.640613
 21
156.006917
  0
LINE
  8
CSLAYER1
  6
CONTINUOUS
 62
     6
 10
251.640613
 20
156.006917
 11
251.797662
 21
156.143941
  0
LINE
  8
CSLAYER1
  6
CONTINUOUS
 62
     6
 10
251.797662
 20
156.143941
 11
251.953753
 21
156.283501
  0
LINE
  8
CSLAYER1
  6
CONTINUOUS
 62
     6
 10
251.953753
 20
156.283501
 11
252.108142
 21
156.425403
  0
LINE
  8
CSLAYER1
  6
CONTINUOUS
 62
     6
 10
252.108142
 20
156.425403
 11
252.260087
 21
156.569456
  0
LINE
  8
CSLAYER1
  6
CONTINUOUS
 62
     6
 10
252.260087
 20
156.569456
 11
252.408844
 21
156.715466
  0
LINE
  8
CSLAYER1
  6
CONTINUOUS
 62
     6
 10
252.408844
 20
156.715466
 11
252.553670
 21
156.863241
  0
LINE
  8
CSLAYER1
  6
CONTINUOUS
 62
     6
 10
252.553670
 20
156.863241
 11
252.693823
 21
157.012588
  0
LINE
  8
CSLAYER1
  6
CONTINUOUS
 62
     6
 10
252.693823
 20
157.012588
 11
252.828558
 21
157.163316
  0
LINE
  8
CSLAYER1
  6
CONTINUOUS
 62
     6
 10
252.828558
 20
157.163316
 11
252.957134
 21
157.315230
  0
LINE
  8
CSLAYER1
  6
CONTINUOUS
 62
     6
 10
252.957134
 20
157.315230
 11
253.078807
 21
157.468140
  0
LINE
  8
CSLAYER1
  6
CONTINUOUS
 62
     6
 10
253.078807
 20
157.468140
 11
253.193262
 21
157.619466
  0
LINE
  8
CSLAYER1
  6
CONTINUOUS
 62
     6
 10
253.193262
 20
157.619466
 11
253.308562
 21
157.776720
  0
LINE
  8
CSLAYER1
  6
CONTINUOUS
 62
     6
 10
253.308562
 20
157.776720
 11
253.424175
 21
157.938778
  0
LINE
  8
CSLAYER1
  6
CONTINUOUS
 62
     6
 10
253.424175
 20
157.938778
 11
253.539568
 21
158.104517
  0
LINE
  8
CSLAYER1
  6
CONTINUOUS
 62
     6
 10
253.539568
 20
158.104517
 11
253.654208
 21
158.272817
  0
LINE
  8
CSLAYER1
  6
CONTINUOUS
 62
     6
 10
253.654208
 20
158.272817
 11
253.767563
 21
158.442553
  0
LINE
  8
CSLAYER1
  6
CONTINUOUS
 62
     6
 10
253.767563
 20
158.442553
 11
253.879098
 21
158.612604
  0
LINE
  8
CSLAYER1
  6
CONTINUOUS
 62
     6
 10
253.879098
 20
158.612604
 11
253.988282
 21
158.781846
  0
LINE
  8
CSLAYER1
  6
CONTINUOUS
 62
     6
 10
253.988282
 20
158.781846
 11
254.094582
 21
158.949158
  0
LINE
  8
CSLAYER1
  6
CONTINUOUS
 62
     6
 10
254.094582
 20
158.949158
 11
254.197465
 21
159.113416
  0
LINE
  8
CSLAYER1
  6
CONTINUOUS
 62
     6
 10
254.197465
 20
159.113416
 11
254.296398
 21
159.273499
  0
LINE
  8
CSLAYER1
  6
CONTINUOUS
 62
     6
 10
254.296398
 20
159.273499
 11
254.382872
 21
159.411725
  0
LINE
  8
CSLAYER1
  6
CONTINUOUS
 62
     6
 10
254.382872
 20
159.411725
 11
254.474823
 21
159.554183
  0
LINE
  8
CSLAYER1
  6
CONTINUOUS
 62
     6
 10
254.474823
 20
159.554183
 11
254.571023
 21
159.699663
  0
LINE
  8
CSLAYER1
  6
CONTINUOUS
 62
     6
 10
254.571023
 20
159.699663
 11
254.670242
 21
159.846953
  0
LINE
  8
CSLAYER1
  6
CONTINUOUS
 62
     6
 10
254.670242
 20
159.846953
 11
254.771251
 21
159.994843
  0
LINE
  8
CSLAYER1
  6
CONTINUOUS
 62
     6
 10
254.771251
 20
159.994843
 11
254.872819
 21
160.142121
  0
LINE
  8
CSLAYER1
  6
CONTINUOUS
 62
     6
 10
254.872819
 20
160.142121
 11
254.973717
 21
160.287578
  0
LINE
  8
CSLAYER1
  6
CONTINUOUS
 62
     6
 10
254.973717
 20
160.287578
 11
255.072715
 21
160.430002
  0
LINE
  8
CSLAYER1
  6
CONTINUOUS
 62
     6
 10
255.072715
 20
160.430002
 11
255.168585
 21
160.568182
  0
LINE
  8
CSLAYER1
  6
CONTINUOUS
 62
     6
 10
255.168585
 20
160.568182
 11
255.289127
 21
160.743012
  0
ARC
  8
CSLAYER1
  6
CONTINUOUS
 62
     6
 10
253.023923
 20
162.743012
 40
2.000000
 50
180.000000
 51
270.000000
  0
LINE
  8
CSLAYER1
  6
CONTINUOUS
 62
     6
 10
251.023923
 20
162.743012
 11
251.023923
 21
163.243012
  0
LINE
  8
CSLAYER1
  6
CONTINUOUS
 62
     6
 10
250.773923
 20
163.243012
 11
276.773923
 21
163.243012
  0
LINE
  8
CSLAYER1
  6
CONTINUOUS
 62
     6
 10
276.773923
 20
165.243012
 11
250.773923
 21
165.243012
  0
LINE
  8
CSLAYER1
  6
CONTINUOUS
 62
     6
 10
253.023923
 20
160.743012
 11
262.112548
 21
160.743012
  0
ARC
  8
CSLAYER1
  6
CONTINUOUS
 62
     6
 10
263.773923
 20
167.543000
 40
7.000000
 50
253.743003
 51
286.257026
  0
ARC
  8
CSLAYER1
  6
CONTINUOUS
 62
     6
 10
265.453580
 20
161.782929
 40
1.000000
 50
286.257408
 51
354.999902
  0
LINE
  8
CSLAYER1
  6
CONTINUOUS
 62
     6
 10
266.449765
 20
161.695771
 11
266.504880
 21
162.325592
  0
ARC
  8
CSLAYER1
  6
CONTINUOUS
 62
     6
 10
266.305661
 20
162.343018
 40
0.200000
 50
-5.000126
 51
90.000019
  0
LINE
  8
CSLAYER1
  6
CONTINUOUS
 62
     6
 10
266.573911
 20
162.543030
 11
263.773923
 21
162.543000
  0
LINE
  8
CSLAYER1
  6
CONTINUOUS
 62
     6
 10
263.773923
 20
162.543000
 11
260.973935
 21
162.543000
  0
ARC
  8
CSLAYER1
  6
CONTINUOUS
 62
     6
 10
260.973935
 20
162.643006
 40
0.100000
 50
180.000005
 51
270.000001
  0
LINE
  8
CSLAYER1
  6
CONTINUOUS
 62
     6
 10
260.873899
 20
162.643006
 11
260.873899
 21
163.143006
  0
ARC
  8
CSLAYER1
  6
CONTINUOUS
 62
     6
 10
260.973935
 20
163.143006
 40
0.100000
 50
90.000003
 51
180.000005
  0
ARC
  8
CSLAYER1
  6
CONTINUOUS
 62
     6
 10
261.242185
 20
162.343018
 40
0.200000
 50
90.000003
 51
185.000154
  0
LINE
  8
CSLAYER1
  6
CONTINUOUS
 62
     6
 10
261.042935
 20
162.325592
 11
261.098020
 21
161.695771
  0
ARC
  8
CSLAYER1
  6
CONTINUOUS
 62
     6
 10
262.094235
 20
161.782929
 40
1.000000
 50
185.000113
 51
253.742620
  0
LINE
  8
CSLAYER1
  6
CONTINUOUS
 62
     6
 10
260.202545
 20
160.743012
 11
260.037428
 21
159.724968
  0
LINE
  8
CSLAYER1
  6
CONTINUOUS
 62
     6
 10
260.037428
 20
159.724968
 11
259.979293
 21
159.402541
  0
LINE
  8
CSLAYER1
  6
CONTINUOUS
 62
     6
 10
259.979293
 20
159.402541
 11
259.914440
 21
159.070731
  0
LINE
  8
CSLAYER1
  6
CONTINUOUS
 62
     6
 10
259.914440
 20
159.070731
 11
259.844064
 21
158.732935
  0
LINE
  8
CSLAYER1
  6
CONTINUOUS
 62
     6
 10
259.844064
 20
158.732935
 11
259.769361
 21
158.392547
  0
LINE
  8
CSLAYER1
  6
CONTINUOUS
 62
     6
 10
259.769361
 20
158.392547
 11
259.691525
 21
158.052963
  0
LINE
  8
CSLAYER1
  6
CONTINUOUS
 62
     6
 10
259.691525
 20
158.052963
 11
259.611751
 21
157.717578
  0
LINE
  8
CSLAYER1
  6
CONTINUOUS
 62
     6
 10
259.611751
 20
157.717578
 11
259.531234
 21
157.389787
  0
LINE
  8
CSLAYER1
  6
CONTINUOUS
 62
     6
 10
259.531234
 20
157.389787
 11
259.451170
 21
157.072986
  0
LINE
  8
CSLAYER1
  6
CONTINUOUS
 62
     6
 10
259.451170
 20
157.072986
 11
259.372753
 21
156.770569
  0
LINE
  8
CSLAYER1
  6
CONTINUOUS
 62
     6
 10
259.372753
 20
156.770569
 11
259.289381
 21
156.470819
  0
LINE
  8
CSLAYER1
  6
CONTINUOUS
 62
     6
 10
259.289381
 20
156.470819
 11
259.195467
 21
156.165295
  0
LINE
  8
CSLAYER1
  6
CONTINUOUS
 62
     6
 10
259.195467
 20
156.165295
 11
259.091882
 21
155.855255
  0
LINE
  8
CSLAYER1
  6
CONTINUOUS
 62
     6
 10
259.091882
 20
155.855255
 11
258.979494
 21
155.541960
  0
LINE
  8
CSLAYER1
  6
CONTINUOUS
 62
     6
 10
258.979494
 20
155.541960
 11
258.859172
 21
155.226669
  0
LINE
  8
CSLAYER1
  6
CONTINUOUS
 62
     6
 10
258.859172
 20
155.226669
 11
258.731785
 21
154.910640
  0
LINE
  8
CSLAYER1
  6
CONTINUOUS
 62
     6
 10
258.731785
 20
154.910640
 11
258.598203
 21
154.595135
  0
LINE
  8
CSLAYER1
  6
CONTINUOUS
 62
     6
 10
258.598203
 20
154.595135
 11
258.459294
 21
154.281411
  0
LINE
  8
CSLAYER1
  6
CONTINUOUS
 62
     6
 10
258.459294
 20
154.281411
 11
258.315927
 21
153.970729
  0
LINE
  8
CSLAYER1
  6
CONTINUOUS
 62
     6
 10
258.315927
 20
153.970729
 11
258.168972
 21
153.664347
  0
LINE
  8
CSLAYER1
  6
CONTINUOUS
 62
     6
 10
258.168972
 20
153.664347
 11
258.019298
 21
153.363526
  0
LINE
  8
CSLAYER1
  6
CONTINUOUS
 62
     6
 10
258.019298
 20
153.363526
 11
257.891953
 21
153.115906
  0
LINE
  8
CSLAYER1
  6
CONTINUOUS
 62
     6
 10
257.891953
 20
153.115906
 11
257.761801
 21
152.869872
  0
LINE
  8
CSLAYER1
  6
CONTINUOUS
 62
     6
 10
257.761801
 20
152.869872
 11
257.629123
 21
152.625266
  0
LINE
  8
CSLAYER1
  6
CONTINUOUS
 62
     6
 10
257.629123
 20
152.625266
 11
257.494198
 21
152.381929
  0
LINE
  8
CSLAYER1
  6
CONTINUOUS
 62
     6
 10
257.494198
 20
152.381929
 11
257.357307
 21
152.139702
  0
LINE
  8
CSLAYER1
  6
CONTINUOUS
 62
     6
 10
257.357307
 20
152.139702
 11
257.218733
 21
151.898427
  0
LINE
  8
CSLAYER1
  6
CONTINUOUS
 62
     6
 10
257.218733
 20
151.898427
 11
257.078754
 21
151.657945
  0
LINE
  8
CSLAYER1
  6
CONTINUOUS
 62
     6
 10
257.078754
 20
151.657945
 11
256.937653
 21
151.418097
  0
LINE
  8
CSLAYER1
  6
CONTINUOUS
 62
     6
 10
256.937653
 20
151.418097
 11
256.795709
 21
151.178726
  0
LINE
  8
CSLAYER1
  6
CONTINUOUS
 62
     6
 10
256.795709
 20
151.178726
 11
256.653204
 21
150.939672
  0
LINE
  8
CSLAYER1
  6
CONTINUOUS
 62
     6
 10
256.653204
 20
150.939672
 11
256.510418
 21
150.700776
  0
ARC
  8
CSLAYER1
  6
CONTINUOUS
 62
     6
 10
256.500752
 20
151.900744
 40
1.200008
 50
210.461486
 51
270.461486
  0
ARC
  8
CSLAYER1
  6
CONTINUOUS
 62
     6
 10
255.456716
 20
152.492358
 40
1.200008
 50
210.461486
 51
270.461486
  0
LINE
  8
CSLAYER1
  6
CONTINUOUS
 62
     6
 10
254.422313
 20
151.884003
 11
254.557595
 21
152.109925
  0
LINE
  8
CSLAYER1
  6
CONTINUOUS
 62
     6
 10
254.557595
 20
152.109925
 11
254.692601
 21
152.336001
  0
LINE
  8
CSLAYER1
  6
CONTINUOUS
 62
     6
 10
254.692601
 20
152.336001
 11
254.827057
 21
152.562387
  0
LINE
  8
CSLAYER1
  6
CONTINUOUS
 62
     6
 10
254.827057
 20
152.562387
 11
254.960688
 21
152.789237
  0
LINE
  8
CSLAYER1
  6
CONTINUOUS
 62
     6
 10
254.960688
 20
152.789237
 11
255.093217
 21
153.016705
  0
LINE
  8
CSLAYER1
  6
CONTINUOUS
 62
     6
 10
255.093217
 20
153.016705
 11
255.224371
 21
153.244947
  0
LINE
  8
CSLAYER1
  6
CONTINUOUS
 62
     6
 10
255.224371
 20
153.244947
 11
255.353873
 21
153.474117
  0
LINE
  8
CSLAYER1
  6
CONTINUOUS
 62
     6
 10
255.353873
 20
153.474117
 11
255.481449
 21
153.704369
  0
LINE
  8
CSLAYER1
  6
CONTINUOUS
 62
     6
 10
255.481449
 20
153.704369
 11
255.606823
 21
153.935858
  0
LINE
  8
CSLAYER1
  6
CONTINUOUS
 62
     6
 10
255.606823
 20
153.935858
 11
255.729720
 21
154.168740
  0
LINE
  8
CSLAYER1
  6
CONTINUOUS
 62
     6
 10
255.729720
 20
154.168740
 11
255.849865
 21
154.403168
  0
LINE
  8
CSLAYER1
  6
CONTINUOUS
 62
     6
 10
255.849865
 20
154.403168
 11
255.984106
 21
154.673973
  0
LINE
  8
CSLAYER1
  6
CONTINUOUS
 62
     6
 10
255.984106
 20
154.673973
 11
256.115969
 21
154.949738
  0
LINE
  8
CSLAYER1
  6
CONTINUOUS
 62
     6
 10
256.115969
 20
154.949738
 11
256.244676
 21
155.229332
  0
LINE
  8
CSLAYER1
  6
CONTINUOUS
 62
     6
 10
256.244676
 20
155.229332
 11
256.369451
 21
155.511622
  0
LINE
  8
CSLAYER1
  6
CONTINUOUS
 62
     6
 10
256.369451
 20
155.511622
 11
256.489514
 21
155.795478
  0
LINE
  8
CSLAYER1
  6
CONTINUOUS
 62
     6
 10
256.489514
 20
155.795478
 11
256.604089
 21
156.079768
  0
LINE
  8
CSLAYER1
  6
CONTINUOUS
 62
     6
 10
256.604089
 20
156.079768
 11
256.712398
 21
156.363361
  0
LINE
  8
CSLAYER1
  6
CONTINUOUS
 62
     6
 10
256.712398
 20
156.363361
 11
256.813663
 21
156.645126
  0
LINE
  8
CSLAYER1
  6
CONTINUOUS
 62
     6
 10
256.813663
 20
156.645126
 11
256.907108
 21
156.923932
  0
LINE
  8
CSLAYER1
  6
CONTINUOUS
 62
     6
 10
256.907108
 20
156.923932
 11
256.991954
 21
157.198647
  0
LINE
  8
CSLAYER1
  6
CONTINUOUS
 62
     6
 10
256.991954
 20
157.198647
 11
257.067424
 21
157.468140
  0
LINE
  8
CSLAYER1
  6
CONTINUOUS
 62
     6
 10
257.067424
 20
157.468140
 11
257.141964
 21
157.753579
  0
LINE
  8
CSLAYER1
  6
CONTINUOUS
 62
     6
 10
257.141964
 20
157.753579
 11
257.217972
 21
158.052757
  0
LINE
  8
CSLAYER1
  6
CONTINUOUS
 62
     6
 10
257.217972
 20
158.052757
 11
257.294316
 21
158.362423
  0
LINE
  8
CSLAYER1
  6
CONTINUOUS
 62
     6
 10
257.294316
 20
158.362423
 11
257.369862
 21
158.679323
  0
LINE
  8
CSLAYER1
  6
CONTINUOUS
 62
     6
 10
257.369862
 20
158.679323
 11
257.443478
 21
159.000205
  0
LINE
  8
CSLAYER1
  6
CONTINUOUS
 62
     6
 10
257.443478
 20
159.000205
 11
257.514030
 21
159.321816
  0
LINE
  8
CSLAYER1
  6
CONTINUOUS
 62
     6
 10
257.514030
 20
159.321816
 11
257.580387
 21
159.640904
  0
LINE
  8
CSLAYER1
  6
CONTINUOUS
 62
     6
 10
257.580387
 20
159.640904
 11
257.641415
 21
159.954215
  0
LINE
  8
CSLAYER1
  6
CONTINUOUS
 62
     6
 10
257.641415
 20
159.954215
 11
257.695982
 21
160.258498
  0
LINE
  8
CSLAYER1
  6
CONTINUOUS
 62
     6
 10
257.695982
 20
160.258498
 11
257.773923
 21
160.743012
  0
LINE
  8
CSLAYER1
  6
CONTINUOUS
 62
     6
 10
257.645522
 20
159.977118
 11
257.597276
 21
159.889284
  0
LINE
  8
CSLAYER1
  6
CONTINUOUS
 62
     6
 10
257.597276
 20
159.889284
 11
257.487389
 21
159.697475
  0
LINE
  8
CSLAYER1
  6
CONTINUOUS
 62
     6
 10
257.487389
 20
159.697475
 11
257.369135
 21
159.497988
  0
LINE
  8
CSLAYER1
  6
CONTINUOUS
 62
     6
 10
257.369135
 20
159.497988
 11
257.244096
 21
159.293008
  0
LINE
  8
CSLAYER1
  6
CONTINUOUS
 62
     6
 10
257.244096
 20
159.293008
 11
257.113855
 21
159.084722
  0
LINE
  8
CSLAYER1
  6
CONTINUOUS
 62
     6
 10
257.113855
 20
159.084722
 11
256.979993
 21
158.875317
  0
LINE
  8
CSLAYER1
  6
CONTINUOUS
 62
     6
 10
256.979993
 20
158.875317
 11
256.844090
 21
158.666977
  0
LINE
  8
CSLAYER1
  6
CONTINUOUS
 62
     6
 10
256.844090
 20
158.666977
 11
256.707730
 21
158.461889
  0
LINE
  8
CSLAYER1
  6
CONTINUOUS
 62
     6
 10
256.707730
 20
158.461889
 11
256.572494
 21
158.262240
  0
LINE
  8
CSLAYER1
  6
CONTINUOUS
 62
     6
 10
256.572494
 20
158.262240
 11
256.439962
 21
158.070215
  0
LINE
  8
CSLAYER1
  6
CONTINUOUS
 62
     6
 10
256.439962
 20
158.070215
 11
256.311718
 21
157.888001
  0
LINE
  8
CSLAYER1
  6
CONTINUOUS
 62
     6
 10
256.311718
 20
157.888001
 11
256.206638
 21
157.743822
  0
LINE
  8
CSLAYER1
  6
CONTINUOUS
 62
     6
 10
256.206638
 20
157.743822
 11
256.094747
 21
157.596772
  0
LINE
  8
CSLAYER1
  6
CONTINUOUS
 62
     6
 10
256.094747
 20
157.596772
 11
255.977178
 21
157.447750
  0
LINE
  8
CSLAYER1
  6
CONTINUOUS
 62
     6
 10
255.977178
 20
157.447750
 11
255.855065
 21
157.297656
  0
LINE
  8
CSLAYER1
  6
CONTINUOUS
 62
     6
 10
255.855065
 20
157.297656
 11
255.729539
 21
157.147387
  0
LINE
  8
CSLAYER1
  6
CONTINUOUS
 62
     6
 10
255.729539
 20
157.147387
 11
255.601734
 21
156.997845
  0
LINE
  8
CSLAYER1
  6
CONTINUOUS
 62
     6
 10
255.601734
 20
156.997845
 11
255.472781
 21
156.849927
  0
LINE
  8
CSLAYER1
  6
CONTINUOUS
 62
     6
 10
255.472781
 20
156.849927
 11
255.343814
 21
156.704532
  0
LINE
  8
CSLAYER1
  6
CONTINUOUS
 62
     6
 10
255.343814
 20
156.704532
 11
255.215964
 21
156.562560
  0
LINE
  8
CSLAYER1
  6
CONTINUOUS
 62
     6
 10
255.215964
 20
156.562560
 11
255.090366
 21
156.424910
  0
LINE
  8
CSLAYER1
  6
CONTINUOUS
 62
     6
 10
255.090366
 20
156.424910
 11
254.968151
 21
156.292481
  0
LINE
  8
CSLAYER1
  6
CONTINUOUS
 62
     6
 10
254.968151
 20
156.292481
 11
254.823175
 21
156.140321
  0
LINE
  8
CSLAYER1
  6
CONTINUOUS
 62
     6
 10
254.823175
 20
156.140321
 11
254.670000
 21
155.986370
  0
LINE
  8
CSLAYER1
  6
CONTINUOUS
 62
     6
 10
254.670000
 20
155.986370
 11
254.510591
 21
155.830936
  0
LINE
  8
CSLAYER1
  6
CONTINUOUS
 62
     6
 10
254.510591
 20
155.830936
 11
254.346914
 21
155.674328
  0
LINE
  8
CSLAYER1
  6
CONTINUOUS
 62
     6
 10
254.346914
 20
155.674328
 11
254.180934
 21
155.516855
  0
LINE
  8
CSLAYER1
  6
CONTINUOUS
 62
     6
 10
254.180934
 20
155.516855
 11
254.014616
 21
155.358824
  0
LINE
  8
CSLAYER1
  6
CONTINUOUS
 62
     6
 10
254.014616
 20
155.358824
 11
253.849926
 21
155.200544
  0
LINE
  8
CSLAYER1
  6
CONTINUOUS
 62
     6
 10
253.849926
 20
155.200544
 11
253.688829
 21
155.042324
  0
LINE
  8
CSLAYER1
  6
CONTINUOUS
 62
     6
 10
253.688829
 20
155.042324
 11
253.533289
 21
154.884472
  0
LINE
  8
CSLAYER1
  6
CONTINUOUS
 62
     6
 10
253.533289
 20
154.884472
 11
253.385273
 21
154.727296
  0
LINE
  8
CSLAYER1
  6
CONTINUOUS
 62
     6
 10
253.385273
 20
154.727296
 11
253.246746
 21
154.571106
  0
LINE
  8
CSLAYER1
  6
CONTINUOUS
 62
     6
 10
253.246746
 20
154.571106
 11
253.120831
 21
154.424524
  0
LINE
  8
CSLAYER1
  6
CONTINUOUS
 62
     6
 10
253.120831
 20
154.424524
 11
252.990021
 21
154.274345
  0
LINE
  8
CSLAYER1
  6
CONTINUOUS
 62
     6
 10
252.990021
 20
154.274345
 11
252.854419
 21
154.122126
  0
LINE
  8
CSLAYER1
  6
CONTINUOUS
 62
     6
 10
252.854419
 20
154.122126
 11
252.714125
 21
153.969421
  0
LINE
  8
CSLAYER1
  6
CONTINUOUS
 62
     6
 10
252.714125
 20
153.969421
 11
252.569242
 21
153.817788
  0
LINE
  8
CSLAYER1
  6
CONTINUOUS
 62
     6
 10
252.569242
 20
153.817788
 11
252.419872
 21
153.668781
  0
LINE
  8
CSLAYER1
  6
CONTINUOUS
 62
     6
 10
252.419872
 20
153.668781
 11
252.266115
 21
153.523957
  0
LINE
  8
CSLAYER1
  6
CONTINUOUS
 62
     6
 10
252.266115
 20
153.523957
 11
252.108075
 21
153.384872
  0
LINE
  8
CSLAYER1
  6
CONTINUOUS
 62
     6
 10
252.108075
 20
153.384872
 11
251.945851
 21
153.253082
  0
LINE
  8
CSLAYER1
  6
CONTINUOUS
 62
     6
 10
251.945851
 20
153.253082
 11
251.779547
 21
153.130142
  0
LINE
  8
CSLAYER1
  6
CONTINUOUS
 62
     6
 10
251.779547
 20
153.130142
 11
251.609264
 21
153.017609
  0
LINE
  8
CSLAYER1
  6
CONTINUOUS
 62
     6
 10
251.609264
 20
153.017609
 11
251.516530
 21
152.962183
  0
LINE
  8
CSLAYER1
  6
CONTINUOUS
 62
     6
 10
251.516530
 20
152.962183
 11
251.421938
 21
152.909506
  0
LINE
  8
CSLAYER1
  6
CONTINUOUS
 62
     6
 10
251.421938
 20
152.909506
 11
251.325673
 21
152.859305
  0
LINE
  8
CSLAYER1
  6
CONTINUOUS
 62
     6
 10
251.325673
 20
152.859305
 11
251.227922
 21
152.811303
  0
LINE
  8
CSLAYER1
  6
CONTINUOUS
 62
     6
 10
251.227922
 20
152.811303
 11
251.128870
 21
152.765227
  0
LINE
  8
CSLAYER1
  6
CONTINUOUS
 62
     6
 10
251.128870
 20
152.765227
 11
251.028703
 21
152.720801
  0
LINE
  8
CSLAYER1
  6
CONTINUOUS
 62
     6
 10
251.028703
 20
152.720801
 11
250.927608
 21
152.677749
  0
LINE
  8
CSLAYER1
  6
CONTINUOUS
 62
     6
 10
250.927608
 20
152.677749
 11
250.825769
 21
152.635798
  0
LINE
  8
CSLAYER1
  6
CONTINUOUS
 62
     6
 10
250.825769
 20
152.635798
 11
250.723372
 21
152.594672
  0
LINE
  8
CSLAYER1
  6
CONTINUOUS
 62
     6
 10
250.723372
 20
152.594672
 11
250.620604
 21
152.554095
  0
LINE
  8
CSLAYER1
  6
CONTINUOUS
 62
     6
 10
250.620604
 20
152.554095
 11
250.517650
 21
152.513794
  0
LINE
  8
CSLAYER1
  6
CONTINUOUS
 62
     6
 10
253.416415
 20
150.193162
 11
253.281613
 21
150.027850
  0
LINE
  8
CSLAYER1
  6
CONTINUOUS
 62
     6
 10
253.281613
 20
150.027850
 11
253.143056
 21
149.856197
  0
LINE
  8
CSLAYER1
  6
CONTINUOUS
 62
     6
 10
253.143056
 20
149.856197
 11
253.002780
 21
149.679776
  0
LINE
  8
CSLAYER1
  6
CONTINUOUS
 62
     6
 10
253.002780
 20
149.679776
 11
252.862823
 21
149.500158
  0
LINE
  8
CSLAYER1
  6
CONTINUOUS
 62
     6
 10
252.862823
 20
149.500158
 11
252.725220
 21
149.318914
  0
LINE
  8
CSLAYER1
  6
CONTINUOUS
 62
     6
 10
252.725220
 20
149.318914
 11
252.592008
 21
149.137618
  0
LINE
  8
CSLAYER1
  6
CONTINUOUS
 62
     6
 10
252.592008
 20
149.137618
 11
252.465224
 21
148.957841
  0
LINE
  8
CSLAYER1
  6
CONTINUOUS
 62
     6
 10
252.465224
 20
148.957841
 11
252.346904
 21
148.781154
  0
LINE
  8
CSLAYER1
  6
CONTINUOUS
 62
     6
 10
252.346904
 20
148.781154
 11
252.239086
 21
148.609131
  0
LINE
  8
CSLAYER1
  6
CONTINUOUS
 62
     6
 10
252.239086
 20
148.609131
 11
252.141447
 21
148.445370
  0
LINE
  8
CSLAYER1
  6
CONTINUOUS
 62
     6
 10
252.141447
 20
148.445370
 11
252.041818
 21
148.276103
  0
LINE
  8
CSLAYER1
  6
CONTINUOUS
 62
     6
 10
252.041818
 20
148.276103
 11
251.939992
 21
148.102632
  0
LINE
  8
CSLAYER1
  6
CONTINUOUS
 62
     6
 10
251.939992
 20
148.102632
 11
251.835762
 21
147.926259
  0
LINE
  8
CSLAYER1
  6
CONTINUOUS
 62
     6
 10
251.835762
 20
147.926259
 11
251.728921
 21
147.748286
  0
LINE
  8
CSLAYER1
  6
CONTINUOUS
 62
     6
 10
251.728921
 20
147.748286
 11
251.619264
 21
147.570016
  0
LINE
  8
CSLAYER1
  6
CONTINUOUS
 62
     6
 10
251.619264
 20
147.570016
 11
251.506584
 21
147.392752
  0
LINE
  8
CSLAYER1
  6
CONTINUOUS
 62
     6
 10
251.506584
 20
147.392752
 11
251.390673
 21
147.217794
  0
LINE
  8
CSLAYER1
  6
CONTINUOUS
 62
     6
 10
251.390673
 20
147.217794
 11
251.271326
 21
147.046446
  0
LINE
  8
CSLAYER1
  6
CONTINUOUS
 62
     6
 10
251.271326
 20
147.046446
 11
251.148335
 21
146.880010
  0
LINE
  8
CSLAYER1
  6
CONTINUOUS
 62
     6
 10
251.148335
 20
146.880010
 11
251.021495
 21
146.719788
  0
LINE
  8
CSLAYER1
  6
CONTINUOUS
 62
     6
 10
251.021495
 20
146.719788
 11
250.922674
 21
146.603275
  0
LINE
  8
CSLAYER1
  6
CONTINUOUS
 62
     6
 10
250.922674
 20
146.603275
 11
250.820462
 21
146.489516
  0
LINE
  8
CSLAYER1
  6
CONTINUOUS
 62
     6
 10
250.820462
 20
146.489516
 11
250.715198
 21
146.378235
  0
LINE
  8
CSLAYER1
  6
CONTINUOUS
 62
     6
 10
250.715198
 20
146.378235
 11
250.607221
 21
146.269157
  0
LINE
  8
CSLAYER1
  6
CONTINUOUS
 62
     6
 10
250.607221
 20
146.269157
 11
250.496870
 21
146.162006
  0
LINE
  8
CSLAYER1
  6
CONTINUOUS
 62
     6
 10
250.496870
 20
146.162006
 11
250.384484
 21
146.056508
  0
LINE
  8
CSLAYER1
  6
CONTINUOUS
 62
     6
 10
250.384484
 20
146.056508
 11
250.270403
 21
145.952386
  0
LINE
  8
CSLAYER1
  6
CONTINUOUS
 62
     6
 10
250.270403
 20
145.952386
 11
250.154965
 21
145.849365
  0
LINE
  8
CSLAYER1
  6
CONTINUOUS
 62
     6
 10
250.154965
 20
145.849365
 11
250.038510
 21
145.747171
  0
LINE
  8
CSLAYER1
  6
CONTINUOUS
 62
     6
 10
250.038510
 20
145.747171
 11
249.942484
 21
145.663843
  0
LINE
  8
CSLAYER1
  6
CONTINUOUS
 62
     6
 10
249.942484
 20
145.663843
 11
250.011632
 21
145.629314
  0
LINE
  8
CSLAYER1
  6
CONTINUOUS
 62
     6
 10
250.011632
 20
145.629314
 11
250.096108
 21
145.581698
  0
LINE
  8
CSLAYER1
  6
CONTINUOUS
 62
     6
 10
250.096108
 20
145.581698
 11
250.182040
 21
145.527948
  0
LINE
  8
CSLAYER1
  6
CONTINUOUS
 62
     6
 10
250.182040
 20
145.527948
 11
250.268159
 21
145.468723
  0
LINE
  8
CSLAYER1
  6
CONTINUOUS
 62
     6
 10
250.268159
 20
145.468723
 11
250.353195
 21
145.404686
  0
LINE
  8
CSLAYER1
  6
CONTINUOUS
 62
     6
 10
250.353195
 20
145.404686
 11
250.435878
 21
145.336495
  0
LINE
  8
CSLAYER1
  6
CONTINUOUS
 62
     6
 10
250.435878
 20
145.336495
 11
250.514937
 21
145.264812
  0
LINE
  8
CSLAYER1
  6
CONTINUOUS
 62
     6
 10
250.514937
 20
145.264812
 11
250.589103
 21
145.190296
  0
LINE
  8
CSLAYER1
  6
CONTINUOUS
 62
     6
 10
250.589103
 20
145.190296
 11
250.657106
 21
145.113609
  0
LINE
  8
CSLAYER1
  6
CONTINUOUS
 62
     6
 10
250.657106
 20
145.113609
 11
250.717675
 21
145.035410
  0
LINE
  8
CSLAYER1
  6
CONTINUOUS
 62
     6
 10
250.717675
 20
145.035410
 11
250.769542
 21
144.956360
  0
LINE
  8
CSLAYER1
  6
CONTINUOUS
 62
     6
 10
250.769542
 20
144.956360
 11
250.785449
 21
144.928753
  0
LINE
  8
CSLAYER1
  6
CONTINUOUS
 62
     6
 10
250.785449
 20
144.928753
 11
250.801102
 21
144.900060
  0
LINE
  8
CSLAYER1
  6
CONTINUOUS
 62
     6
 10
250.801102
 20
144.900060
 11
250.816544
 21
144.870447
  0
LINE
  8
CSLAYER1
  6
CONTINUOUS
 62
     6
 10
250.816544
 20
144.870447
 11
250.831817
 21
144.840080
  0
LINE
  8
CSLAYER1
  6
CONTINUOUS
 62
     6
 10
250.831817
 20
144.840080
 11
250.846963
 21
144.809129
  0
LINE
  8
CSLAYER1
  6
CONTINUOUS
 62
     6
 10
250.846963
 20
144.809129
 11
250.862023
 21
144.777759
  0
LINE
  8
CSLAYER1
  6
CONTINUOUS
 62
     6
 10
250.862023
 20
144.777759
 11
250.877040
 21
144.746137
  0
LINE
  8
CSLAYER1
  6
CONTINUOUS
 62
     6
 10
250.877040
 20
144.746137
 11
250.892055
 21
144.714432
  0
LINE
  8
CSLAYER1
  6
CONTINUOUS
 62
     6
 10
250.892055
 20
144.714432
 11
250.907111
 21
144.682810
  0
LINE
  8
CSLAYER1
  6
CONTINUOUS
 62
     6
 10
250.907111
 20
144.682810
 11
250.922249
 21
144.651438
  0
LINE
  8
CSLAYER1
  6
CONTINUOUS
 62
     6
 10
250.922249
 20
144.651438
 11
250.937511
 21
144.620484
  0
LINE
  8
CSLAYER1
  6
CONTINUOUS
 62
     6
 10
250.937511
 20
144.620484
 11
250.978332
 21
144.542347
  0
LINE
  8
CSLAYER1
  6
CONTINUOUS
 62
     6
 10
250.978332
 20
144.542347
 11
251.021667
 21
144.465814
  0
LINE
  8
CSLAYER1
  6
CONTINUOUS
 62
     6
 10
251.021667
 20
144.465814
 11
251.067266
 21
144.390726
  0
LINE
  8
CSLAYER1
  6
CONTINUOUS
 62
     6
 10
251.067266
 20
144.390726
 11
251.114876
 21
144.316921
  0
LINE
  8
CSLAYER1
  6
CONTINUOUS
 62
     6
 10
251.114876
 20
144.316921
 11
251.164246
 21
144.244240
  0
LINE
  8
CSLAYER1
  6
CONTINUOUS
 62
     6
 10
251.164246
 20
144.244240
 11
251.215125
 21
144.172521
  0
LINE
  8
CSLAYER1
  6
CONTINUOUS
 62
     6
 10
251.215125
 20
144.172521
 11
251.267261
 21
144.101605
  0
LINE
  8
CSLAYER1
  6
CONTINUOUS
 62
     6
 10
251.267261
 20
144.101605
 11
251.320403
 21
144.031331
  0
LINE
  8
CSLAYER1
  6
CONTINUOUS
 62
     6
 10
251.320403
 20
144.031331
 11
251.374299
 21
143.961538
  0
LINE
  8
CSLAYER1
  6
CONTINUOUS
 62
     6
 10
251.374299
 20
143.961538
 11
251.428698
 21
143.892066
  0
LINE
  8
CSLAYER1
  6
CONTINUOUS
 62
     6
 10
251.428698
 20
143.892066
 11
251.480771
 21
143.826023
  0
LINE
  8
CSLAYER1
  6
CONTINUOUS
 62
     6
 10
251.480771
 20
143.826023
 11
251.608118
 21
143.935324
  0
LINE
  8
CSLAYER1
  6
CONTINUOUS
 62
     6
 10
251.608118
 20
143.935324
 11
251.744833
 21
144.053357
  0
LINE
  8
CSLAYER1
  6
CONTINUOUS
 62
     6
 10
251.744833
 20
144.053357
 11
251.880721
 21
144.172061
  0
LINE
  8
CSLAYER1
  6
CONTINUOUS
 62
     6
 10
251.880721
 20
144.172061
 11
252.015367
 21
144.291772
  0
LINE
  8
CSLAYER1
  6
CONTINUOUS
 62
     6
 10
252.015367
 20
144.291772
 11
252.148358
 21
144.412827
  0
LINE
  8
CSLAYER1
  6
CONTINUOUS
 62
     6
 10
252.148358
 20
144.412827
 11
252.279281
 21
144.535560
  0
LINE
  8
CSLAYER1
  6
CONTINUOUS
 62
     6
 10
252.279281
 20
144.535560
 11
252.407720
 21
144.660307
  0
LINE
  8
CSLAYER1
  6
CONTINUOUS
 62
     6
 10
252.407720
 20
144.660307
 11
252.533264
 21
144.787405
  0
LINE
  8
CSLAYER1
  6
CONTINUOUS
 62
     6
 10
252.533264
 20
144.787405
 11
252.655497
 21
144.917189
  0
LINE
  8
CSLAYER1
  6
CONTINUOUS
 62
     6
 10
252.655497
 20
144.917189
 11
252.774006
 21
145.049995
  0
LINE
  8
CSLAYER1
  6
CONTINUOUS
 62
     6
 10
252.774006
 20
145.049995
 11
252.888378
 21
145.186158
  0
LINE
  8
CSLAYER1
  6
CONTINUOUS
 62
     6
 10
252.888378
 20
145.186158
 11
253.024874
 21
145.360384
  0
LINE
  8
CSLAYER1
  6
CONTINUOUS
 62
     6
 10
253.024874
 20
145.360384
 11
253.157217
 21
145.541060
  0
LINE
  8
CSLAYER1
  6
CONTINUOUS
 62
     6
 10
253.157217
 20
145.541060
 11
253.285689
 21
145.726830
  0
LINE
  8
CSLAYER1
  6
CONTINUOUS
 62
     6
 10
253.285689
 20
145.726830
 11
253.410570
 21
145.916338
  0
LINE
  8
CSLAYER1
  6
CONTINUOUS
 62
     6
 10
253.410570
 20
145.916338
 11
253.532142
 21
146.108226
  0
LINE
  8
CSLAYER1
  6
CONTINUOUS
 62
     6
 10
253.532142
 20
146.108226
 11
253.650687
 21
146.301139
  0
LINE
  8
CSLAYER1
  6
CONTINUOUS
 62
     6
 10
253.650687
 20
146.301139
 11
253.766484
 21
146.493719
  0
LINE
  8
CSLAYER1
  6
CONTINUOUS
 62
     6
 10
253.766484
 20
146.493719
 11
253.879817
 21
146.684610
  0
LINE
  8
CSLAYER1
  6
CONTINUOUS
 62
     6
 10
253.879817
 20
146.684610
 11
253.990966
 21
146.872455
  0
LINE
  8
CSLAYER1
  6
CONTINUOUS
 62
     6
 10
253.990966
 20
146.872455
 11
254.100212
 21
147.055898
  0
LINE
  8
CSLAYER1
  6
CONTINUOUS
 62
     6
 10
254.100212
 20
147.055898
 11
254.207836
 21
147.233582
  0
LINE
  8
CSLAYER1
  6
CONTINUOUS
 62
     6
 10
254.207836
 20
147.233582
 11
254.313162
 21
147.399269
  0
LINE
  8
CSLAYER1
  6
CONTINUOUS
 62
     6
 10
254.313162
 20
147.399269
 11
254.427890
 21
147.569158
  0
LINE
  8
CSLAYER1
  6
CONTINUOUS
 62
     6
 10
254.427890
 20
147.569158
 11
254.550191
 21
147.741821
  0
LINE
  8
CSLAYER1
  6
CONTINUOUS
 62
     6
 10
254.550191
 20
147.741821
 11
254.678233
 21
147.915831
  0
LINE
  8
CSLAYER1
  6
CONTINUOUS
 62
     6
 10
254.678233
 20
147.915831
 11
254.810185
 21
148.089760
  0
LINE
  8
CSLAYER1
  6
CONTINUOUS
 62
     6
 10
254.810185
 20
148.089760
 11
254.944217
 21
148.262182
  0
LINE
  8
CSLAYER1
  6
CONTINUOUS
 62
     6
 10
254.944217
 20
148.262182
 11
255.078498
 21
148.431667
  0
LINE
  8
CSLAYER1
  6
CONTINUOUS
 62
     6
 10
255.078498
 20
148.431667
 11
255.211196
 21
148.596788
  0
LINE
  8
CSLAYER1
  6
CONTINUOUS
 62
     6
 10
255.211196
 20
148.596788
 11
255.340482
 21
148.756119
  0
LINE
  8
CSLAYER1
  6
CONTINUOUS
 62
     6
 10
255.340482
 20
148.756119
 11
255.464525
 21
148.908231
  0
LINE
  8
CSLAYER1
  6
CONTINUOUS
 62
     6
 10
255.464525
 20
148.908231
 11
255.633782
 21
149.115832
  0
ARC
  8
CSLAYER1
  6
CONTINUOUS
 62
     6
 10
254.551532
 20
148.686060
 40
1.164461
 50
21.658505
 51
86.024005
  0
ARC
  8
CSLAYER1
  6
CONTINUOUS
 62
     6
 10
253.585877
 20
149.336813
 40
1.164461
 50
26.024005
 51
86.024005
  0
ARC
  8
CSLAYER1
  6
CONTINUOUS
 62
     6
 10
254.713016
 20
151.009376
 40
1.164461
 50
206.024005
 51
266.024005
  0
LINE
  8
CSLAYER1
  6
CONTINUOUS
 62
     6
 10
253.666606
 20
150.498475
 11
253.545425
 21
150.350561
  0
LINE
  8
CSLAYER1
  6
CONTINUOUS
 62
     6
 10
253.545425
 20
150.350561
 11
253.416415
 21
150.193162
  0
ARC
  8
CSLAYER1
  6
CONTINUOUS
 62
     6
 10
255.476046
 20
150.092420
 40
1.200008
 50
30.461486
 51
90.461486
  0
LINE
  8
CSLAYER1
  6
CONTINUOUS
 62
     6
 10
263.869840
 20
162.543030
 11
263.425962
 21
163.243012
  0
LINE
  8
CSLAYER1
  6
CONTINUOUS
 62
     6
 10
263.925962
 20
163.243012
 11
264.369840
 21
162.543030
  0
ARC
  8
CSLAYER1
  6
CONTINUOUS
 62
     6
 10
266.573911
 20
162.643006
 40
0.100000
 50
270.000001
 51
359.942691
  0
LINE
  8
CSLAYER1
  6
CONTINUOUS
 62
     6
 10
266.673886
 20
162.643006
 11
266.673886
 21
163.143006
  0
ARC
  8
CSLAYER1
  6
CONTINUOUS
 62
     6
 10
266.573911
 20
163.143006
 40
0.100000
 50
0.000010
 51
90.000016
  0
LINE
  8
CSLAYER1
  6
CONTINUOUS
 62
     6
 10
276.773923
 20
161.243012
 11
276.773923
 21
165.243012
  0
LINE
  8
CSLAYER1
  6
CONTINUOUS
 62
     6
 10
276.773923
 20
161.243012
 11
289.773923
 21
161.243012
  0
LINE
  8
CSLAYER1
  6
CONTINUOUS
 62
     6
 10
250.988003
 20
144.525268
 11
248.737072
 21
142.086762
  0
LINE
  8
CSLAYER1
  6
CONTINUOUS
 62
     6
 10
248.264537
 20
142.653870
 11
250.707532
 21
145.048505
  0
LINE
  8
CSLAYER1
  6
CONTINUOUS
 62
     6
 10
250.396035
 20
145.369354
 11
247.650188
 21
142.866517
  0
LINE
  8
CSLAYER1
  6
CONTINUOUS
 62
     6
 10
242.310192
 20
144.945801
 11
244.536314
 21
147.922038
  0
LINE
  8
CSLAYER1
  6
CONTINUOUS
 62
     6
 10
243.970481
 20
148.068631
 11
241.624950
 21
145.394745
  0
LINE
  8
CSLAYER1
  6
CONTINUOUS
 62
     6
 10
241.081493
 20
145.914551
 11
243.553263
 21
148.316359
  0
CIRCLE
  8
CSLAYER1
  6
CONTINUOUS
 62
     6
 10
122.109396
 20
205.243012
 40
80.000000
  0
LINE
  8
CSLAYER1
  6
CENTER
 62
     3
 10
393.845537
 20
251.204987
 11
431.773912
 21
251.204987
  0
LINE
  8
CSLAYER1
  6
CENTER
 62
     3
 10
393.845537
 20
159.281037
 11
431.773912
 21
159.281037
  0
LINE
  8
CSLAYER1
  6
CONTINUOUS
 62
     6
 10
404.773912
 20
285.242981
 11
404.773973
 21
125.243042
  0
LINE
  8
CSLAYER1
  6
CONTINUOUS
 62
     6
 10
417.773912
 20
125.243042
 11
417.773912
 21
285.242981
  0
LINE
  8
CSLAYER1
  6
CONTINUOUS
 62
     6
 10
404.773912
 20
285.242981
 11
417.773912
 21
285.242981
  0
LINE
  8
CSLAYER1
  6
CONTINUOUS
 62
     6
 10
404.773912
 20
125.243042
 11
417.773912
 21
125.243042
  0
ARC
  8
CSLAYER1
  6
CONTINUOUS
 62
     6
 10
401.226702
 20
256.834152
 40
3.752777
 50
164.553352
 51
210.000000
  0
ARC
  8
CSLAYER1
  6
CONTINUOUS
 62
     6
 10
411.730867
 20
251.204987
 40
14.256942
 50
164.738520
 51
195.261480
  0
ARC
  8
CSLAYER1
  6
CONTINUOUS
 62
     6
 10
401.226702
 20
245.575822
 40
3.752777
 50
150.000000
 51
195.446648
  0
LINE
  8
CSLAYER1
  6
CONTINUOUS
 62
     6
 10
397.976702
 20
258.710540
 11
402.773925
 21
258.710540
  0
LINE
  8
CSLAYER1
  6
CONTINUOUS
 62
     6
 10
397.976702
 20
254.957764
 11
402.773925
 21
254.957764
  0
LINE
  8
CSLAYER1
  6
CONTINUOUS
 62
     6
 10
397.976702
 20
247.452210
 11
402.773925
 21
247.452210
  0
LINE
  8
CSLAYER1
  6
CONTINUOUS
 62
     6
 10
397.976702
 20
243.699433
 11
402.773925
 21
243.699433
  0
LINE
  8
CSLAYER1
  6
CONTINUOUS
 62
     6
 10
397.473925
 20
257.509987
 11
397.473925
 21
244.899987
  0
LINE
  8
CSLAYER1
  6
CONTINUOUS
 62
     6
 10
402.773925
 20
243.504987
 11
402.773925
 21
258.904987
  0
LINE
  8
CSLAYER1
  6
CONTINUOUS
 62
     6
 10
397.473925
 20
257.509987
 11
397.976702
 21
258.710540
  0
LINE
  8
CSLAYER1
  6
CONTINUOUS
 62
     6
 10
397.473925
 20
244.899987
 11
397.976702
 21
243.699433
  0
LINE
  8
CSLAYER1
  6
CONTINUOUS
 62
     6
 10
402.773925
 20
258.904987
 11
404.773925
 21
258.904987
  0
LINE
  8
CSLAYER1
  6
CONTINUOUS
 62
     6
 10
404.773925
 20
243.504987
 11
402.773925
 21
243.504987
  0
LINE
  8
CSLAYER1
  6
CONTINUOUS
 62
     6
 10
404.773925
 20
258.904987
 11
404.773925
 21
243.504987
  0
LINE
  8
CSLAYER1
  6
CONTINUOUS
 62
     6
 10
402.773925
 20
249.972987
 11
404.773925
 21
250.588987
  0
LINE
  8
CSLAYER1
  6
CONTINUOUS
 62
     6
 10
402.773925
 20
251.820987
 11
404.773925
 21
252.436987
  0
ARC
  8
CSLAYER1
  6
CONTINUOUS
 62
     6
 10
401.226737
 20
164.910141
 40
3.752777
 50
164.553352
 51
210.000000
  0
ARC
  8
CSLAYER1
  6
CONTINUOUS
 62
     6
 10
411.730902
 20
159.280976
 40
14.256942
 50
164.738520
 51
195.261480
  0
ARC
  8
CSLAYER1
  6
CONTINUOUS
 62
     6
 10
401.226737
 20
153.651810
 40
3.752777
 50
150.000000
 51
195.446648
  0
LINE
  8
CSLAYER1
  6
CONTINUOUS
 62
     6
 10
397.976737
 20
166.786529
 11
402.773960
 21
166.786529
  0
LINE
  8
CSLAYER1
  6
CONTINUOUS
 62
     6
 10
397.976737
 20
163.033752
 11
402.773960
 21
163.033752
  0
LINE
  8
CSLAYER1
  6
CONTINUOUS
 62
     6
 10
397.976737
 20
155.528199
 11
402.773960
 21
155.528199
  0
LINE
  8
CSLAYER1
  6
CONTINUOUS
 62
     6
 10
397.976737
 20
151.775422
 11
402.773960
 21
151.775422
  0
LINE
  8
CSLAYER1
  6
CONTINUOUS
 62
     6
 10
397.473960
 20
165.585976
 11
397.473960
 21
152.975976
  0
LINE
  8
CSLAYER1
  6
CONTINUOUS
 62
     6
 10
402.773960
 20
151.580976
 11
402.773960
 21
166.980976
  0
LINE
  8
CSLAYER1
  6
CONTINUOUS
 62
     6
 10
397.473960
 20
165.585976
 11
397.976737
 21
166.786529
  0
LINE
  8
CSLAYER1
  6
CONTINUOUS
 62
     6
 10
397.473960
 20
152.975976
 11
397.976737
 21
151.775422
  0
LINE
  8
CSLAYER1
  6
CONTINUOUS
 62
     6
 10
402.773960
 20
166.980976
 11
404.773960
 21
166.980976
  0
LINE
  8
CSLAYER1
  6
CONTINUOUS
 62
     6
 10
404.773960
 20
151.580976
 11
402.773960
 21
151.580976
  0
LINE
  8
CSLAYER1
  6
CONTINUOUS
 62
     6
 10
404.773960
 20
166.980976
 11
404.773960
 21
151.580976
  0
LINE
  8
CSLAYER1
  6
CONTINUOUS
 62
     6
 10
402.773960
 20
158.048976
 11
404.773960
 21
158.664976
  0
LINE
  8
CSLAYER1
  6
CONTINUOUS
 62
     6
 10
402.773960
 20
159.896976
 11
404.773960
 21
160.512976
  0
LINE
  8
CSLAYER1
  6
CONTINUOUS
 62
     6
 10
768.819751
 20
133.743042
 11
809.739795
 21
133.743042
  0
ARC
  8
CSLAYER1
  6
CONTINUOUS
 62
     6
 10
698.139820
 20
211.743042
 40
100.000000
 50
-5.859992
 51
23.820022
  0
ARC
  8
CSLAYER1
  6
CONTINUOUS
 62
     6
 10
728.139820
 20
288.743042
 40
150.000000
 50
270.000001
 51
283.359987
  0
CIRCLE
  8
CSLAYER1
  6
CONTINUOUS
 62
     6
 10
728.139820
 20
228.743042
 40
30.000000
  0
LINE
  8
CSLAYER1
  6
CONTINUOUS
 62
     6
 10
775.399830
 20
156.423035
 11
782.459766
 21
137.023041
  0
LINE
  8
CSLAYER1
  6
CONTINUOUS
 62
     6
 10
769.419849
 20
149.443054
 11
773.659839
 21
137.763031
  0
ARC
  8
CSLAYER1
  6
CONTINUOUS
 62
     6
 10
770.839771
 20
136.743042
 40
3.000000
 50
-89.999999
 51
20.000006
  0
ARC
  8
CSLAYER1
  6
CONTINUOUS
 62
     6
 10
787.139820
 20
138.743042
 40
5.000000
 50
199.990002
 51
270.000001
  0
ARC
  8
CSLAYER1
  6
CONTINUOUS
 62
     6
 10
767.859791
 20
139.103028
 40
5.000000
 50
19.999999
 51
110.010005
  0
ARC
  8
CSLAYER1
  6
CONTINUOUS
 62
     6
 10
783.059742
 20
149.943054
 40
5.000000
 50
140.969995
 51
200.000001
  0
ARC
  8
CSLAYER1
  6
CONTINUOUS
 62
     6
 10
755.879810
 20
171.983032
 40
30.000000
 50
283.359987
 51
290.010023
  0
LINE
  8
CSLAYER1
  6
CONTINUOUS
 62
     6
 10
762.639820
 20
118.743042
 11
763.859791
 21
129.303040
  0
ARC
  8
CSLAYER1
  6
CONTINUOUS
 62
     6
 10
768.819751
 20
128.743042
 40
5.000000
 50
90.000003
 51
173.490001
  0
ARC
  8
CSLAYER1
  6
CONTINUOUS
 62
     6
 10
766.599781
 20
148.423035
 40
3.000000
 50
19.990000
 51
114.449997
  0
ARC
  8
CSLAYER1
  6
CONTINUOUS
 62
     6
 10
780.099781
 20
158.123047
 40
5.000000
 50
150.199999
 51
199.990002
  0
ARC
  8
CSLAYER1
  6
CONTINUOUS
 62
     6
 10
755.879810
 20
171.983032
 40
22.879999
 50
292.620003
 51
294.450002
  0
LINE
  8
CSLAYER1
  6
CONTINUOUS
 62
     6
 10
762.639820
 20
118.743042
 11
815.679737
 21
118.743042
  0
ARC
  8
CSLAYER1
  6
CONTINUOUS
 62
     6
 10
728.139820
 20
155.743042
 40
123.500000
 50
72.000002
 51
107.999998
  0
ARC
  8
CSLAYER1
  6
CONTINUOUS
 62
     6
 10
754.399830
 20
236.583039
 40
38.500000
 50
23.820000
 51
72.000002
  0
ARC
  8
CSLAYER1
  6
CONTINUOUS
 62
     6
 10
787.679737
 20
202.563050
 40
10.000000
 50
349.220004
 51
354.140008
  0
ARC
  8
CSLAYER1
  6
CONTINUOUS
 62
     6
 10
728.139820
 20
155.743042
 40
130.000000
 50
71.190003
 51
108.809997
  0
ARC
  8
CSLAYER1
  6
CONTINUOUS
 62
     6
 10
659.599781
 20
198.743042
 40
148.000000
 50
4.450000
 51
21.320000
  0
ARC
  8
CSLAYER1
  6
CONTINUOUS
 62
     6
 10
755.539844
 20
236.203034
 40
45.000000
 50
21.320000
 51
71.190003
  0
ARC
  8
CSLAYER1
  6
CONTINUOUS
 62
     6
 10
758.779834
 20
118.503052
 40
4.000000
 50
10.710000
 51
80.539999
  0
ARC
  8
CSLAYER1
  6
CONTINUOUS
 62
     6
 10
728.139820
 20
228.743042
 40
14.000000
 50
-163.399999
 51
163.390019
  0
LINE
  8
CSLAYER1
  6
CONTINUOUS
 62
     6
 10
718.139820
 20
232.743042
 11
718.139820
 21
224.743042
  0
LINE
  8
CSLAYER1
  6
CONTINUOUS
 62
     6
 10
711.139820
 20
232.743042
 11
711.139820
 21
224.743042
  0
LINE
  8
CSLAYER1
  6
CONTINUOUS
 62
     6
 10
711.139820
 20
224.743042
 11
718.139820
 21
224.743042
  0
LINE
  8
CSLAYER1
  6
CONTINUOUS
 62
     6
 10
815.679737
 20
118.743042
 11
807.139820
 21
210.243042
  0
ARC
  8
CSLAYER1
  6
CONTINUOUS
 62
     6
 10
728.139820
 20
205.243042
 40
80.000000
 50
264.767951
 51
275.069995
  0
LINE
  8
CSLAYER1
  6
CENTER
 62
     3
 10
692.139820
 20
228.743042
 11
764.139820
 21
228.743042
  0
LINE
  8
CSLAYER1
  6
CENTER
 62
     3
 10
642.139820
 20
205.243042
 11
814.139820
 21
205.243042
  0
LINE
  8
CSLAYER1
  6
DASHED
 62
     6
 10
803.639820
 20
133.743042
 11
803.639820
 21
118.743042
  0
LINE
  8
CSLAYER1
  6
DASHED
 62
     6
 10
792.639820
 20
133.743042
 11
792.639820
 21
118.743042
  0
LINE
  8
CSLAYER1
  6
CENTER
 62
     3
 10
728.139820
 20
291.743042
 11
728.139820
 21
119.243042
  0
LINE
  8
CSLAYER1
  6
CENTER
 62
     3
 10
798.139820
 20
139.743042
 11
798.139820
 21
112.743042
  0
LINE
  8
CSLAYER1
  6
CONTINUOUS
 62
     6
 10
711.139820
 20
232.743042
 11
718.139820
 21
232.743042
  0
ARC
  8
CSLAYER1
  6
CONTINUOUS
 62
     6
 10
650.139820
 20
228.743042
 40
150.000000
 50
331.769991
 51
349.220004
  0
ARC
  8
CSLAYER1
  6
CONTINUOUS
 62
     6
 10
755.879810
 20
171.983032
 40
30.000000
 50
320.970014
 51
331.769991
  0
ARC
  8
CSLAYER1
  6
CONTINUOUS
 62
     6
 10
728.156788
 20
-24.246963
 40
150.000000
 50
77.819999
 51
90.006481
  0
LINE
  8
CSLAYER1
  6
CONTINUOUS
 62
     6
 10
687.459888
 20
133.743042
 11
646.539844
 21
133.743042
  0
ARC
  8
CSLAYER1
  6
CONTINUOUS
 62
     6
 10
758.139820
 20
211.743042
 40
100.000000
 50
156.179978
 51
185.859992
  0
ARC
  8
CSLAYER1
  6
CONTINUOUS
 62
     6
 10
728.139820
 20
288.743042
 40
150.000000
 50
256.640013
 51
269.999999
  0
LINE
  8
CSLAYER1
  6
CONTINUOUS
 62
     6
 10
680.879810
 20
156.423035
 11
673.819874
 21
137.023041
  0
LINE
  8
CSLAYER1
  6
CONTINUOUS
 62
     6
 10
686.859791
 20
149.443054
 11
682.619800
 21
137.763031
  0
ARC
  8
CSLAYER1
  6
CONTINUOUS
 62
     6
 10
685.439869
 20
136.743042
 40
3.000000
 50
159.999994
 51
269.999999
  0
ARC
  8
CSLAYER1
  6
CONTINUOUS
 62
     6
 10
669.139820
 20
138.743042
 40
5.000000
 50
269.999999
 51
340.009998
  0
ARC
  8
CSLAYER1
  6
CONTINUOUS
 62
     6
 10
688.419849
 20
139.103028
 40
5.000000
 50
69.989995
 51
160.000001
  0
ARC
  8
CSLAYER1
  6
CONTINUOUS
 62
     6
 10
700.399830
 20
171.983032
 40
30.000000
 50
249.989977
 51
256.640013
  0
LINE
  8
CSLAYER1
  6
CONTINUOUS
 62
     6
 10
693.639820
 20
118.743042
 11
692.419849
 21
129.303040
  0
ARC
  8
CSLAYER1
  6
CONTINUOUS
 62
     6
 10
687.459888
 20
128.743042
 40
5.000000
 50
6.509999
 51
89.999997
  0
ARC
  8
CSLAYER1
  6
CONTINUOUS
 62
     6
 10
689.679859
 20
148.423035
 40
3.000000
 50
65.550003
 51
160.010000
  0
ARC
  8
CSLAYER1
  6
CONTINUOUS
 62
     6
 10
676.179859
 20
158.123047
 40
5.000000
 50
-19.990002
 51
29.800001
  0
ARC
  8
CSLAYER1
  6
CONTINUOUS
 62
     6
 10
700.399830
 20
171.983032
 40
22.879999
 50
245.549998
 51
247.379997
  0
LINE
  8
CSLAYER1
  6
CONTINUOUS
 62
     6
 10
693.639820
 20
118.743042
 11
640.599903
 21
118.743042
  0
ARC
  8
CSLAYER1
  6
CONTINUOUS
 62
     6
 10
701.879810
 20
236.583039
 40
38.500000
 50
107.999998
 51
156.180000
  0
ARC
  8
CSLAYER1
  6
CONTINUOUS
 62
     6
 10
668.599903
 20
202.563050
 40
10.000000
 50
185.859992
 51
190.779996
  0
ARC
  8
CSLAYER1
  6
CONTINUOUS
 62
     6
 10
796.679859
 20
198.743042
 40
148.000000
 50
158.680000
 51
175.550000
  0
ARC
  8
CSLAYER1
  6
CONTINUOUS
 62
     6
 10
700.739795
 20
236.203034
 40
45.000000
 50
108.809997
 51
158.680000
  0
ARC
  8
CSLAYER1
  6
CONTINUOUS
 62
     6
 10
697.499805
 20
118.503052
 40
4.000000
 50
99.460001
 51
169.290000
  0
LINE
  8
CSLAYER1
  6
CONTINUOUS
 62
     6
 10
640.599903
 20
118.743042
 11
649.139820
 21
210.243042
  0
LINE
  8
CSLAYER1
  6
DASHED
 62
     6
 10
652.639820
 20
133.743042
 11
652.639820
 21
118.743042
  0
LINE
  8
CSLAYER1
  6
DASHED
 62
     6
 10
663.639820
 20
133.743042
 11
663.639820
 21
118.743042
  0
LINE
  8
CSLAYER1
  6
CENTER
 62
     3
 10
658.139820
 20
139.743042
 11
658.139820
 21
112.743042
  0
ARC
  8
CSLAYER1
  6
CONTINUOUS
 62
     6
 10
806.139820
 20
228.743042
 40
150.000000
 50
190.779996
 51
208.230009
  0
ARC
  8
CSLAYER1
  6
CONTINUOUS
 62
     6
 10
673.219898
 20
149.943054
 40
5.000000
 50
-20.000001
 51
39.030005
  0
ARC
  8
CSLAYER1
  6
CONTINUOUS
 62
     6
 10
700.399830
 20
171.983032
 40
30.000000
 50
208.230009
 51
219.029986
  0
ARC
  8
CSLAYER1
  6
CONTINUOUS
 62
     6
 10
728.122852
 20
-24.246963
 40
150.000000
 50
89.993519
 51
102.180001
  0
ARC
  8
CSLAYER1
  6
CONTINUOUS
 62
     6
 10
728.139820
 20
205.243042
 40
80.000000
 50
162.050008
 51
183.160006
  0
ARC
  8
CSLAYER1
  6
CONTINUOUS
 62
     6
 10
728.139820
 20
205.243042
 40
80.000000
 50
-3.160006
 51
17.949992
  0
ARC
  8
CSLAYER1
  6
CONTINUOUS
 62
     6
 10
646.559742
 20
128.743042
 40
5.000000
 50
90.000003
 51
174.659999
  0
ARC
  8
CSLAYER1
  6
CONTINUOUS
 62
     6
 10
809.719898
 20
128.743042
 40
5.000000
 50
5.340001
 51
89.999997
  0
LINE
  8
CSLAYER1
  6
CONTINUOUS
 62
     6
 10
479.773882
 20
136.963043
 11
479.773882
 21
285.743042
  0
LINE
  8
CSLAYER1
  6
CONTINUOUS
 62
     6
 10
568.773882
 20
201.743042
 11
568.773882
 21
255.743042
  0
LINE
  8
CSLAYER1
  6
CONTINUOUS
 62
     6
 10
564.973864
 20
258.743042
 11
565.773882
 21
258.743042
  0
ARC
  8
CSLAYER1
  6
CONTINUOUS
 62
     6
 10
565.773882
 20
255.743042
 40
3.000000
 50
0.000000
 51
90.000003
  0
ARC
  8
CSLAYER1
  6
CONTINUOUS
 62
     6
 10
565.773882
 20
201.743042
 40
3.000000
 50
-71.039995
 51
0.000010
  0
ARC
  8
CSLAYER1
  6
CONTINUOUS
 62
     6
 10
545.393877
 20
158.743042
 40
20.000000
 50
310.010019
 51
356.579998
  0
ARC
  8
CSLAYER1
  6
CONTINUOUS
 62
     6
 10
656.133898
 20
163.823029
 40
100.000000
 50
182.899994
 51
196.179999
  0
ARC
  8
CSLAYER1
  6
CONTINUOUS
 62
     6
 10
479.780870
 20
-365.246979
 40
651.000000
 50
83.949999
 51
90.000003
  0
LINE
  8
CSLAYER1
  6
CONTINUOUS
 62
     6
 10
481.773882
 20
142.243042
 11
481.773882
 21
206.983032
  0
ARC
  8
CSLAYER1
  6
CONTINUOUS
 62
     6
 10
476.773882
 20
206.983032
 40
5.000000
 50
0.000000
 51
53.130003
  0
LINE
  8
CSLAYER1
  6
CONTINUOUS
 62
     6
 10
568.313860
 20
118.743042
 11
443.213884
 21
118.743042
  0
ARC
  8
CSLAYER1
  6
CONTINUOUS
 62
     6
 10
684.813829
 20
193.243042
 40
160.000000
 50
147.559994
 51
200.390005
  0
LINE
  8
CSLAYER1
  6
CONTINUOUS
 62
     6
 10
481.313860
 20
164.303040
 11
480.073870
 21
164.303040
  0
LINE
  8
CSLAYER1
  6
CONTINUOUS
 62
     6
 10
481.353869
 20
150.663056
 11
480.073870
 21
150.663056
  0
ARC
  8
CSLAYER1
  6
CONTINUOUS
 62
     6
 10
544.853869
 20
259.883057
 40
20.000000
 50
3.380000
 51
73.940001
  0
LINE
  8
CSLAYER1
  6
CONTINUOUS
 62
     6
 10
562.173876
 20
133.823029
 11
539.453875
 21
134.223053
  0
ARC
  8
CSLAYER1
  6
CONTINUOUS
 62
     6
 10
562.093859
 20
128.823029
 40
5.000000
 50
6.780000
 51
88.989995
  0
ARC
  8
CSLAYER1
  6
CONTINUOUS
 62
     6
 10
562.993883
 20
136.763031
 40
3.000000
 50
196.179999
 51
263.540008
  0
ARC
  8
CSLAYER1
  6
CONTINUOUS
 62
     6
 10
539.533861
 20
139.223053
 40
5.000000
 50
200.390005
 51
269.000006
  0
LINE
  8
CSLAYER1
  6
CONTINUOUS
 62
     6
 10
449.353869
 20
133.823029
 11
473.913866
 21
134.243042
  0
ARC
  8
CSLAYER1
  6
CONTINUOUS
 62
     6
 10
473.773882
 20
142.243042
 40
8.000000
 50
-89.000005
 51
0.000010
  0
ARC
  8
CSLAYER1
  6
CONTINUOUS
 62
     6
 10
449.453875
 20
128.823029
 40
5.000000
 50
90.999997
 51
173.229990
  0
ARC
  8
CSLAYER1
  6
CONTINUOUS
 62
     6
 10
559.273882
 20
158.823029
 40
3.000000
 50
121.089992
 51
182.949991
  0
LINE
  8
CSLAYER1
  6
CONTINUOUS
 62
     6
 10
570.773882
 20
243.743042
 11
570.773882
 21
213.743042
  0
LINE
  8
CSLAYER1
  6
CONTINUOUS
 62
     6
 10
568.773882
 20
213.743042
 11
570.773882
 21
213.743042
  0
LINE
  8
CSLAYER1
  6
CONTINUOUS
 62
     6
 10
570.773882
 20
242.743042
 11
615.773912
 21
242.743042
  0
LINE
  8
CSLAYER1
  6
CONTINUOUS
 62
     6
 10
570.773882
 20
214.743042
 11
615.773912
 21
214.743042
  0
LINE
  8
CSLAYER1
  6
CONTINUOUS
 62
     6
 10
615.773912
 20
242.743042
 11
615.773912
 21
214.743042
  0
LINE
  8
CSLAYER1
  6
CONTINUOUS
 62
     6
 10
579.773912
 20
232.743042
 11
615.773912
 21
232.743042
  0
LINE
  8
CSLAYER1
  6
CONTINUOUS
 62
     6
 10
579.773912
 20
224.743042
 11
615.773912
 21
224.743042
  0
ARC
  8
CSLAYER1
  6
CONTINUOUS
 62
     6
 10
579.773912
 20
228.743042
 40
4.000000
 50
90.000003
 51
270.000001
  0
LINE
  8
CSLAYER1
  6
CONTINUOUS
 62
     6
 10
568.773882
 20
243.743042
 11
570.773882
 21
243.743042
  0
LINE
  8
CSLAYER1
  6
CONTINUOUS
 62
     6
 10
444.493883
 20
129.403046
 11
443.213884
 21
118.743042
  0
LINE
  8
CSLAYER1
  6
CONTINUOUS
 62
     6
 10
567.053881
 20
129.403046
 11
568.313860
 21
118.743042
  0
ARC
  8
CSLAYER1
  6
CONTINUOUS
 62
     6
 10
-233.219160
 20
205.253052
 40
800.000000
 50
-3.420002
 51
4.000015
  0
ARC
  8
CSLAYER1
  6
CONTINUOUS
 62
     6
 10
548.093859
 20
280.143036
 40
2.000000
 50
-32.440001
 51
83.950002
  0
ARC
  8
CSLAYER1
  6
CONTINUOUS
 62
     6
 10
550.533861
 20
279.583039
 40
0.500000
 50
167.210011
 51
253.940013
  0
ARC
  8
CSLAYER1
  6
CONTINUOUS
 62
     6
 10
475.273882
 20
283.623047
 40
2.000000
 50
91.489995
 51
180.000005
  0
LINE
  8
CSLAYER1
  6
CONTINUOUS
 62
     6
 10
474.853869
 20
164.303040
 11
478.913866
 21
164.303040
  0
LINE
  8
CSLAYER1
  6
CONTINUOUS
 62
     6
 10
474.853869
 20
150.663056
 11
478.913866
 21
150.663056
  0
LINE
  8
CSLAYER1
  6
CONTINUOUS
 62
     6
 10
466.273882
 20
269.243042
 11
466.273882
 21
141.243042
  0
LINE
  8
CSLAYER1
  6
CONTINUOUS
 62
     6
 10
466.273882
 20
141.243042
 11
470.273882
 21
141.243042
  0
ARC
  8
CSLAYER1
  6
CONTINUOUS
 62
     6
 10
470.273882
 20
272.243042
 40
3.000000
 50
-89.999999
 51
0.000010
  0
ARC
  8
CSLAYER1
  6
CONTINUOUS
 62
     6
 10
470.273882
 20
138.243042
 40
3.000000
 50
0.000000
 51
90.000003
  0
LINE
  8
CSLAYER1
  6
CONTINUOUS
 62
     6
 10
473.273882
 20
283.623047
 11
473.273882
 21
134.243042
  0
LINE
  8
CSLAYER1
  6
CONTINUOUS
 62
     6
 10
475.213884
 20
285.623047
 11
479.773882
 21
285.743042
  0
LINE
  8
CSLAYER1
  6
CONTINUOUS
 62
     6
 10
428.693895
 20
270.423035
 11
466.273882
 21
269.243042
  0
LINE
  8
CSLAYER1
  6
CONTINUOUS
 62
     6
 10
425.773912
 20
128.103028
 11
425.773912
 21
282.103028
  0
ARC
  8
CSLAYER1
  6
CONTINUOUS
 62
     6
 10
422.773912
 20
282.103028
 40
3.000000
 50
0.000000
 51
88.489998
  0
LINE
  8
CSLAYER1
  6
CONTINUOUS
 62
     6
 10
433.813890
 20
272.303040
 11
430.633898
 21
272.383057
  0
ARC
  8
CSLAYER1
  6
CONTINUOUS
 62
     6
 10
430.773912
 20
277.383057
 40
5.000000
 50
180.000005
 51
268.500009
  0
ARC
  8
CSLAYER1
  6
CONTINUOUS
 62
     6
 10
433.773912
 20
270.303040
 40
2.000000
 50
28.420000
 51
88.499997
  0
LINE
  8
CSLAYER1
  6
CONTINUOUS
 62
     6
 10
435.773912
 20
199.243042
 11
435.773912
 21
211.243042
  0
LINE
  8
CSLAYER1
  6
CONTINUOUS
 62
     6
 10
450.273912
 20
256.323029
 11
450.273912
 21
246.081614
  0
LINE
  8
CSLAYER1
  6
CONTINUOUS
 62
     6
 10
433.773912
 20
213.243042
 11
425.773912
 21
213.243042
  0
LINE
  8
CSLAYER1
  6
CONTINUOUS
 62
     6
 10
433.773912
 20
197.243042
 11
425.773912
 21
197.243042
  0
LINE
  8
CSLAYER1
  6
CONTINUOUS
 62
     6
 10
445.393908
 20
261.323029
 11
425.773912
 21
261.843048
  0
LINE
  8
CSLAYER1
  6
CONTINUOUS
 62
     6
 10
445.406381
 20
241.083369
 11
425.773912
 21
240.563050
  0
ARC
  8
CSLAYER1
  6
CONTINUOUS
 62
     6
 10
445.273912
 20
256.323029
 40
5.000000
 50
0.000000
 51
88.489998
  0
ARC
  8
CSLAYER1
  6
CONTINUOUS
 62
     6
 10
433.773912
 20
211.243042
 40
2.000000
 50
0.000000
 51
90.000003
  0
ARC
  8
CSLAYER1
  6
CONTINUOUS
 62
     6
 10
433.773912
 20
199.243042
 40
2.000000
 50
-89.999999
 51
0.000010
  0
ARC
  8
CSLAYER1
  6
CONTINUOUS
 62
     6
 10
428.773912
 20
273.423035
 40
3.000000
 50
180.000005
 51
268.500009
  0
ARC
  8
CSLAYER1
  6
CONTINUOUS
 62
     6
 10
437.293901
 20
272.203034
 40
2.000000
 50
208.419999
 51
268.500009
  0
LINE
  8
CSLAYER1
  6
CENTER
 62
     3
 10
460.773882
 20
140.023745
 11
460.773882
 21
112.743042
  0
LINE
  8
CSLAYER1
  6
CENTER
 62
     3
 10
561.435903
 20
228.743042
 11
623.113878
 21
228.743042
  0
LINE
  8
CSLAYER1
  6
DASHED
 62
     6
 10
466.273882
 20
134.123047
 11
466.273882
 21
118.743042
  0
LINE
  8
CSLAYER1
  6
DASHED
 62
     6
 10
455.273882
 20
133.923035
 11
455.273882
 21
118.743042
  0
LINE
  8
CSLAYER1
  6
DASHED
 62
     6
 10
556.273882
 20
133.923035
 11
556.273882
 21
118.743042
  0
LINE
  8
CSLAYER1
  6
DASHED
 62
     6
 10
545.273882
 20
134.123047
 11
545.273882
 21
118.743042
  0
LINE
  8
CSLAYER1
  6
CENTER
 62
     3
 10
550.773882
 20
112.743042
 11
550.773882
 21
140.023745
  0
LINE
  8
CSLAYER1
  6
CONTINUOUS
 62
     6
 10
417.773912
 20
285.242981
 11
422.852967
 21
285.101986
  0
ARC
  8
CSLAYER1
  6
CONTINUOUS
 62
     6
 10
445.273912
 20
246.081614
 40
5.000000
 50
271.518155
 51
360.000000
  0
LINE
  8
CSLAYER1
  6
CONTINUOUS
 62
     6
 10
466.273882
 20
269.243042
 11
470.273882
 21
269.243042
  0
LINE
  8
CSLAYER1
  6
CONTINUOUS
 62
     6
 10
450.273912
 20
164.399018
 11
450.273912
 21
154.157603
  0
LINE
  8
CSLAYER1
  6
CONTINUOUS
 62
     6
 10
445.393908
 20
169.399018
 11
425.773912
 21
169.919037
  0
LINE
  8
CSLAYER1
  6
CONTINUOUS
 62
     6
 10
445.406381
 20
149.159358
 11
425.773912
 21
148.639038
  0
ARC
  8
CSLAYER1
  6
CONTINUOUS
 62
     6
 10
445.273912
 20
164.399018
 40
5.000000
 50
0.000000
 51
88.489998
  0
ARC
  8
CSLAYER1
  6
CONTINUOUS
 62
     6
 10
445.273912
 20
154.157603
 40
5.000000
 50
271.518155
 51
360.000000
  0
LINE
  8
CSLAYER1
  6
CONTINUOUS
 62
     6
 10
428.693895
 20
140.062989
 11
466.273882
 21
141.242981
  0
ARC
  8
CSLAYER1
  6
CONTINUOUS
 62
     6
 10
422.773912
 20
128.382996
 40
3.000000
 50
271.510002
 51
360.000000
  0
LINE
  8
CSLAYER1
  6
CONTINUOUS
 62
     6
 10
433.813890
 20
138.182984
 11
430.633898
 21
138.102967
  0
ARC
  8
CSLAYER1
  6
CONTINUOUS
 62
     6
 10
430.773912
 20
133.102967
 40
5.000000
 50
91.499991
 51
179.999995
  0
ARC
  8
CSLAYER1
  6
CONTINUOUS
 62
     6
 10
433.773912
 20
140.182984
 40
2.000000
 50
271.500003
 51
331.580000
  0
ARC
  8
CSLAYER1
  6
CONTINUOUS
 62
     6
 10
428.773912
 20
137.062989
 40
3.000000
 50
91.499991
 51
179.999995
  0
ARC
  8
CSLAYER1
  6
CONTINUOUS
 62
     6
 10
437.293901
 20
138.282990
 40
2.000000
 50
91.499991
 51
151.580001
  0
LINE
  8
CSLAYER1
  6
CONTINUOUS
 62
     6
 10
417.773912
 20
125.243042
 11
422.852967
 21
125.384038
  0
ARC
  8
CSLAYER1
  6
CONTINUOUS
 62
     6
 10
492.653887
 20
351.143067
 40
200.000000
 50
281.740003
 51
287.510010
  0
LINE
  8
CSLAYER1
  6
CONTINUOUS
 62
     6
 10
162.789328
 20
133.743012
 11
203.709372
 21
133.743012
  0
LINE
  8
CSLAYER1
  6
CONTINUOUS
 62
     6
 10
156.609396
 20
118.743012
 11
157.829367
 21
129.303009
  0
ARC
  8
CSLAYER1
  6
CONTINUOUS
 62
     6
 10
162.789328
 20
128.743012
 40
5.000000
 50
90.000003
 51
173.490001
  0
LINE
  8
CSLAYER1
  6
CONTINUOUS
 62
     6
 10
156.609396
 20
118.743012
 11
209.649313
 21
118.743012
  0
ARC
  8
CSLAYER1
  6
CONTINUOUS
 62
     6
 10
152.749411
 20
118.503021
 40
4.000000
 50
10.710000
 51
80.539999
  0
LINE
  8
CSLAYER1
  6
CONTINUOUS
 62
     6
 10
209.649313
 20
118.743012
 11
201.987716
 21
200.832347
  0
LINE
  8
CSLAYER1
  6
DASHED
 62
     6
 10
197.609396
 20
133.743012
 11
197.609396
 21
118.743012
  0
LINE
  8
CSLAYER1
  6
DASHED
 62
     6
 10
186.609396
 20
133.743012
 11
186.609396
 21
118.743012
  0
LINE
  8
CSLAYER1
  6
CENTER
 62
     3
 10
192.109396
 20
139.743012
 11
192.109396
 21
112.743012
  0
LINE
  8
CSLAYER1
  6
CONTINUOUS
 62
     6
 10
81.429464
 20
133.743012
 11
40.509420
 21
133.743012
  0
LINE
  8
CSLAYER1
  6
CONTINUOUS
 62
     6
 10
87.609396
 20
118.743012
 11
86.389425
 21
129.303009
  0
ARC
  8
CSLAYER1
  6
CONTINUOUS
 62
     6
 10
81.429464
 20
128.743012
 40
5.000000
 50
6.509999
 51
89.999997
  0
LINE
  8
CSLAYER1
  6
CONTINUOUS
 62
     6
 10
87.609396
 20
118.743012
 11
34.569479
 21
118.743012
  0
ARC
  8
CSLAYER1
  6
CONTINUOUS
 62
     6
 10
91.469381
 20
118.503021
 40
4.000000
 50
99.460001
 51
169.290000
  0
LINE
  8
CSLAYER1
  6
CONTINUOUS
 62
     6
 10
34.569479
 20
118.743012
 11
42.231076
 21
200.832347
  0
LINE
  8
CSLAYER1
  6
DASHED
 62
     6
 10
46.609396
 20
133.743012
 11
46.609396
 21
118.743012
  0
LINE
  8
CSLAYER1
  6
DASHED
 62
     6
 10
57.609396
 20
133.743012
 11
57.609396
 21
118.743012
  0
LINE
  8
CSLAYER1
  6
CENTER
 62
     3
 10
52.109396
 20
139.743012
 11
52.109396
 21
112.743012
  0
ARC
  8
CSLAYER1
  6
CONTINUOUS
 62
     6
 10
40.529318
 20
128.743012
 40
5.000000
 50
90.000003
 51
174.659999
  0
ARC
  8
CSLAYER1
  6
CONTINUOUS
 62
     6
 10
203.689474
 20
128.743012
 40
5.000000
 50
5.340001
 51
89.999997
  0
ARC
  8
CSLAYER1
  6
CONTINUOUS
 62
     6
 10
122.126364
 20
-24.246994
 40
150.000000
 50
77.819999
 51
87.218839
  0
ARC
  8
CSLAYER1
  6
CONTINUOUS
 62
     6
 10
122.092428
 20
-24.246994
 40
150.000000
 50
92.781161
 51
102.180001
  0
ARC
  8
CSLAYER1
  6
CONTINUOUS
 62
     6
 10
122.109396
 20
155.743012
 40
130.000000
 50
71.190003
 51
108.807303
  0
ARC
  8
CSLAYER1
  6
CONTINUOUS
 62
     6
 10
53.569357
 20
198.743012
 40
148.000000
 50
12.013438
 51
21.320000
  0
ARC
  8
CSLAYER1
  6
CONTINUOUS
 62
     6
 10
149.509420
 20
236.203003
 40
45.000000
 50
21.320000
 51
71.190003
  0
ARC
  8
CSLAYER1
  6
CONTINUOUS
 62
     6
 10
190.649435
 20
198.743012
 40
148.000000
 50
158.680000
 51
167.986562
  0
ARC
  8
CSLAYER1
  6
CONTINUOUS
 62
     6
 10
94.709372
 20
236.203003
 40
45.000000
 50
108.809997
 51
158.680000
  0
LINE
  8
CSLAYER1
  6
CENTER
 62
     3
 10
623.113908
 20
434.742831
 11
230.773953
 21
434.742831
  0
LINE
  8
CSLAYER1
  6
CENTER
 62
     3
 10
268.773973
 20
403.349627
 11
268.773973
 21
380.742815
  0
ARC
  8
CSLAYER1
  6
CONTINUOUS
 62
     3
 10
332.762620
 20
411.242831
 40
2.000000
 50
180.000000
 51
270.000000
  0
LINE
  8
CSLAYER1
  6
CONTINUOUS
 62
     3
 10
332.762620
 20
409.242831
 11
360.762620
 21
409.242831
  0
ARC
  8
CSLAYER1
  6
CONTINUOUS
 62
     3
 10
360.762620
 20
411.242831
 40
2.000000
 50
270.000000
 51
360.000000
  0
LINE
  8
CSLAYER1
  6
CONTINUOUS
 62
     3
 10
362.762620
 20
411.242831
 11
362.762620
 21
458.242831
  0
ARC
  8
CSLAYER1
  6
CONTINUOUS
 62
     3
 10
360.762620
 20
458.242831
 40
2.000000
 50
0.000000
 51
90.000000
  0
LINE
  8
CSLAYER1
  6
CONTINUOUS
 62
     3
 10
360.762620
 20
460.242831
 11
332.762620
 21
460.242831
  0
ARC
  8
CSLAYER1
  6
CONTINUOUS
 62
     3
 10
332.762620
 20
458.242831
 40
2.000000
 50
90.000000
 51
180.000000
  0
LINE
  8
CSLAYER1
  6
CONTINUOUS
 62
     3
 10
330.762620
 20
458.242831
 11
330.762620
 21
411.242831
  0
LINE
  8
CSLAYER1
  6
CENTER
 62
     3
 10
268.773973
 20
488.742815
 11
268.773973
 21
466.136004
  0
TEXT
  8
CSLAYER1
 62
     3
 10
344.819366
 20
439.992828
 40
3.500000
 41
1.125000
  1
N P
 50
-90.000000
 51
10.000000
  7
JX_FONT
 72
     5
 11
344.819366
 21
429.492828
  0
LINE
  8
CSLAYER1
  6
CONTINUOUS
 62
     6
 10
397.473988
 20
479.742831
 11
289.773973
 21
479.742831
  0
LINE
  8
CSLAYER1
  6
CONTINUOUS
 62
     6
 10
289.773973
 20
479.742831
 11
289.773973
 21
389.742831
  0
LINE
  8
CSLAYER1
  6
CONTINUOUS
 62
     6
 10
289.773973
 20
389.742831
 11
397.474023
 21
389.742831
  0
LINE
  8
CSLAYER1
  6
CONTINUOUS
 62
     6
 10
289.773973
 20
390.742815
 11
288.298936
 21
390.742815
  0
LINE
  8
CSLAYER1
  6
CONTINUOUS
 62
     6
 10
287.868089
 20
390.638262
 11
288.565721
 21
397.275774
  0
ARC
  8
CSLAYER1
  6
CONTINUOUS
 62
     6
 10
289.560228
 20
397.171221
 40
1.000000
 50
90.000009
 51
173.999984
  0
ARC
  8
CSLAYER1
  6
CONTINUOUS
 62
     6
 10
289.510606
 20
392.698992
 40
1.000000
 50
90.000009
 51
173.999984
  0
LINE
  8
CSLAYER1
  6
CONTINUOUS
 62
     6
 10
288.516038
 20
392.803545
 11
287.868089
 21
386.638262
  0
ARC
  8
CSLAYER1
  6
CONTINUOUS
 62
     6
 10
286.873521
 20
386.742815
 40
1.000000
 50
270.000001
 51
354.000017
  0
LINE
  8
CSLAYER1
  6
CONTINUOUS
 62
     6
 10
286.873521
 20
385.742815
 11
250.674364
 21
385.742815
  0
ARC
  8
CSLAYER1
  6
CONTINUOUS
 62
     6
 10
250.674364
 20
386.742815
 40
1.000000
 50
186.000012
 51
270.000001
  0
LINE
  8
CSLAYER1
  6
CONTINUOUS
 62
     6
 10
249.679857
 20
386.638262
 11
249.031847
 21
392.803545
  0
ARC
  8
CSLAYER1
  6
CONTINUOUS
 62
     6
 10
248.037340
 20
392.698992
 40
1.000000
 50
6.000021
 51
90.000009
  0
LINE
  8
CSLAYER1
  6
CONTINUOUS
 62
     6
 10
249.248399
 20
390.742815
 11
237.773942
 21
390.742815
  0
LINE
  8
CSLAYER1
  6
CONTINUOUS
 62
     6
 10
237.773942
 20
390.742815
 11
236.773942
 21
391.742815
  0
LINE
  8
CSLAYER1
  6
CONTINUOUS
 62
     6
 10
236.773973
 20
391.742831
 11
236.773973
 21
477.742831
  0
LINE
  8
CSLAYER1
  6
CONTINUOUS
 62
     6
 10
236.773973
 20
477.742831
 11
237.773973
 21
478.742831
  0
LINE
  8
CSLAYER1
  6
CONTINUOUS
 62
     6
 10
237.773973
 20
478.742831
 11
237.773973
 21
390.742831
  0
LINE
  8
CSLAYER1
  6
CONTINUOUS
 62
     6
 10
237.773973
 20
390.742831
 11
236.773973
 21
391.742831
  0
ARC
  8
CSLAYER1
  6
CONTINUOUS
 62
     6
 10
247.987657
 20
397.171221
 40
1.000000
 50
6.000021
 51
90.000009
  0
LINE
  8
CSLAYER1
  6
CONTINUOUS
 62
     6
 10
248.982225
 20
397.275774
 11
249.679857
 21
390.638262
  0
ARC
  8
CSLAYER1
  6
CONTINUOUS
 62
     6
 10
250.674364
 20
390.742815
 40
1.000000
 50
186.000012
 51
270.000001
  0
LINE
  8
CSLAYER1
  6
CONTINUOUS
 62
     6
 10
250.674364
 20
389.742815
 11
286.873521
 21
389.742815
  0
ARC
  8
CSLAYER1
  6
CONTINUOUS
 62
     6
 10
286.873521
 20
390.742815
 40
1.000000
 50
270.000001
 51
354.000017
  0
LINE
  8
CSLAYER1
  6
CONTINUOUS
 62
     6
 10
284.417039
 20
398.349627
 11
252.459947
 21
398.349627
  0
LINE
  8
CSLAYER1
  6
CONTINUOUS
 62
     6
 10
252.459947
 20
471.136004
 11
284.417039
 21
471.136004
  0
ARC
  8
CSLAYER1
  6
CONTINUOUS
 62
     6
 10
289.560228
 20
472.314349
 40
1.000000
 50
186.000026
 51
270.000001
  0
LINE
  8
CSLAYER1
  6
CONTINUOUS
 62
     6
 10
288.565721
 20
472.209856
 11
287.868089
 21
478.847308
  0
ARC
  8
CSLAYER1
  6
CONTINUOUS
 62
     6
 10
286.873521
 20
478.742815
 40
1.000000
 50
6.000003
 51
90.000016
  0
LINE
  8
CSLAYER1
  6
CONTINUOUS
 62
     6
 10
286.873521
 20
479.742815
 11
250.674364
 21
479.742815
  0
ARC
  8
CSLAYER1
  6
CONTINUOUS
 62
     6
 10
250.674364
 20
478.742815
 40
1.000000
 50
90.000003
 51
173.999998
  0
LINE
  8
CSLAYER1
  6
CONTINUOUS
 62
     6
 10
249.679857
 20
478.847308
 11
248.982225
 21
472.209856
  0
ARC
  8
CSLAYER1
  6
CONTINUOUS
 62
     6
 10
247.987657
 20
472.314349
 40
1.000000
 50
270.000001
 51
353.999989
  0
ARC
  8
CSLAYER1
  6
CONTINUOUS
 62
     6
 10
248.037340
 20
476.786639
 40
1.000000
 50
270.000001
 51
353.999989
  0
LINE
  8
CSLAYER1
  6
CONTINUOUS
 62
     6
 10
249.031847
 20
476.682085
 11
249.679857
 21
482.847308
  0
ARC
  8
CSLAYER1
  6
CONTINUOUS
 62
     6
 10
250.674364
 20
482.742815
 40
1.000000
 50
90.000003
 51
173.999998
  0
LINE
  8
CSLAYER1
  6
CONTINUOUS
 62
     6
 10
250.674364
 20
483.742815
 11
286.873521
 21
483.742815
  0
ARC
  8
CSLAYER1
  6
CONTINUOUS
 62
     6
 10
286.873521
 20
482.742815
 40
1.000000
 50
6.000003
 51
90.000016
  0
LINE
  8
CSLAYER1
  6
CONTINUOUS
 62
     6
 10
287.868089
 20
482.847308
 11
288.516038
 21
476.682085
  0
ARC
  8
CSLAYER1
  6
CONTINUOUS
 62
     6
 10
289.510606
 20
476.786639
 40
1.000000
 50
186.000026
 51
270.000001
  0
LINE
  8
CSLAYER1
  6
CONTINUOUS
 62
     6
 10
289.773973
 20
478.742815
 11
288.298936
 21
478.742815
  0
LINE
  8
CSLAYER1
  6
CONTINUOUS
 62
     6
 10
249.248399
 20
478.742815
 11
237.773942
 21
478.742815
  0
LINE
  8
CSLAYER1
  6
CONTINUOUS
 62
     6
 10
237.773942
 20
478.742815
 11
236.773942
 21
477.742815
  0
LINE
  8
CSLAYER1
  6
CENTER
 62
     3
 10
393.845567
 20
480.704806
 11
431.773942
 21
480.704806
  0
LINE
  8
CSLAYER1
  6
CENTER
 62
     3
 10
393.845567
 20
388.780856
 11
431.773942
 21
388.780856
  0
LINE
  8
CSLAYER1
  6
CONTINUOUS
 62
     6
 10
404.773942
 20
514.742800
 11
404.774003
 21
354.742861
  0
LINE
  8
CSLAYER1
  6
CONTINUOUS
 62
     6
 10
417.773942
 20
354.742861
 11
417.773942
 21
514.742800
  0
LINE
  8
CSLAYER1
  6
CONTINUOUS
 62
     6
 10
404.773942
 20
514.742800
 11
417.773942
 21
514.742800
  0
LINE
  8
CSLAYER1
  6
CONTINUOUS
 62
     6
 10
404.773942
 20
354.742861
 11
417.773942
 21
354.742861
  0
LINE
  8
CSLAYER1
  6
CONTINUOUS
 62
     6
 10
479.773912
 20
352.242800
 11
479.773912
 21
517.242861
  0
LINE
  8
CSLAYER1
  6
CONTINUOUS
 62
     6
 10
568.773912
 20
407.742831
 11
568.773912
 21
461.742831
  0
ARC
  8
CSLAYER1
  6
CONTINUOUS
 62
     6
 10
565.773912
 20
461.742831
 40
3.000000
 50
0.000000
 51
81.452534
  0
ARC
  8
CSLAYER1
  6
CONTINUOUS
 62
     6
 10
565.773912
 20
407.742831
 40
3.000000
 50
-81.467153
 51
0.000010
  0
LINE
  8
CSLAYER1
  6
CONTINUOUS
 62
     6
 10
570.773912
 20
449.742831
 11
570.773912
 21
419.742831
  0
LINE
  8
CSLAYER1
  6
CONTINUOUS
 62
     6
 10
568.773912
 20
419.742831
 11
570.773912
 21
419.742831
  0
LINE
  8
CSLAYER1
  6
CONTINUOUS
 62
     6
 10
570.773912
 20
448.742831
 11
615.773942
 21
448.742831
  0
LINE
  8
CSLAYER1
  6
CONTINUOUS
 62
     6
 10
570.773912
 20
420.742831
 11
615.773942
 21
420.742831
  0
LINE
  8
CSLAYER1
  6
CONTINUOUS
 62
     6
 10
615.773942
 20
448.742831
 11
615.773942
 21
417.742831
  0
LINE
  8
CSLAYER1
  6
CONTINUOUS
 62
     6
 10
568.773912
 20
449.742831
 11
570.773912
 21
449.742831
  0
ARC
  8
CSLAYER1
  6
CONTINUOUS
 62
     6
 10
-233.219130
 20
434.752871
 40
800.000000
 50
-3.391947
 51
3.390511
  0
ARC
  8
CSLAYER1
  6
CONTINUOUS
 62
     6
 10
475.273912
 20
513.122866
 40
2.000000
 50
91.489995
 51
180.000005
  0
LINE
  8
CSLAYER1
  6
CONTINUOUS
 62
     6
 10
466.273912
 20
498.742861
 11
466.273912
 21
370.742861
  0
LINE
  8
CSLAYER1
  6
CONTINUOUS
 62
     6
 10
466.273912
 20
370.742861
 11
470.273912
 21
370.742861
  0
ARC
  8
CSLAYER1
  6
CONTINUOUS
 62
     6
 10
470.273912
 20
501.742861
 40
3.000000
 50
-89.999999
 51
0.000010
  0
ARC
  8
CSLAYER1
  6
CONTINUOUS
 62
     6
 10
470.273912
 20
367.742861
 40
3.000000
 50
0.000000
 51
90.000003
  0
LINE
  8
CSLAYER1
  6
CONTINUOUS
 62
     6
 10
473.273912
 20
513.122866
 11
473.273912
 21
356.362795
  0
LINE
  8
CSLAYER1
  6
CONTINUOUS
 62
     6
 10
475.213914
 20
515.122866
 11
479.773912
 21
515.242861
  0
LINE
  8
CSLAYER1
  6
CONTINUOUS
 62
     6
 10
428.693925
 20
499.922854
 11
466.273912
 21
498.742861
  0
LINE
  8
CSLAYER1
  6
CONTINUOUS
 62
     6
 10
425.773942
 20
357.602847
 11
425.773942
 21
511.602847
  0
ARC
  8
CSLAYER1
  6
CONTINUOUS
 62
     6
 10
422.773942
 20
511.602847
 40
3.000000
 50
0.000000
 51
88.489998
  0
LINE
  8
CSLAYER1
  6
CONTINUOUS
 62
     6
 10
433.813920
 20
501.802859
 11
430.633928
 21
501.882876
  0
ARC
  8
CSLAYER1
  6
CONTINUOUS
 62
     6
 10
430.773942
 20
506.882876
 40
5.000000
 50
180.000005
 51
268.500009
  0
ARC
  8
CSLAYER1
  6
CONTINUOUS
 62
     6
 10
433.773942
 20
499.802859
 40
2.000000
 50
28.420000
 51
88.499997
  0
LINE
  8
CSLAYER1
  6
CONTINUOUS
 62
     6
 10
435.773942
 20
428.742861
 11
435.773942
 21
440.742861
  0
LINE
  8
CSLAYER1
  6
CONTINUOUS
 62
     6
 10
450.273942
 20
485.822848
 11
450.273942
 21
475.581433
  0
LINE
  8
CSLAYER1
  6
CONTINUOUS
 62
     6
 10
433.773942
 20
442.742861
 11
425.773942
 21
442.742861
  0
LINE
  8
CSLAYER1
  6
CONTINUOUS
 62
     6
 10
433.773942
 20
426.742861
 11
425.773942
 21
426.742861
  0
LINE
  8
CSLAYER1
  6
CONTINUOUS
 62
     6
 10
445.393938
 20
490.822848
 11
425.773942
 21
491.342867
  0
LINE
  8
CSLAYER1
  6
CONTINUOUS
 62
     6
 10
445.406411
 20
470.583188
 11
425.773942
 21
470.062869
  0
ARC
  8
CSLAYER1
  6
CONTINUOUS
 62
     6
 10
445.273942
 20
485.822848
 40
5.000000
 50
0.000000
 51
88.489998
  0
ARC
  8
CSLAYER1
  6
CONTINUOUS
 62
     6
 10
433.773942
 20
440.742861
 40
2.000000
 50
0.000000
 51
90.000003
  0
ARC
  8
CSLAYER1
  6
CONTINUOUS
 62
     6
 10
433.773942
 20
428.742861
 40
2.000000
 50
-89.999999
 51
0.000010
  0
ARC
  8
CSLAYER1
  6
CONTINUOUS
 62
     6
 10
428.773942
 20
502.922854
 40
3.000000
 50
180.000005
 51
268.500009
  0
ARC
  8
CSLAYER1
  6
CONTINUOUS
 62
     6
 10
437.293931
 20
501.702853
 40
2.000000
 50
208.419999
 51
268.500009
  0
LINE
  8
CSLAYER1
  6
CONTINUOUS
 62
     6
 10
417.773942
 20
514.742800
 11
422.852997
 21
514.601805
  0
ARC
  8
CSLAYER1
  6
CONTINUOUS
 62
     6
 10
445.273942
 20
475.581433
 40
5.000000
 50
271.518155
 51
360.000000
  0
LINE
  8
CSLAYER1
  6
CONTINUOUS
 62
     6
 10
466.273912
 20
498.742861
 11
470.273912
 21
498.742861
  0
LINE
  8
CSLAYER1
  6
CONTINUOUS
 62
     6
 10
450.273942
 20
393.898837
 11
450.273942
 21
383.657422
  0
LINE
  8
CSLAYER1
  6
CONTINUOUS
 62
     6
 10
445.393938
 20
398.898837
 11
425.773942
 21
399.418856
  0
LINE
  8
CSLAYER1
  6
CONTINUOUS
 62
     6
 10
445.406411
 20
378.659177
 11
425.773942
 21
378.138857
  0
ARC
  8
CSLAYER1
  6
CONTINUOUS
 62
     6
 10
445.273942
 20
393.898837
 40
5.000000
 50
0.000000
 51
88.489998
  0
ARC
  8
CSLAYER1
  6
CONTINUOUS
 62
     6
 10
445.273942
 20
383.657422
 40
5.000000
 50
271.518155
 51
360.000000
  0
LINE
  8
CSLAYER1
  6
CONTINUOUS
 62
     6
 10
428.693925
 20
369.562808
 11
466.273912
 21
370.742800
  0
ARC
  8
CSLAYER1
  6
CONTINUOUS
 62
     6
 10
422.773942
 20
357.882815
 40
3.000000
 50
271.510002
 51
360.000000
  0
LINE
  8
CSLAYER1
  6
CONTINUOUS
 62
     6
 10
433.813920
 20
367.682803
 11
430.633928
 21
367.602786
  0
ARC
  8
CSLAYER1
  6
CONTINUOUS
 62
     6
 10
430.773942
 20
362.602786
 40
5.000000
 50
91.499991
 51
179.999995
  0
ARC
  8
CSLAYER1
  6
CONTINUOUS
 62
     6
 10
433.773942
 20
369.682803
 40
2.000000
 50
271.500003
 51
331.580000
  0
ARC
  8
CSLAYER1
  6
CONTINUOUS
 62
     6
 10
428.773942
 20
366.562808
 40
3.000000
 50
91.499991
 51
179.999995
  0
ARC
  8
CSLAYER1
  6
CONTINUOUS
 62
     6
 10
437.293931
 20
367.782809
 40
2.000000
 50
91.499991
 51
151.580001
  0
LINE
  8
CSLAYER1
  6
CONTINUOUS
 62
     6
 10
417.773942
 20
354.742861
 11
422.852997
 21
354.883857
  0
LINE
  8
CSLAYER1
  6
CONTINUOUS
 62
     6
 10
404.774006
 20
473.004806
 11
402.774006
 21
473.004806
  0
LINE
  8
CSLAYER1
  6
CONTINUOUS
 62
     6
 10
402.774006
 20
473.004806
 11
402.774006
 21
488.404806
  0
LINE
  8
CSLAYER1
  6
CONTINUOUS
 62
     6
 10
402.774006
 20
488.404806
 11
404.774006
 21
488.404806
  0
LINE
  8
CSLAYER1
  6
CONTINUOUS
 62
     6
 10
402.774006
 20
487.204806
 11
397.474006
 21
487.204806
  0
LINE
  8
CSLAYER1
  6
CONTINUOUS
 62
     6
 10
397.474006
 20
487.204806
 11
397.474006
 21
474.204806
  0
LINE
  8
CSLAYER1
  6
CONTINUOUS
 62
     6
 10
397.474006
 20
474.204806
 11
402.774006
 21
474.204806
  0
ARC
  8
CSLAYER1
  6
CONTINUOUS
 62
     6
 10
408.229559
 20
477.454806
 40
10.755553
 50
162.412046
 51
197.587954
  0
ARC
  8
CSLAYER1
  6
CONTINUOUS
 62
     6
 10
408.229559
 20
483.954806
 40
10.755553
 50
162.412046
 51
197.587954
  0
LINE
  8
CSLAYER1
  6
CONTINUOUS
 62
     6
 10
397.976783
 20
480.704806
 11
402.774006
 21
480.704806
  0
LINE
  8
CSLAYER1
  6
CONTINUOUS
 62
     6
 10
402.774006
 20
481.320806
 11
404.774006
 21
481.936806
  0
LINE
  8
CSLAYER1
  6
CONTINUOUS
 62
     6
 10
404.774006
 20
480.088806
 11
402.774006
 21
479.472806
  0
LINE
  8
CSLAYER1
  6
CONTINUOUS
 62
     6
 10
404.774041
 20
381.080856
 11
402.774041
 21
381.080856
  0
LINE
  8
CSLAYER1
  6
CONTINUOUS
 62
     6
 10
402.774041
 20
381.080856
 11
402.774041
 21
396.480856
  0
LINE
  8
CSLAYER1
  6
CONTINUOUS
 62
     6
 10
402.774041
 20
396.480856
 11
404.774041
 21
396.480856
  0
LINE
  8
CSLAYER1
  6
CONTINUOUS
 62
     6
 10
402.774041
 20
395.280856
 11
397.474041
 21
395.280856
  0
LINE
  8
CSLAYER1
  6
CONTINUOUS
 62
     6
 10
397.474041
 20
395.280856
 11
397.474041
 21
382.280856
  0
LINE
  8
CSLAYER1
  6
CONTINUOUS
 62
     6
 10
397.474041
 20
382.280856
 11
402.774041
 21
382.280856
  0
ARC
  8
CSLAYER1
  6
CONTINUOUS
 62
     6
 10
408.229595
 20
385.530856
 40
10.755553
 50
162.412046
 51
197.587954
  0
ARC
  8
CSLAYER1
  6
CONTINUOUS
 62
     6
 10
408.229595
 20
392.030856
 40
10.755553
 50
162.412046
 51
197.587954
  0
LINE
  8
CSLAYER1
  6
CONTINUOUS
 62
     6
 10
397.976818
 20
388.780856
 11
402.774041
 21
388.780856
  0
LINE
  8
CSLAYER1
  6
CONTINUOUS
 62
     6
 10
402.774041
 20
389.396856
 11
404.774041
 21
390.012856
  0
LINE
  8
CSLAYER1
  6
CONTINUOUS
 62
     6
 10
404.774041
 20
388.164856
 11
402.774041
 21
387.548856
  0
LINE
  8
CSLAYER1
  6
CONTINUOUS
 62
     6
 10
558.313890
 20
522.282748
 11
453.213914
 21
522.282748
  0
LINE
  8
CSLAYER1
  6
CENTER
 62
     3
 10
550.773882
 20
494.242831
 11
550.773882
 21
515.242831
  0
LINE
  8
CSLAYER1
  6
CONTINUOUS
 62
     6
 10
568.313890
 20
479.242831
 11
568.313890
 21
512.282748
  0
LINE
  8
CSLAYER1
  6
CONTINUOUS
 62
     6
 10
443.213914
 20
499.466934
 11
443.213914
 21
512.282748
  0
CIRCLE
  8
CSLAYER1
  6
CONTINUOUS
 62
     6
 10
460.773882
 20
504.742831
 40
5.500000
  0
LINE
  8
CSLAYER1
  6
CENTER
 62
     3
 10
561.273882
 20
504.742831
 11
540.273882
 21
504.742831
  0
ARC
  8
CSLAYER1
  6
CONTINUOUS
 62
     6
 10
550.773882
 20
504.742831
 40
5.500000
 50
-70.727138
 51
223.630838
  0
ARC
  8
CSLAYER1
  6
CONTINUOUS
 62
     6
 10
475.273912
 20
356.362795
 40
2.000000
 50
179.999995
 51
268.510005
  0
LINE
  8
CSLAYER1
  6
CONTINUOUS
 62
     6
 10
475.213914
 20
354.362795
 11
479.773912
 21
354.242800
  0
LINE
  8
CSLAYER1
  6
CENTER
 62
     3
 10
460.773882
 20
494.242831
 11
460.773882
 21
515.242831
  0
LINE
  8
CSLAYER1
  6
CENTER
 62
     3
 10
471.273882
 20
504.742831
 11
450.273882
 21
504.742831
  0
LINE
  8
CSLAYER1
  6
CONTINUOUS
 62
     6
 10
558.313890
 20
347.202914
 11
453.213914
 21
347.202914
  0
LINE
  8
CSLAYER1
  6
CENTER
 62
     3
 10
550.773882
 20
375.242831
 11
550.773882
 21
354.242831
  0
LINE
  8
CSLAYER1
  6
CONTINUOUS
 62
     6
 10
568.313890
 20
390.242831
 11
568.313890
 21
357.202914
  0
LINE
  8
CSLAYER1
  6
CONTINUOUS
 62
     6
 10
443.213914
 20
370.018728
 11
443.213914
 21
357.202914
  0
CIRCLE
  8
CSLAYER1
  6
CONTINUOUS
 62
     6
 10
460.773882
 20
364.742831
 40
5.500000
  0
LINE
  8
CSLAYER1
  6
CENTER
 62
     3
 10
561.273882
 20
364.742831
 11
540.273882
 21
364.742831
  0
ARC
  8
CSLAYER1
  6
CONTINUOUS
 62
     6
 10
550.773882
 20
364.742831
 40
5.500000
 50
-223.630838
 51
70.727138
  0
LINE
  8
CSLAYER1
  6
CENTER
 62
     3
 10
460.773882
 20
375.242831
 11
460.773882
 21
354.242831
  0
LINE
  8
CSLAYER1
  6
CENTER
 62
     3
 10
471.273882
 20
364.742831
 11
450.273882
 21
364.742831
  0
LINE
  8
CSLAYER1
  6
CONTINUOUS
 62
     6
 10
525.270350
 20
364.742861
 11
548.887393
 21
368.907183
  0
LINE
  8
CSLAYER1
  6
DASHED
 62
     6
 10
615.773942
 20
424.742831
 11
575.773942
 21
424.742831
  0
LINE
  8
CSLAYER1
  6
DASHED
 62
     6
 10
575.773942
 20
424.742831
 11
575.773942
 21
420.742831
  0
LINE
  8
CSLAYER1
  6
CONTINUOUS
 62
     6
 10
575.773942
 20
420.742831
 11
575.773942
 21
417.742831
  0
LINE
  8
CSLAYER1
  6
CONTINUOUS
 62
     6
 10
575.773942
 20
417.742831
 11
615.773942
 21
417.742831
  0
LINE
  8
CSLAYER1
  6
CONTINUOUS
 62
     3
 10
338.773892
 20
241.648776
 11
366.773892
 21
241.648746
  0
ARC
  8
CSLAYER1
  6
CONTINUOUS
 62
     3
 10
366.773892
 20
243.648746
 40
2.000000
 50
270.000001
 51
359.942691
  0
LINE
  8
CSLAYER1
  6
CONTINUOUS
 62
     3
 10
368.773892
 20
243.648746
 11
368.773892
 21
250.243012
  0
ARC
  8
CSLAYER1
  6
CONTINUOUS
 62
     3
 10
338.773892
 20
243.648776
 40
2.000000
 50
180.000005
 51
270.000001
  0
LINE
  8
CSLAYER1
  6
CONTINUOUS
 62
     3
 10
336.773892
 20
243.648776
 11
336.773892
 21
250.243012
  0
ARC
  8
CSLAYER1
  6
CONTINUOUS
 62
     6
 10
558.313890
 20
512.282748
 40
10.000000
 50
0.000000
 51
90.000000
  0
ARC
  8
CSLAYER1
  6
CONTINUOUS
 62
     6
 10
453.213914
 20
512.282748
 40
10.000000
 50
90.000000
 51
180.000000
  0
ARC
  8
CSLAYER1
  6
CONTINUOUS
 62
     6
 10
558.313890
 20
479.242831
 40
10.000000
 50
319.167784
 51
360.000000
  0
ARC
  8
CSLAYER1
  6
CONTINUOUS
 62
     6
 10
453.213914
 20
357.202914
 40
10.000000
 50
180.000000
 51
270.000000
  0
ARC
  8
CSLAYER1
  6
CONTINUOUS
 62
     6
 10
558.313890
 20
357.202914
 40
10.000000
 50
-90.000000
 51
0.000000
  0
ARC
  8
CSLAYER1
  6
CONTINUOUS
 62
     6
 10
558.313890
 20
390.242831
 40
10.000000
 50
0.000000
 51
40.840139
  0
ARC
  8
CSLAYER1
  6
CONTINUOUS
 62
     6
 10
397.905713
 20
434.742831
 40
152.188146
 50
-18.407522
 51
18.407522
  0
ARC
  8
CSLAYER1
  6
CONTINUOUS
 62
     6
 10
539.776550
 20
364.329503
 40
14.512088
 50
113.360488
 51
256.764199
  0
ARC
  8
CSLAYER1
  6
CONTINUOUS
 62
     6
 10
528.074567
 20
391.422435
 40
15.000000
 50
293.360488
 51
341.592478
  0
ARC
  8
CSLAYER1
  6
CONTINUOUS
 62
     6
 10
545.414430
 20
388.603338
 40
20.000000
 50
280.000000
 51
356.608053
  0
LINE
  8
CSLAYER1
  6
CONTINUOUS
 62
     6
 10
539.453875
 20
353.202914
 11
539.453875
 21
362.202914
  0
LINE
  8
CSLAYER1
  6
CONTINUOUS
 62
     6
 10
525.270350
 20
504.742800
 11
548.887393
 21
500.578478
  0
ARC
  8
CSLAYER1
  6
CONTINUOUS
 62
     6
 10
539.776550
 20
505.156158
 40
14.512088
 50
103.235801
 51
246.639512
  0
ARC
  8
CSLAYER1
  6
CONTINUOUS
 62
     6
 10
528.074567
 20
478.063226
 40
15.000000
 50
18.407522
 51
66.639512
  0
ARC
  8
CSLAYER1
  6
CONTINUOUS
 62
     6
 10
545.414430
 20
480.882323
 40
20.000000
 50
3.391947
 51
80.000000
  0
LINE
  8
CSLAYER1
  6
CONTINUOUS
 62
     6
 10
539.453875
 20
516.282748
 11
539.453875
 21
507.282748
  0
ENDSEC
  0
EOF
