  0
SECTION
  2
HEADER
  9
$ACADVER
  1
AC1006
  9
$INSBASE
 10
0.000000
 20
0.000000
 30
0.0
  9
$EXTMIN
 10
0.000000
 20
0.000000
  9
$EXTMAX
 10
594.000000
 20
420.000000
  9
$LIMMIN
 10
0.000000
 20
0.000000
  9
$LIMMAX
 10
594.000000
 20
420.000000
  9
$VIEWCTR
 10
297.000000
 20
210.000000
  9
$VIEWSIZE
 40
420.000000
  9
$SNAPMODE
 70
     0
  9
$SNAPUNIT
 10
1.0
 20
1.0
  9
$SNAPBASE
 10
0.0
 20
0.0
  9
$SNAPANG
 50
0.0
  9
$SNAPSTYLE
 70
     0
  9
$SNAPISOPAIR
 70
     0
  9
$GRIDMODE
 70
     0
  9
$GRIDUNIT
 10
0.0
 20
0.0
  9
$ORTHOMODE
 70
     0
  9
$REGENMODE
 70
     1
  9
$FILLMODE
 70
     1
  9
$QTEXTMODE
 70
     0
  9
$DRAGMODE
 70
     2
  9
$LTSCALE
 40
15.000000
  9
$OSMODE
 70
     0
  9
$ATTMODE
 70
     1
  9
$TEXTSIZE
 40
0.2
  9
$TRACEWID
 40
0.05
  9
$TEXTSTYLE
  7
STANDARD
  9
$CLAYER
  8
CSLAYER1
  9
$CELTYPE
  6
BYLAYER
  9
$CECOLOR
 62
   256
  9
$DIMSCALE
 40
1.0
  9
$DIMASZ
 40
0.18
  9
$DIMEXO
 40
0.0625
  9
$DIMDLI
 40
0.38
  9
$DIMRND
 40
0.0
  9
$DIMDLE
 40
0.0
  9
$DIMEXE
 40
0.18
  9
$DIMTP
 40
0.0
  9
$DIMTM
 40
0.0
  9
$DIMTXT
 40
0.18
  9
$DIMCEN
 40
0.09
  9
$DIMTSZ
 40
0.0
  9
$DIMTOL
 70
     0
  9
$DIMLIM
 70
     0
  9
$DIMTIH
 70
     1
  9
$DIMTOH
 70
     1
  9
$DIMSE1
 70
     0
  9
$DIMSE2
 70
     0
  9
$DIMTAD
 70
     0
  9
$DIMZIN
 70
     0
  9
$DIMBLK
  1

  9
$LUNITS
 70
     2
  9
$LUPREC
 70
     4
  9
$AXISMODE
 70
     0
  9
$AXISUNIT
 10
0.0
 20
0.0
  9
$SKETCHINC
 40
0.1
  9
$FILLETRAD
 40
0.0
  9
$AUNITS
 70
     0
  9
$AUPREC
 70
     0
  9
$MENU
  1
ACAD
  9
$ELEVATION
 40
0.0
  9
$THICKNESS
 40
0.0
  9
$VIEWDIR
 10
0.0
 20
0.0
 30
1.0
  9
$LIMCHECK
 70
     0
  9
$BLIPMODE
 70
     1
  9
$CHAMFERA
 40
0.0
  9
$CHAMFERB
 40
0.0
  9
$FASTZOOM
 70
     1
  9
$SKPOLY
 70
     0
  9
$TDCREATE
 40
0.000000
  9
$TDUPDATE
 40
0.000000
  9
$TDINDWG
 40
0.0
  9
$TDUSRTIMER
 40
0.0
  9
$USRTIMER
 70
     1
  9
$ANGBASE
 50
0.0
  9
$ANGDIR
 70
     0
  9
$PDMODE
 70
     0
  9
$PDSIZE
 40
0.0
  9
$PLINEWID
 40
0.0
  9
$COORDS
 70
     0
  9
$USERI1
 70
     0
  9
$USERI2
 70
     0
  9
$USERI3
 70
     0
  9
$USERI4
 70
     0
  9
$USERI5
 70
     0
  9
$USERR1
 40
0.0
  9
$USERR2
 40
0.0
  9
$USERR3
 40
0.0
  9
$USERR4
 40
0.0
  9
$USERR5
 40
0.0
  0
ENDSEC
  0
SECTION
  2
TABLES
  0
TABLE
  2
LTYPE
 70
     9
  0
LTYPE
  2
CONTINUOUS
 70
    64
  3
Solid line
 72
    65
 73
     0
 40
0.0
  0
LTYPE
  2
DASHED
 70
    64
  3
__ __ __ __ __ __ __ __ __ __ __ __ __ __ __
 72
    65
 73
     2
 40
0.75
 49
0.5
 49
-0.25
  0
LTYPE
  2
HIDDEN
 70
    64
  3
_ _ _ _ _ _ _ _ _ _ _ _ _ _ _ _ _ _ _ _ _ _ _
 72
    65
 73
     2
 40
0.375
 49
0.25
 49
-0.125
  0
LTYPE
  2
DOT
 70
    64
  3
...............................................
 72
    65
 73
     2
 40
0.25
 49
0.0
 49
-0.25
  0
LTYPE
  2
DASHDOT
 70
    64
  3
__ . __ . __ . __ . __ . __ . __ . __ . __ . __
 72
    65
 73
     4
 40
1.0
 49
0.5
 49
-0.25
 49
0.0
 49
-0.25
  0
LTYPE
  2
DIVIDE
 70
    64
  3
__ . . __ . . __ . . __ . . __ . . __ . . __
 72
    65
 73
     6
 40
1.25
 49
0.5
 49
-0.25
 49
0.0
 49
-0.25
 49
0.0
 49
-0.25
  0
LTYPE
  2
CENTER
 70
    64
  3
____ _ ____ _ ____ _ ____ _ ____ _ ____ _ ____ 
 72
    65
 73
     4
 40
2.0
 49
1.25
 49
-0.25
 49
0.25
 49
-0.25
  0
LTYPE
  2
PHANTOM
 70
    64
  3
______  __  __  ______  __  __  ______  __  __ 
 72
    65
 73
     6
 40
2.5
 49
1.25
 49
-0.25
 49
0.25
 49
-0.25
 49
0.25
 49
-0.25
  0
LTYPE
  2
BORDER
 70
    64
  3
__ __ . __ __ . __ __ . __ __ . __ __ . __ __ .
 72
    65
 73
     6
 40
1.75
 49
0.5
 49
-0.25
 49
0.5
 49
-0.25
 49
0.0
 49
-0.25
  0
ENDTAB
  0
TABLE
  2
LAYER
 70
    16
  0
LAYER
  2
CSLAYER1
 70
    64
 62
     7
  6
CONTINUOUS
  0
LAYER
  2
CSLAYER2
 70
    64
 62
     7
  6
CONTINUOUS
  0
LAYER
  2
CSLAYER3
 70
    64
 62
     7
  6
CONTINUOUS
  0
LAYER
  2
CSLAYER4
 70
    64
 62
     7
  6
CONTINUOUS
  0
LAYER
  2
CSLAYER5
 70
    64
 62
     7
  6
CONTINUOUS
  0
LAYER
  2
CSLAYER6
 70
    64
 62
     7
  6
CONTINUOUS
  0
LAYER
  2
CSLAYER7
 70
    64
 62
     7
  6
CONTINUOUS
  0
LAYER
  2
CSLAYER8
 70
    64
 62
     7
  6
CONTINUOUS
  0
LAYER
  2
CSLAYER9
 70
    64
 62
     7
  6
CONTINUOUS
  0
LAYER
  2
CSLAYER10
 70
    64
 62
     7
  6
CONTINUOUS
  0
LAYER
  2
CSLAYER11
 70
    64
 62
     7
  6
CONTINUOUS
  0
LAYER
  2
CSLAYER12
 70
    64
 62
     7
  6
CONTINUOUS
  0
LAYER
  2
CSLAYER13
 70
    64
 62
     7
  6
CONTINUOUS
  0
LAYER
  2
CSLAYER14
 70
    64
 62
     7
  6
CONTINUOUS
  0
LAYER
  2
CSLAYER15
 70
    64
 62
     7
  6
CONTINUOUS
  0
LAYER
  2
CSLAYER16
 70
    64
 62
     7
  6
CONTINUOUS
  0
ENDTAB
  0
TABLE
  2
STYLE
 70
     1
  0
STYLE
  2
JX_FONT
 70
     0
 40
1.0
 41
1.0
 50
0.0
 71
     0
 42
1.0
  3
monotxt
  4
bigfont
  0
ENDTAB
  0
TABLE
  2
VIEW
 70
     0
  0
ENDTAB
  0
ENDSEC
  0
SECTION
  2
BLOCKS
  0
ENDSEC
  0
SECTION
  2
ENTITIES
  0
LINE
  8
CSLAYER1
  6
CENTER
 62
     3
 10
73.737132
 20
148.934517
 11
73.737132
 21
277.159123
  0
ARC
  8
CSLAYER1
  6
CENTER
 62
     3
 10
73.737132
 20
221.159123
 40
36.500000
 50
45.074661
 51
74.925352
  0
LINE
  8
CSLAYER1
  6
CENTER
 62
     3
 10
87.237124
 20
244.541794
 11
96.737124
 21
260.996277
  0
LINE
  8
CSLAYER1
  6
CENTER
 62
     3
 10
106.737132
 20
263.659123
 11
125.737132
 21
263.659123
  0
LINE
  8
CSLAYER1
  6
CENTER
 62
     3
 10
116.237132
 20
254.159123
 11
116.237132
 21
273.159123
  0
LINE
  8
CSLAYER1
  6
CENTER
 62
     3
 10
129.737132
 20
221.159123
 11
17.737132
 21
221.159123
  0
ARC
  8
CSLAYER1
  6
CENTER
 62
     3
 10
73.737132
 20
221.159123
 40
36.500000
 50
165.074661
 51
194.925352
  0
LINE
  8
CSLAYER1
  6
CENTER
 62
     3
 10
31.237132
 20
254.159123
 11
31.237132
 21
273.159123
  0
LINE
  8
CSLAYER1
  6
CENTER
 62
     3
 10
40.737132
 20
263.659123
 11
21.737132
 21
263.659123
  0
LINE
  8
CSLAYER1
  6
CENTER
 62
     3
 10
31.237132
 20
188.159123
 11
31.237132
 21
169.159123
  0
LINE
  8
CSLAYER1
  6
CENTER
 62
     3
 10
40.737132
 20
178.659123
 11
21.737132
 21
178.659123
  0
ARC
  8
CSLAYER1
  6
CENTER
 62
     3
 10
73.737132
 20
221.159123
 40
36.500000
 50
285.074648
 51
314.925339
  0
LINE
  8
CSLAYER1
  6
CENTER
 62
     3
 10
87.237124
 20
197.776452
 11
96.737124
 21
181.321969
  0
LINE
  8
CSLAYER1
  6
CENTER
 62
     3
 10
106.737132
 20
178.659123
 11
125.737132
 21
178.659123
  0
LINE
  8
CSLAYER1
  6
CENTER
 62
     3
 10
116.237132
 20
188.159123
 11
116.237132
 21
169.159123
  0
LINE
  8
CSLAYER1
  6
CENTER
 62
     3
 10
160.627048
 20
189.549208
 11
175.078814
 21
189.549210
  0
LINE
  8
CSLAYER1
  6
CENTER
 62
     3
 10
205.885661
 20
180.559123
 11
205.885661
 21
155.501308
  0
LINE
  8
CSLAYER1
  6
CENTER
 62
     3
 10
243.885661
 20
173.459111
 11
243.885661
 21
184.159123
  0
LINE
  8
CSLAYER1
  6
CENTER
 62
     3
 10
248.885661
 20
189.159123
 11
248.885661
 21
253.159123
  0
LINE
  8
CSLAYER1
  6
CENTER
 62
     3
 10
248.885661
 20
292.159108
 11
248.885661
 21
314.765919
  0
LINE
  8
CSLAYER1
  6
CENTER
 62
     3
 10
175.078819
 20
327.909124
 11
160.627053
 21
327.909122
  0
LINE
  8
CSLAYER1
  6
CENTER
 62
     3
 10
160.627039
 20
252.769036
 11
175.078805
 21
252.769039
  0
LINE
  8
CSLAYER1
  6
CENTER
 62
     3
 10
136.585661
 20
221.159123
 11
461.885631
 21
221.159123
  0
LINE
  8
CSLAYER1
  6
CENTER
 62
     3
 10
419.885661
 20
263.659123
 11
400.885661
 21
263.659123
  0
LINE
  8
CSLAYER1
  6
CONTINUOUS
 62
     3
 10
358.885631
 20
266.159123
 11
358.885631
 21
259.564857
  0
ARC
  8
CSLAYER1
  6
CONTINUOUS
 62
     3
 10
356.885631
 20
259.564857
 40
2.000000
 50
270.000001
 51
359.942691
  0
LINE
  8
CSLAYER1
  6
CONTINUOUS
 62
     3
 10
356.885631
 20
257.564857
 11
328.885631
 21
257.564888
  0
ARC
  8
CSLAYER1
  6
CONTINUOUS
 62
     3
 10
328.885631
 20
259.564888
 40
2.000000
 50
180.000005
 51
270.000001
  0
LINE
  8
CSLAYER1
  6
CONTINUOUS
 62
     3
 10
326.885631
 20
259.564888
 11
326.885631
 21
266.159123
  0
LINE
  8
CSLAYER1
  6
CENTER
 62
     3
 10
400.885631
 20
303.659123
 11
419.885631
 21
303.659123
  0
ARC
  8
CSLAYER1
  6
CONTINUOUS
 62
     3
 10
356.885631
 20
322.659123
 40
2.000000
 50
270.000000
 51
360.000000
  0
LINE
  8
CSLAYER1
  6
CONTINUOUS
 62
     3
 10
356.885631
 20
320.659123
 11
328.885631
 21
320.659123
  0
ARC
  8
CSLAYER1
  6
CONTINUOUS
 62
     3
 10
328.885631
 20
322.659123
 40
2.000000
 50
180.000000
 51
270.000000
  0
LINE
  8
CSLAYER1
  6
CONTINUOUS
 62
     3
 10
326.885631
 20
322.659123
 11
326.885631
 21
369.659123
  0
ARC
  8
CSLAYER1
  6
CONTINUOUS
 62
     3
 10
328.885631
 20
369.659123
 40
2.000000
 50
90.000000
 51
180.000000
  0
LINE
  8
CSLAYER1
  6
CONTINUOUS
 62
     3
 10
328.885631
 20
371.659123
 11
356.885631
 21
371.659123
  0
ARC
  8
CSLAYER1
  6
CONTINUOUS
 62
     3
 10
356.885631
 20
369.659123
 40
2.000000
 50
0.000000
 51
90.000000
  0
LINE
  8
CSLAYER1
  6
CONTINUOUS
 62
     3
 10
358.885631
 20
369.659123
 11
358.885631
 21
322.659123
  0
LINE
  8
CSLAYER1
  6
CENTER
 62
     3
 10
400.885631
 20
388.659123
 11
419.885631
 21
388.659123
  0
LINE
  8
CSLAYER1
  6
CENTER
 62
     3
 10
461.885631
 20
346.159123
 11
136.585661
 21
346.159123
  0
LINE
  8
CSLAYER1
  6
CENTER
 62
     3
 10
160.627061
 20
382.659124
 11
175.078827
 21
382.659122
  0
LINE
  8
CSLAYER1
  6
CENTER
 62
     3
 10
248.885661
 20
377.552296
 11
248.885661
 21
400.159108
  0
LINE
  8
CSLAYER1
  6
CENTER
 62
     3
 10
471.974454
 20
263.659123
 11
490.974454
 21
263.659123
  0
LINE
  8
CSLAYER1
  6
CENTER
 62
     3
 10
481.474454
 20
254.159123
 11
481.474454
 21
273.159123
  0
LINE
  8
CSLAYER1
  6
CENTER
 62
     3
 10
510.474454
 20
258.159145
 11
537.474454
 21
258.159145
  0
LINE
  8
CSLAYER1
  6
CENTER
 62
     3
 10
556.974454
 20
263.659123
 11
575.974454
 21
263.659123
  0
LINE
  8
CSLAYER1
  6
CENTER
 62
     3
 10
566.474454
 20
254.159123
 11
566.474454
 21
273.159123
  0
LINE
  8
CSLAYER1
  6
CENTER
 62
     3
 10
523.974454
 20
277.159123
 11
523.974454
 21
165.159123
  0
LINE
  8
CSLAYER1
  6
CENTER
 62
     3
 10
537.474454
 20
184.159100
 11
510.474454
 21
184.159100
  0
LINE
  8
CSLAYER1
  6
CENTER
 62
     3
 10
490.974454
 20
178.659123
 11
471.974454
 21
178.659123
  0
LINE
  8
CSLAYER1
  6
CENTER
 62
     3
 10
481.474454
 20
188.159123
 11
481.474454
 21
169.159123
  0
LINE
  8
CSLAYER1
  6
CENTER
 62
     3
 10
556.974454
 20
178.659123
 11
575.974454
 21
178.659123
  0
LINE
  8
CSLAYER1
  6
CENTER
 62
     3
 10
566.474454
 20
169.159123
 11
566.474454
 21
188.159123
  0
LINE
  8
CSLAYER1
  6
CENTER
 62
     3
 10
579.974454
 20
221.159123
 11
467.974454
 21
221.159123
  0
LINE
  8
CSLAYER1
  6
CENTER
 62
     3
 10
419.885661
 20
178.659123
 11
400.885661
 21
178.659123
  0
LINE
  8
CSLAYER1
  6
CENTER
 62
     3
 10
400.885631
 20
128.659123
 11
419.885631
 21
128.659123
  0
LINE
  8
CSLAYER1
  6
CENTER
 62
     3
 10
461.885631
 20
86.159123
 11
136.585661
 21
86.159123
  0
LINE
  8
CSLAYER1
  6
CENTER
 62
     3
 10
160.627061
 20
104.409124
 11
175.078827
 21
104.409122
  0
LINE
  8
CSLAYER1
  6
CENTER
 62
     3
 10
205.885661
 20
93.159123
 11
205.885661
 21
79.159123
  0
LINE
  8
CSLAYER1
  6
CENTER
 62
     3
 10
237.885661
 20
76.409085
 11
237.885661
 21
95.909085
  0
LINE
  8
CSLAYER1
  6
CENTER
 62
     3
 10
238.135668
 20
101.159123
 11
249.635668
 21
101.159123
  0
LINE
  8
CSLAYER1
  6
CENTER
 62
     3
 10
249.635668
 20
71.159123
 11
238.135668
 21
71.159123
  0
LINE
  8
CSLAYER1
  6
CENTER
 62
     3
 10
243.885661
 20
65.159123
 11
243.885661
 21
107.159123
  0
LINE
  8
CSLAYER1
  6
CENTER
 62
     3
 10
248.885661
 20
117.552296
 11
248.885661
 21
140.159108
  0
LINE
  8
CSLAYER1
  6
CENTER
 62
     3
 10
248.885661
 20
54.765919
 11
248.885661
 21
32.159108
  0
LINE
  8
CSLAYER1
  6
CENTER
 62
     3
 10
175.078819
 20
49.659124
 11
160.627053
 21
49.659122
  0
LINE
  8
CSLAYER1
  6
CENTER
 62
     3
 10
400.885631
 20
43.659123
 11
419.885631
 21
43.659123
  0
TEXT
  8
CSLAYER1
 62
     3
 10
67.682816
 20
188.946625
 40
2.000000
 41
1.500000
  1
1
 50
0.000000
 51
10.000000
  7
JX_FONT
 72
     5
 11
69.682816
 21
188.946625
  0
TEXT
  8
CSLAYER1
 62
     3
 10
70.182800
 20
188.946625
 40
2.000000
 41
1.500000
  1
2
 50
0.000000
 51
10.000000
  7
JX_FONT
 72
     5
 11
72.182800
 21
188.946625
  0
TEXT
  8
CSLAYER1
 62
     3
 10
72.682800
 20
188.946625
 40
2.000000
 41
1.500000
  1
3
 50
0.000000
 51
10.000000
  7
JX_FONT
 72
     5
 11
74.682800
 21
188.946625
  0
TEXT
  8
CSLAYER1
 62
     3
 10
75.182800
 20
188.946625
 40
2.000000
 41
1.500000
  1
4
 50
0.000000
 51
10.000000
  7
JX_FONT
 72
     5
 11
77.182800
 21
188.946625
  0
TEXT
  8
CSLAYER1
 62
     3
 10
77.682800
 20
188.946625
 40
2.000000
 41
1.500000
  1
5
 50
0.000000
 51
10.000000
  7
JX_FONT
 72
     5
 11
79.682800
 21
188.946625
  0
TEXT
  8
CSLAYER1
 62
     3
 10
62.427597
 20
202.990967
 40
2.000000
 41
0.934615
  1
HEDS-5500
 50
90.000000
 51
10.000000
  7
JX_FONT
 72
     5
 11
62.427597
 21
219.190966
  0
TEXT
  8
CSLAYER1
 62
     3
 10
340.942383
 20
351.409119
 40
3.500000
 41
1.125000
  1
N P
 50
-90.000000
 51
10.000000
  7
JX_FONT
 72
     5
 11
340.942383
 21
340.909119
  0
LINE
  8
CSLAYER1
  6
CONTINUOUS
 62
     6
 10
67.871228
 20
149.026905
 11
69.984334
 21
153.144708
  0
LINE
  8
CSLAYER1
  6
CONTINUOUS
 62
     6
 10
69.269415
 20
153.506881
 11
67.040738
 21
149.592882
  0
LINE
  8
CSLAYER1
  6
CONTINUOUS
 62
     6
 10
68.815291
 20
148.682247
 11
70.695437
 21
152.775098
  0
LINE
  8
CSLAYER1
  6
CONTINUOUS
 62
     6
 10
71.315301
 20
152.452912
 11
68.653368
 21
153.836504
  0
ARC
  8
CSLAYER1
  6
CONTINUOUS
 62
     6
 10
52.247654
 20
162.363570
 40
18.489456
 50
332.536225
 51
359.942687
  0
LINE
  8
CSLAYER1
  6
CONTINUOUS
 62
     6
 10
70.737101
 20
162.363639
 11
70.737101
 21
164.099816
  0
ARC
  8
CSLAYER1
  6
CONTINUOUS
 62
     6
 10
71.487103
 20
162.800765
 40
1.500010
 50
77.905623
 51
120.000345
  0
ARC
  8
CSLAYER1
  6
CONTINUOUS
 62
     6
 10
71.487087
 20
165.398858
 40
1.500010
 50
240.000345
 51
278.069511
  0
LINE
  8
CSLAYER1
  6
CONTINUOUS
 62
     6
 10
71.042737
 20
162.328135
 11
72.453561
 21
161.594831
  0
ARC
  8
CSLAYER1
  6
CONTINUOUS
 62
     6
 10
62.347709
 20
166.847480
 40
11.389411
 50
332.536225
 51
359.942687
  0
LINE
  8
CSLAYER1
  6
CONTINUOUS
 62
     6
 10
73.737114
 20
166.836087
 11
73.737133
 21
167.767686
  0
ARC
  8
CSLAYER1
  6
CONTINUOUS
 62
     6
 10
74.134632
 20
168.456183
 40
0.795005
 50
240.000345
 51
300.000345
  0
ARC
  8
CSLAYER1
  6
CONTINUOUS
 62
     6
 10
74.134640
 20
167.079193
 40
0.795005
 50
60.000345
 51
120.000345
  0
ARC
  8
CSLAYER1
  6
CONTINUOUS
 62
     6
 10
73.339622
 20
167.079198
 40
0.795005
 50
60.000345
 51
120.000345
  0
ARC
  8
CSLAYER1
  6
CONTINUOUS
 62
     6
 10
72.544617
 20
167.079193
 40
0.795005
 50
60.000345
 51
120.000345
  0
ARC
  8
CSLAYER1
  6
CONTINUOUS
 62
     6
 10
72.544609
 20
168.456183
 40
0.795005
 50
240.000345
 51
300.000345
  0
LINE
  8
CSLAYER1
  6
CONTINUOUS
 62
     6
 10
72.147116
 20
167.767690
 11
72.147116
 21
166.847517
  0
ARC
  8
CSLAYER1
  6
CONTINUOUS
 62
     6
 10
62.347709
 20
166.847480
 40
9.799412
 50
332.536225
 51
359.942687
  0
LINE
  8
CSLAYER1
  6
CONTINUOUS
 62
     6
 10
71.369242
 20
162.153435
 11
70.188044
 21
160.079015
  0
LINE
  8
CSLAYER1
  6
CONTINUOUS
 62
     6
 10
70.628203
 20
159.779047
 11
71.748149
 21
161.961483
  0
LINE
  8
CSLAYER1
  6
CONTINUOUS
 62
     6
 10
72.125034
 20
161.765590
 11
71.128557
 21
159.596379
  0
ARC
  8
CSLAYER1
  6
CONTINUOUS
 62
     6
 10
52.247654
 20
162.363570
 40
21.489455
 50
332.536225
 51
359.942687
  0
ARC
  8
CSLAYER1
  6
CONTINUOUS
 62
     6
 10
95.226611
 20
162.363639
 40
21.489455
 50
180.000020
 51
207.463892
  0
LINE
  8
CSLAYER1
  6
CONTINUOUS
 62
     6
 10
73.737098
 20
162.342074
 11
73.737134
 21
164.099807
  0
ARC
  8
CSLAYER1
  6
CONTINUOUS
 62
     6
 10
74.487131
 20
165.398858
 40
1.500010
 50
240.000345
 51
255.551203
  0
ARC
  8
CSLAYER1
  6
CONTINUOUS
 62
     6
 10
74.487147
 20
162.800765
 40
1.500010
 50
107.291250
 51
120.000345
  0
ARC
  8
CSLAYER1
  6
CONTINUOUS
 62
     6
 10
72.987113
 20
162.800774
 40
1.500010
 50
60.000345
 51
72.708151
  0
LINE
  8
CSLAYER1
  6
CONTINUOUS
 62
     6
 10
73.737165
 20
166.334803
 11
73.737132
 21
176.159123
  0
LINE
  8
CSLAYER1
  6
CONTINUOUS
 62
     6
 10
73.737132
 20
176.159123
 11
73.737150
 21
168.952233
  0
ARC
  8
CSLAYER1
  6
CONTINUOUS
 62
     6
 10
73.339645
 20
169.640733
 40
0.795011
 50
239.999981
 51
299.999981
  0
ARC
  8
CSLAYER1
  6
CONTINUOUS
 62
     6
 10
73.339644
 20
168.263734
 40
0.795011
 50
59.999981
 51
119.999981
  0
ARC
  8
CSLAYER1
  6
CONTINUOUS
 62
     6
 10
74.134657
 20
169.640733
 40
0.795011
 50
239.999981
 51
299.999981
  0
ARC
  8
CSLAYER1
  6
CONTINUOUS
 62
     6
 10
74.929668
 20
169.640733
 40
0.795011
 50
239.999981
 51
299.999981
  0
ARC
  8
CSLAYER1
  6
CONTINUOUS
 62
     6
 10
74.929667
 20
168.263734
 40
0.795011
 50
59.999981
 51
119.999981
  0
LINE
  8
CSLAYER1
  6
CONTINUOUS
 62
     6
 10
75.327150
 20
168.952233
 11
75.327144
 21
175.159123
  0
LINE
  8
CSLAYER1
  6
CONTINUOUS
 62
     6
 10
76.737155
 20
175.159123
 11
76.737165
 21
166.334803
  0
ARC
  8
CSLAYER1
  6
CONTINUOUS
 62
     6
 10
75.987199
 20
167.633858
 40
1.500020
 50
244.594310
 51
299.999981
  0
ARC
  8
CSLAYER1
  6
CONTINUOUS
 62
     6
 10
75.987198
 20
165.035747
 40
1.500020
 50
59.999981
 51
115.648168
  0
ARC
  8
CSLAYER1
  6
CONTINUOUS
 62
     6
 10
85.126556
 20
166.847480
 40
9.799412
 50
179.999963
 51
207.463892
  0
LINE
  8
CSLAYER1
  6
CONTINUOUS
 62
     6
 10
76.431540
 20
162.328110
 11
75.020716
 21
161.594831
  0
ARC
  8
CSLAYER1
  6
CONTINUOUS
 62
     6
 10
85.126556
 20
166.847517
 40
11.389411
 50
180.000020
 51
207.463892
  0
ARC
  8
CSLAYER1
  6
CONTINUOUS
 62
     6
 10
74.929645
 20
167.079198
 40
0.795005
 50
60.000345
 51
120.000345
  0
LINE
  8
CSLAYER1
  6
CONTINUOUS
 62
     6
 10
75.327150
 20
167.767690
 11
75.327150
 21
166.847517
  0
ARC
  8
CSLAYER1
  6
CONTINUOUS
 62
     6
 10
75.987156
 20
162.800774
 40
1.500010
 50
60.000345
 51
102.094271
  0
LINE
  8
CSLAYER1
  6
CONTINUOUS
 62
     6
 10
76.737165
 20
164.099816
 11
76.737165
 21
162.363639
  0
ARC
  8
CSLAYER1
  6
CONTINUOUS
 62
     6
 10
95.226611
 20
162.363570
 40
18.489456
 50
179.999963
 51
207.463892
  0
LINE
  8
CSLAYER1
  6
CONTINUOUS
 62
     6
 10
78.820921
 20
153.836458
 11
76.158988
 21
152.452912
  0
LINE
  8
CSLAYER1
  6
CONTINUOUS
 62
     6
 10
76.800161
 20
152.793415
 11
78.455805
 21
148.934517
  0
LINE
  8
CSLAYER1
  6
CONTINUOUS
 62
     6
 10
79.469717
 20
149.296637
 11
77.489954
 21
153.144685
  0
LINE
  8
CSLAYER1
  6
CONTINUOUS
 62
     6
 10
78.176804
 20
153.501677
 11
80.353839
 21
149.911027
  0
LINE
  8
CSLAYER1
  6
CONTINUOUS
 62
     6
 10
76.775402
 20
159.922005
 11
75.726128
 21
161.961471
  0
LINE
  8
CSLAYER1
  6
CONTINUOUS
 62
     6
 10
76.090158
 20
162.150676
 11
77.243987
 21
160.247632
  0
LINE
  8
CSLAYER1
  6
CONTINUOUS
 62
     6
 10
76.238029
 20
159.730082
 11
75.360538
 21
161.775298
  0
ARC
  8
CSLAYER1
  6
CONTINUOUS
 62
     6
 10
71.487135
 20
167.633859
 40
1.500020
 50
239.999981
 51
295.402657
  0
LINE
  8
CSLAYER1
  6
CONTINUOUS
 62
     6
 10
70.737123
 20
166.334803
 11
70.737113
 21
175.159123
  0
LINE
  8
CSLAYER1
  6
CONTINUOUS
 62
     6
 10
70.027132
 20
175.159123
 11
77.447132
 21
175.159123
  0
LINE
  8
CSLAYER1
  6
CONTINUOUS
 62
     6
 10
77.447132
 20
175.159123
 11
77.447132
 21
176.159123
  0
LINE
  8
CSLAYER1
  6
CONTINUOUS
 62
     6
 10
77.447132
 20
176.159123
 11
70.027132
 21
176.159123
  0
LINE
  8
CSLAYER1
  6
CONTINUOUS
 62
     6
 10
70.027132
 20
176.159123
 11
70.027132
 21
175.159123
  0
LINE
  8
CSLAYER1
  6
CONTINUOUS
 62
     6
 10
72.147122
 20
175.159123
 11
72.147128
 21
168.952233
  0
ARC
  8
CSLAYER1
  6
CONTINUOUS
 62
     6
 10
72.544634
 20
169.640733
 40
0.795011
 50
239.999981
 51
299.999981
  0
LINE
  8
CSLAYER1
  6
CONTINUOUS
 62
     6
 10
71.735139
 20
171.159123
 11
31.237132
 21
171.159123
  0
LINE
  8
CSLAYER1
  6
CONTINUOUS
 62
     6
 10
35.404317
 20
172.423373
 11
47.562573
 21
180.548410
  0
ARC
  8
CSLAYER1
  6
CONTINUOUS
 62
     6
 10
50.896320
 20
175.559810
 40
6.000000
 50
63.393594
 51
123.753747
  0
LINE
  8
CSLAYER1
  6
CONTINUOUS
 62
     6
 10
60.737132
 20
195.159123
 11
86.737132
 21
195.159123
  0
ARC
  8
CSLAYER1
  6
CONTINUOUS
 62
     6
 10
86.737132
 20
197.159123
 40
2.000000
 50
270.000000
 51
360.000000
  0
LINE
  8
CSLAYER1
  6
CONTINUOUS
 62
     6
 10
88.737132
 20
197.159123
 11
88.737132
 21
221.159123
  0
ARC
  8
CSLAYER1
  6
CONTINUOUS
 62
     6
 10
73.737132
 20
221.159123
 40
15.000000
 50
-0.000000
 51
180.000000
  0
LINE
  8
CSLAYER1
  6
CONTINUOUS
 62
     6
 10
58.737132
 20
221.159123
 11
58.737132
 21
197.159123
  0
ARC
  8
CSLAYER1
  6
CONTINUOUS
 62
     6
 10
60.737132
 20
197.159123
 40
2.000000
 50
180.000000
 51
270.000000
  0
LINE
  8
CSLAYER1
  6
CONTINUOUS
 62
     6
 10
62.237132
 20
197.159123
 11
85.237132
 21
197.159123
  0
ARC
  8
CSLAYER1
  6
CONTINUOUS
 62
     6
 10
85.237132
 20
198.659123
 40
1.500000
 50
270.000000
 51
360.000000
  0
LINE
  8
CSLAYER1
  6
CONTINUOUS
 62
     6
 10
86.737132
 20
198.659123
 11
86.737132
 21
199.159123
  0
LINE
  8
CSLAYER1
  6
CONTINUOUS
 62
     6
 10
86.737132
 20
199.159123
 11
82.237132
 21
199.159123
  0
ARC
  8
CSLAYER1
  6
CONTINUOUS
 62
     6
 10
82.237132
 20
200.159123
 40
1.000000
 50
180.000000
 51
270.000000
  0
ARC
  8
CSLAYER1
  6
CONTINUOUS
 62
     6
 10
80.237132
 20
200.159123
 40
1.000000
 50
0.000000
 51
90.000000
  0
LINE
  8
CSLAYER1
  6
CONTINUOUS
 62
     6
 10
80.237132
 20
201.159123
 11
67.237132
 21
201.159123
  0
ARC
  8
CSLAYER1
  6
CONTINUOUS
 62
     6
 10
67.237132
 20
200.159123
 40
1.000000
 50
90.000000
 51
180.000000
  0
ARC
  8
CSLAYER1
  6
CONTINUOUS
 62
     6
 10
65.237132
 20
200.159123
 40
1.000000
 50
270.000000
 51
360.000000
  0
LINE
  8
CSLAYER1
  6
CONTINUOUS
 62
     6
 10
65.237132
 20
199.159123
 11
60.737132
 21
199.159123
  0
LINE
  8
CSLAYER1
  6
CONTINUOUS
 62
     6
 10
60.737132
 20
199.159123
 11
60.737132
 21
198.659123
  0
ARC
  8
CSLAYER1
  6
CONTINUOUS
 62
     6
 10
62.237132
 20
198.659123
 40
1.500000
 50
180.000000
 51
270.000000
  0
LINE
  8
CSLAYER1
  6
CONTINUOUS
 62
     6
 10
68.362132
 20
197.159123
 11
68.362132
 21
199.159123
  0
LINE
  8
CSLAYER1
  6
CONTINUOUS
 62
     6
 10
68.362132
 20
199.159123
 11
67.987132
 21
199.659123
  0
LINE
  8
CSLAYER1
  6
CONTINUOUS
 62
     6
 10
67.987132
 20
199.659123
 11
67.987132
 21
201.159123
  0
LINE
  8
CSLAYER1
  6
CONTINUOUS
 62
     6
 10
69.487132
 20
201.159123
 11
69.487132
 21
199.659123
  0
LINE
  8
CSLAYER1
  6
CONTINUOUS
 62
     6
 10
69.487132
 20
199.659123
 11
69.112132
 21
199.159123
  0
LINE
  8
CSLAYER1
  6
CONTINUOUS
 62
     6
 10
69.112132
 20
199.159123
 11
69.112132
 21
197.159123
  0
LINE
  8
CSLAYER1
  6
CONTINUOUS
 62
     6
 10
70.862132
 20
197.159123
 11
70.862132
 21
199.159123
  0
LINE
  8
CSLAYER1
  6
CONTINUOUS
 62
     6
 10
70.862132
 20
199.159123
 11
70.487132
 21
199.659123
  0
LINE
  8
CSLAYER1
  6
CONTINUOUS
 62
     6
 10
70.487132
 20
199.659123
 11
70.487132
 21
201.159123
  0
LINE
  8
CSLAYER1
  6
CONTINUOUS
 62
     6
 10
71.987132
 20
201.159123
 11
71.987132
 21
199.659123
  0
LINE
  8
CSLAYER1
  6
CONTINUOUS
 62
     6
 10
71.987132
 20
199.659123
 11
71.612132
 21
199.159123
  0
LINE
  8
CSLAYER1
  6
CONTINUOUS
 62
     6
 10
71.612132
 20
199.159123
 11
71.612132
 21
197.159123
  0
LINE
  8
CSLAYER1
  6
CONTINUOUS
 62
     6
 10
73.362132
 20
197.159123
 11
73.362132
 21
199.159123
  0
LINE
  8
CSLAYER1
  6
CONTINUOUS
 62
     6
 10
73.362132
 20
199.159123
 11
72.987132
 21
199.659123
  0
LINE
  8
CSLAYER1
  6
CONTINUOUS
 62
     6
 10
72.987132
 20
199.659123
 11
72.987132
 21
201.159123
  0
LINE
  8
CSLAYER1
  6
CONTINUOUS
 62
     6
 10
74.487132
 20
201.159123
 11
74.487132
 21
199.659123
  0
LINE
  8
CSLAYER1
  6
CONTINUOUS
 62
     6
 10
74.487132
 20
199.659123
 11
74.112132
 21
199.159123
  0
LINE
  8
CSLAYER1
  6
CONTINUOUS
 62
     6
 10
74.112132
 20
199.159123
 11
74.112132
 21
197.159123
  0
LINE
  8
CSLAYER1
  6
CONTINUOUS
 62
     6
 10
75.862132
 20
197.159123
 11
75.862132
 21
199.159123
  0
LINE
  8
CSLAYER1
  6
CONTINUOUS
 62
     6
 10
75.862132
 20
199.159123
 11
75.487132
 21
199.659123
  0
LINE
  8
CSLAYER1
  6
CONTINUOUS
 62
     6
 10
75.487132
 20
199.659123
 11
75.487132
 21
201.159123
  0
LINE
  8
CSLAYER1
  6
CONTINUOUS
 62
     6
 10
76.987132
 20
201.159123
 11
76.987132
 21
199.659123
  0
LINE
  8
CSLAYER1
  6
CONTINUOUS
 62
     6
 10
76.987132
 20
199.659123
 11
76.612132
 21
199.159123
  0
LINE
  8
CSLAYER1
  6
CONTINUOUS
 62
     6
 10
76.612132
 20
199.159123
 11
76.612132
 21
197.159123
  0
LINE
  8
CSLAYER1
  6
CONTINUOUS
 62
     6
 10
78.362132
 20
197.159123
 11
78.362132
 21
199.159123
  0
LINE
  8
CSLAYER1
  6
CONTINUOUS
 62
     6
 10
78.362132
 20
199.159123
 11
77.987132
 21
199.659123
  0
LINE
  8
CSLAYER1
  6
CONTINUOUS
 62
     6
 10
77.987132
 20
199.659123
 11
77.987132
 21
201.159123
  0
LINE
  8
CSLAYER1
  6
CONTINUOUS
 62
     6
 10
79.487132
 20
201.159123
 11
79.487132
 21
199.659123
  0
LINE
  8
CSLAYER1
  6
CONTINUOUS
 62
     6
 10
79.487132
 20
199.659123
 11
79.112132
 21
199.159123
  0
LINE
  8
CSLAYER1
  6
CONTINUOUS
 62
     6
 10
79.112132
 20
199.159123
 11
79.112132
 21
197.159123
  0
LINE
  8
CSLAYER1
  6
CONTINUOUS
 62
     6
 10
79.112132
 20
195.159123
 11
79.112132
 21
193.034123
  0
LINE
  8
CSLAYER1
  6
CONTINUOUS
 62
     6
 10
79.112132
 20
193.034123
 11
78.737132
 21
192.659123
  0
LINE
  8
CSLAYER1
  6
CONTINUOUS
 62
     6
 10
78.737132
 20
192.659123
 11
78.362132
 21
193.034123
  0
LINE
  8
CSLAYER1
  6
CONTINUOUS
 62
     6
 10
78.362132
 20
193.034123
 11
78.362132
 21
195.159123
  0
LINE
  8
CSLAYER1
  6
CONTINUOUS
 62
     6
 10
76.612132
 20
195.159123
 11
76.612132
 21
193.034123
  0
LINE
  8
CSLAYER1
  6
CONTINUOUS
 62
     6
 10
76.612132
 20
193.034123
 11
76.237132
 21
192.659123
  0
LINE
  8
CSLAYER1
  6
CONTINUOUS
 62
     6
 10
76.237132
 20
192.659123
 11
75.862132
 21
193.034123
  0
LINE
  8
CSLAYER1
  6
CONTINUOUS
 62
     6
 10
75.862132
 20
193.034123
 11
75.862132
 21
195.159123
  0
LINE
  8
CSLAYER1
  6
CONTINUOUS
 62
     6
 10
74.112132
 20
195.159123
 11
74.112132
 21
193.034123
  0
LINE
  8
CSLAYER1
  6
CONTINUOUS
 62
     6
 10
74.112132
 20
193.034123
 11
73.737132
 21
192.659123
  0
LINE
  8
CSLAYER1
  6
CONTINUOUS
 62
     6
 10
73.737132
 20
192.659123
 11
73.362132
 21
193.034123
  0
LINE
  8
CSLAYER1
  6
CONTINUOUS
 62
     6
 10
73.362132
 20
193.034123
 11
73.362132
 21
195.159123
  0
LINE
  8
CSLAYER1
  6
CONTINUOUS
 62
     6
 10
71.612132
 20
195.159123
 11
71.612132
 21
193.034123
  0
LINE
  8
CSLAYER1
  6
CONTINUOUS
 62
     6
 10
71.612132
 20
193.034123
 11
71.237132
 21
192.659123
  0
LINE
  8
CSLAYER1
  6
CONTINUOUS
 62
     6
 10
71.237132
 20
192.659123
 11
70.862132
 21
193.034123
  0
LINE
  8
CSLAYER1
  6
CONTINUOUS
 62
     6
 10
70.862132
 20
193.034123
 11
70.862132
 21
195.159123
  0
LINE
  8
CSLAYER1
  6
CONTINUOUS
 62
     6
 10
69.112132
 20
195.159123
 11
69.112132
 21
193.034123
  0
LINE
  8
CSLAYER1
  6
CONTINUOUS
 62
     6
 10
69.112132
 20
193.034123
 11
68.737132
 21
192.659123
  0
LINE
  8
CSLAYER1
  6
CONTINUOUS
 62
     6
 10
68.737132
 20
192.659123
 11
68.362132
 21
193.034123
  0
LINE
  8
CSLAYER1
  6
CONTINUOUS
 62
     6
 10
68.362132
 20
193.034123
 11
68.362132
 21
195.159123
  0
ARC
  8
CSLAYER1
  6
CONTINUOUS
 62
     6
 10
91.987133
 20
189.549209
 40
1.944444
 50
163.398428
 51
196.601562
  0
LINE
  8
CSLAYER1
  6
CONTINUOUS
 62
     6
 10
90.123752
 20
188.993647
 11
90.876008
 21
188.993647
  0
ARC
  8
CSLAYER1
  6
CONTINUOUS
 62
     6
 10
90.876008
 20
188.438113
 40
0.555556
 50
0.057309
 51
89.999999
  0
LINE
  8
CSLAYER1
  6
CONTINUOUS
 62
     6
 10
91.431571
 20
188.438113
 11
91.431571
 21
187.685799
  0
ARC
  8
CSLAYER1
  6
CONTINUOUS
 62
     6
 10
91.987133
 20
189.549209
 40
1.944444
 50
253.398417
 51
286.601578
  0
LINE
  8
CSLAYER1
  6
CONTINUOUS
 62
     6
 10
92.542696
 20
187.685799
 11
92.542696
 21
188.438113
  0
ARC
  8
CSLAYER1
  6
CONTINUOUS
 62
     6
 10
93.098258
 20
188.438113
 40
0.555556
 50
90.057346
 51
179.999995
  0
LINE
  8
CSLAYER1
  6
CONTINUOUS
 62
     6
 10
93.098258
 20
188.993647
 11
93.850514
 21
188.993647
  0
ARC
  8
CSLAYER1
  6
CONTINUOUS
 62
     6
 10
91.987133
 20
189.549209
 40
1.944444
 50
-16.601577
 51
16.601584
  0
LINE
  8
CSLAYER1
  6
CONTINUOUS
 62
     6
 10
93.850514
 20
190.104772
 11
93.098258
 21
190.104772
  0
ARC
  8
CSLAYER1
  6
CONTINUOUS
 62
     6
 10
93.098258
 20
190.660305
 40
0.555556
 50
179.999995
 51
269.999984
  0
LINE
  8
CSLAYER1
  6
CONTINUOUS
 62
     6
 10
92.542696
 20
190.660305
 11
92.542696
 21
191.412620
  0
ARC
  8
CSLAYER1
  6
CONTINUOUS
 62
     6
 10
91.987133
 20
189.549209
 40
1.944444
 50
73.398405
 51
106.601594
  0
LINE
  8
CSLAYER1
  6
CONTINUOUS
 62
     6
 10
91.431571
 20
191.412620
 11
91.431571
 21
190.660305
  0
ARC
  8
CSLAYER1
  6
CONTINUOUS
 62
     6
 10
90.876008
 20
190.660305
 40
0.555556
 50
269.999984
 51
359.999990
  0
LINE
  8
CSLAYER1
  6
CONTINUOUS
 62
     6
 10
90.876008
 20
190.104772
 11
90.123752
 21
190.104772
  0
CIRCLE
  8
CSLAYER1
  6
CONTINUOUS
 62
     6
 10
91.987120
 20
189.549209
 40
3.500000
  0
ARC
  8
CSLAYER1
  6
CONTINUOUS
 62
     6
 10
96.577944
 20
175.559810
 40
6.000000
 50
56.246253
 51
116.606406
  0
LINE
  8
CSLAYER1
  6
CONTINUOUS
 62
     6
 10
99.911692
 20
180.548410
 11
112.069948
 21
172.423373
  0
ARC
  8
CSLAYER1
  6
CONTINUOUS
 62
     6
 10
116.237132
 20
178.659123
 40
7.500000
 50
-123.753747
 51
33.753747
  0
LINE
  8
CSLAYER1
  6
CONTINUOUS
 62
     6
 10
122.472882
 20
182.826307
 11
114.349820
 21
194.981609
  0
LINE
  8
CSLAYER1
  6
CONTINUOUS
 62
     6
 10
114.177857
 20
198.346482
 11
117.752177
 21
198.159123
  0
ARC
  8
CSLAYER1
  6
CONTINUOUS
 62
     6
 10
117.752177
 20
197.159123
 40
1.000000
 50
0.000018
 51
89.999999
  0
LINE
  8
CSLAYER1
  6
CONTINUOUS
 62
     6
 10
118.737132
 20
197.159123
 11
118.737132
 21
196.159123
  0
ARC
  8
CSLAYER1
  6
CONTINUOUS
 62
     6
 10
117.737132
 20
196.159123
 40
1.000000
 50
270.000019
 51
360.000000
  0
LINE
  8
CSLAYER1
  6
CONTINUOUS
 62
     6
 10
117.737132
 20
195.159123
 11
110.182377
 21
194.763211
  0
ARC
  8
CSLAYER1
  6
CONTINUOUS
 62
     6
 10
119.336445
 20
198.318311
 40
6.000000
 50
153.393594
 51
177.151140
  0
LINE
  8
CSLAYER1
  6
CONTINUOUS
 62
     6
 10
114.336352
 20
201.750276
 11
121.757548
 21
202.139164
  0
ARC
  8
CSLAYER1
  6
CONTINUOUS
 62
     6
 10
121.737132
 20
203.138920
 40
1.000000
 50
271.169236
 51
359.999982
  0
LINE
  8
CSLAYER1
  6
CONTINUOUS
 62
     6
 10
122.737132
 20
203.138920
 11
122.737132
 21
239.179326
  0
ARC
  8
CSLAYER1
  6
CONTINUOUS
 62
     6
 10
121.737132
 20
239.179326
 40
1.000000
 50
0.000000
 51
88.830746
  0
LINE
  8
CSLAYER1
  6
CONTINUOUS
 62
     6
 10
121.757548
 20
240.179082
 11
114.336352
 21
240.567970
  0
ARC
  8
CSLAYER1
  6
CONTINUOUS
 62
     6
 10
119.336445
 20
243.999935
 40
6.000000
 50
182.848860
 51
206.606406
  0
ARC
  8
CSLAYER1
  6
CONTINUOUS
 62
     6
 10
114.266850
 20
242.274020
 40
1.700075
 50
93.000588
 51
142.810642
  0
LINE
  8
CSLAYER1
  6
CONTINUOUS
 62
     6
 10
114.177857
 20
243.971764
 11
117.752177
 21
244.159123
  0
ARC
  8
CSLAYER1
  6
CONTINUOUS
 62
     6
 10
117.752177
 20
245.159123
 40
1.000000
 50
270.000001
 51
359.999982
  0
LINE
  8
CSLAYER1
  6
CONTINUOUS
 62
     6
 10
118.737132
 20
245.159123
 11
118.737132
 21
246.159123
  0
ARC
  8
CSLAYER1
  6
CONTINUOUS
 62
     6
 10
117.737132
 20
246.159123
 40
1.000000
 50
0.000000
 51
89.999981
  0
LINE
  8
CSLAYER1
  6
CONTINUOUS
 62
     6
 10
117.737132
 20
247.159123
 11
110.182377
 21
247.555035
  0
LINE
  8
CSLAYER1
  6
CONTINUOUS
 62
     6
 10
114.347845
 20
247.333683
 11
122.472882
 21
259.491938
  0
ARC
  8
CSLAYER1
  6
CONTINUOUS
 62
     6
 10
116.237132
 20
263.659123
 40
7.500000
 50
-33.753747
 51
123.753747
  0
LINE
  8
CSLAYER1
  6
CONTINUOUS
 62
     6
 10
112.069948
 20
269.894873
 11
99.911692
 21
261.769836
  0
ARC
  8
CSLAYER1
  6
CONTINUOUS
 62
     6
 10
96.577944
 20
266.758435
 40
6.000000
 50
243.393594
 51
303.753747
  0
LINE
  8
CSLAYER1
  6
CONTINUOUS
 62
     6
 10
92.542696
 20
254.632447
 11
92.542696
 21
253.880132
  0
ARC
  8
CSLAYER1
  6
CONTINUOUS
 62
     6
 10
93.098258
 20
253.880132
 40
0.555556
 50
180.000005
 51
269.942654
  0
LINE
  8
CSLAYER1
  6
CONTINUOUS
 62
     6
 10
93.098258
 20
253.324599
 11
93.850514
 21
253.324599
  0
ARC
  8
CSLAYER1
  6
CONTINUOUS
 62
     6
 10
91.987133
 20
252.769037
 40
1.944444
 50
-16.601584
 51
16.601577
  0
LINE
  8
CSLAYER1
  6
CONTINUOUS
 62
     6
 10
93.850514
 20
252.213474
 11
93.098258
 21
252.213474
  0
ARC
  8
CSLAYER1
  6
CONTINUOUS
 62
     6
 10
93.098258
 20
251.657941
 40
0.555556
 50
90.000016
 51
180.000005
  0
LINE
  8
CSLAYER1
  6
CONTINUOUS
 62
     6
 10
92.542696
 20
251.657941
 11
92.542696
 21
250.905626
  0
ARC
  8
CSLAYER1
  6
CONTINUOUS
 62
     6
 10
91.987133
 20
252.769037
 40
1.944444
 50
253.398406
 51
286.601595
  0
LINE
  8
CSLAYER1
  6
CONTINUOUS
 62
     6
 10
91.431571
 20
250.905626
 11
91.431571
 21
251.657941
  0
ARC
  8
CSLAYER1
  6
CONTINUOUS
 62
     6
 10
90.876008
 20
251.657941
 40
0.555556
 50
0.000010
 51
90.000016
  0
LINE
  8
CSLAYER1
  6
CONTINUOUS
 62
     6
 10
90.876008
 20
252.213474
 11
90.123752
 21
252.213474
  0
ARC
  8
CSLAYER1
  6
CONTINUOUS
 62
     6
 10
91.987133
 20
252.769037
 40
1.944444
 50
163.398438
 51
196.601572
  0
LINE
  8
CSLAYER1
  6
CONTINUOUS
 62
     6
 10
90.123752
 20
253.324599
 11
90.876008
 21
253.324599
  0
ARC
  8
CSLAYER1
  6
CONTINUOUS
 62
     6
 10
90.876008
 20
253.880132
 40
0.555556
 50
270.000001
 51
359.942691
  0
LINE
  8
CSLAYER1
  6
CONTINUOUS
 62
     6
 10
91.431571
 20
253.880132
 11
91.431571
 21
254.632447
  0
ARC
  8
CSLAYER1
  6
CONTINUOUS
 62
     6
 10
91.987133
 20
252.769037
 40
1.944444
 50
73.398422
 51
106.601583
  0
CIRCLE
  8
CSLAYER1
  6
CONTINUOUS
 62
     6
 10
91.987120
 20
252.769037
 40
3.500000
  0
LINE
  8
CSLAYER1
  6
CONTINUOUS
 62
     6
 10
80.076406
 20
234.753740
 11
78.808551
 21
232.034816
  0
ARC
  8
CSLAYER1
  6
CONTINUOUS
 62
     6
 10
73.737132
 20
221.159123
 40
12.000000
 50
15.000000
 51
65.000000
  0
LINE
  8
CSLAYER1
  6
CONTINUOUS
 62
     6
 10
85.328242
 20
224.264951
 11
88.226020
 21
225.041409
  0
LINE
  8
CSLAYER1
  6
CONTINUOUS
 62
     6
 10
82.558377
 20
218.375576
 11
80.997124
 21
219.276966
  0
ARC
  8
CSLAYER1
  6
CONTINUOUS
 62
     6
 10
73.737132
 20
221.159123
 40
9.250000
 50
317.513110
 51
342.486890
  0
LINE
  8
CSLAYER1
  6
CONTINUOUS
 62
     6
 10
80.558377
 20
214.911474
 11
78.997124
 21
215.812864
  0
LINE
  8
CSLAYER1
  6
CONTINUOUS
 62
     6
 10
77.737132
 20
220.659123
 11
77.737132
 21
221.659123
  0
LINE
  8
CSLAYER1
  6
CONTINUOUS
 62
     6
 10
77.737132
 20
221.659123
 11
69.737132
 21
221.659123
  0
LINE
  8
CSLAYER1
  6
CONTINUOUS
 62
     6
 10
69.737132
 20
221.659123
 11
69.737132
 21
220.659123
  0
LINE
  8
CSLAYER1
  6
CONTINUOUS
 62
     6
 10
69.737132
 20
220.659123
 11
77.737132
 21
220.659123
  0
CIRCLE
  8
CSLAYER1
  6
CONTINUOUS
 62
     6
 10
73.737132
 20
221.159123
 40
30.000000
  0
CIRCLE
  8
CSLAYER1
  6
CONTINUOUS
 62
     6
 10
73.737132
 20
221.159123
 40
45.000000
  0
CIRCLE
  8
CSLAYER1
  6
CONTINUOUS
 62
     6
 10
73.737132
 20
221.159123
 40
7.500000
  0
LINE
  8
CSLAYER1
  6
CONTINUOUS
 62
     6
 10
66.477140
 20
219.276966
 11
64.915887
 21
218.375576
  0
ARC
  8
CSLAYER1
  6
CONTINUOUS
 62
     6
 10
73.737132
 20
221.159123
 40
9.250000
 50
197.513110
 51
222.486890
  0
LINE
  8
CSLAYER1
  6
CONTINUOUS
 62
     6
 10
66.915887
 20
214.911474
 11
68.477140
 21
215.812864
  0
LINE
  8
CSLAYER1
  6
CONTINUOUS
 62
     6
 10
62.146022
 20
224.264951
 11
59.248245
 21
225.041409
  0
ARC
  8
CSLAYER1
  6
CONTINUOUS
 62
     6
 10
73.737132
 20
221.159123
 40
12.000000
 50
115.000000
 51
165.000000
  0
LINE
  8
CSLAYER1
  6
CONTINUOUS
 62
     6
 10
68.665713
 20
232.034816
 11
67.397858
 21
234.753740
  0
ARC
  8
CSLAYER1
  6
CONTINUOUS
 62
     6
 10
73.737132
 20
221.159123
 40
9.250000
 50
77.513110
 51
102.486890
  0
LINE
  8
CSLAYER1
  6
CONTINUOUS
 62
     6
 10
75.737132
 20
230.190319
 11
75.737132
 21
228.387539
  0
LINE
  8
CSLAYER1
  6
CONTINUOUS
 62
     6
 10
71.737132
 20
228.387539
 11
71.737132
 21
230.190319
  0
LINE
  8
CSLAYER1
  6
CONTINUOUS
 62
     6
 10
39.100556
 20
221.714685
 11
38.348242
 21
221.714685
  0
ARC
  8
CSLAYER1
  6
CONTINUOUS
 62
     6
 10
38.348242
 20
222.270247
 40
0.555556
 50
179.999984
 51
269.999990
  0
LINE
  8
CSLAYER1
  6
CONTINUOUS
 62
     6
 10
37.792708
 20
222.270247
 11
37.792708
 21
223.022503
  0
ARC
  8
CSLAYER1
  6
CONTINUOUS
 62
     6
 10
37.237146
 20
221.159122
 40
1.944444
 50
73.398428
 51
106.601562
  0
LINE
  8
CSLAYER1
  6
CONTINUOUS
 62
     6
 10
36.681584
 20
223.022503
 11
36.681584
 21
222.270247
  0
ARC
  8
CSLAYER1
  6
CONTINUOUS
 62
     6
 10
36.126050
 20
222.270247
 40
0.555556
 50
270.057309
 51
359.999999
  0
LINE
  8
CSLAYER1
  6
CONTINUOUS
 62
     6
 10
36.126050
 20
221.714685
 11
35.373736
 21
221.714685
  0
ARC
  8
CSLAYER1
  6
CONTINUOUS
 62
     6
 10
37.237146
 20
221.159122
 40
1.944444
 50
163.398417
 51
196.601578
  0
LINE
  8
CSLAYER1
  6
CONTINUOUS
 62
     6
 10
35.373736
 20
220.603560
 11
36.126050
 21
220.603560
  0
ARC
  8
CSLAYER1
  6
CONTINUOUS
 62
     6
 10
36.126050
 20
220.047997
 40
0.555556
 50
0.057346
 51
89.999995
  0
LINE
  8
CSLAYER1
  6
CONTINUOUS
 62
     6
 10
36.681584
 20
220.047997
 11
36.681584
 21
219.295741
  0
ARC
  8
CSLAYER1
  6
CONTINUOUS
 62
     6
 10
37.237146
 20
221.159122
 40
1.944444
 50
253.398423
 51
286.601584
  0
LINE
  8
CSLAYER1
  6
CONTINUOUS
 62
     6
 10
37.792708
 20
219.295741
 11
37.792708
 21
220.047997
  0
ARC
  8
CSLAYER1
  6
CONTINUOUS
 62
     6
 10
38.348242
 20
220.047997
 40
0.555556
 50
89.999995
 51
179.999984
  0
LINE
  8
CSLAYER1
  6
CONTINUOUS
 62
     6
 10
38.348242
 20
220.603560
 11
39.100556
 21
220.603560
  0
ARC
  8
CSLAYER1
  6
CONTINUOUS
 62
     6
 10
37.237146
 20
221.159122
 40
1.944444
 50
-16.601595
 51
16.601594
  0
CIRCLE
  8
CSLAYER1
  6
CONTINUOUS
 62
     6
 10
37.237145
 20
221.159135
 40
3.500000
  0
LINE
  8
CSLAYER1
  6
CONTINUOUS
 62
     6
 10
33.137912
 20
240.567970
 11
25.716716
 21
240.179082
  0
ARC
  8
CSLAYER1
  6
CONTINUOUS
 62
     6
 10
25.737132
 20
239.179326
 40
1.000000
 50
91.169216
 51
180.000020
  0
LINE
  8
CSLAYER1
  6
CONTINUOUS
 62
     6
 10
24.737132
 20
239.179326
 11
24.737132
 21
203.138920
  0
ARC
  8
CSLAYER1
  6
CONTINUOUS
 62
     6
 10
25.737132
 20
203.138920
 40
1.000000
 50
180.000020
 51
268.830766
  0
LINE
  8
CSLAYER1
  6
CONTINUOUS
 62
     6
 10
25.716716
 20
202.139164
 11
33.137912
 21
201.750276
  0
ARC
  8
CSLAYER1
  6
CONTINUOUS
 62
     6
 10
28.137820
 20
198.318311
 40
6.000000
 50
2.848860
 51
26.606406
  0
ARC
  8
CSLAYER1
  6
CONTINUOUS
 62
     6
 10
33.207415
 20
200.044226
 40
1.700075
 50
273.000588
 51
322.810642
  0
LINE
  8
CSLAYER1
  6
CONTINUOUS
 62
     6
 10
33.296407
 20
198.346482
 11
29.722087
 21
198.159123
  0
ARC
  8
CSLAYER1
  6
CONTINUOUS
 62
     6
 10
29.722087
 20
197.159123
 40
1.000000
 50
90.000039
 51
180.000020
  0
LINE
  8
CSLAYER1
  6
CONTINUOUS
 62
     6
 10
28.737132
 20
197.159123
 11
28.737132
 21
196.159123
  0
ARC
  8
CSLAYER1
  6
CONTINUOUS
 62
     6
 10
29.737132
 20
196.159123
 40
1.000000
 50
180.000020
 51
270.000001
  0
LINE
  8
CSLAYER1
  6
CONTINUOUS
 62
     6
 10
29.737132
 20
195.159123
 11
37.291888
 21
194.763211
  0
LINE
  8
CSLAYER1
  6
CONTINUOUS
 62
     6
 10
33.126420
 20
194.984563
 11
25.001383
 21
182.826307
  0
ARC
  8
CSLAYER1
  6
CONTINUOUS
 62
     6
 10
31.237132
 20
178.659123
 40
7.500000
 50
146.246253
 51
303.753747
  0
CIRCLE
  8
CSLAYER1
  6
CONTINUOUS
 62
     6
 10
31.237132
 20
178.659123
 40
3.500000
  0
LINE
  8
CSLAYER1
  6
CONTINUOUS
 62
     6
 10
23.737132
 20
178.659123
 11
23.737132
 21
263.659123
  0
LINE
  8
CSLAYER1
  6
CONTINUOUS
 62
     6
 10
25.001383
 20
259.491938
 11
33.126420
 21
247.333683
  0
LINE
  8
CSLAYER1
  6
CONTINUOUS
 62
     6
 10
33.296407
 20
243.971764
 11
29.722087
 21
244.159123
  0
ARC
  8
CSLAYER1
  6
CONTINUOUS
 62
     6
 10
29.722087
 20
245.159123
 40
1.000000
 50
180.000020
 51
270.000001
  0
LINE
  8
CSLAYER1
  6
CONTINUOUS
 62
     6
 10
28.737132
 20
245.159123
 11
28.737132
 21
246.159123
  0
ARC
  8
CSLAYER1
  6
CONTINUOUS
 62
     6
 10
29.737132
 20
246.159123
 40
1.000000
 50
90.000039
 51
180.000020
  0
LINE
  8
CSLAYER1
  6
CONTINUOUS
 62
     6
 10
29.737132
 20
247.159123
 11
37.291888
 21
247.555035
  0
ARC
  8
CSLAYER1
  6
CONTINUOUS
 62
     6
 10
28.137820
 20
243.999935
 40
6.000000
 50
333.393594
 51
357.151140
  0
ARC
  8
CSLAYER1
  6
CONTINUOUS
 62
     6
 10
33.207415
 20
242.274020
 40
1.700075
 50
37.189358
 51
86.999412
  0
ARC
  8
CSLAYER1
  6
CONTINUOUS
 62
     6
 10
31.237132
 20
263.659123
 40
7.500000
 50
56.246253
 51
213.753747
  0
LINE
  8
CSLAYER1
  6
CONTINUOUS
 62
     6
 10
35.404317
 20
269.894873
 11
47.562573
 21
261.769836
  0
ARC
  8
CSLAYER1
  6
CONTINUOUS
 62
     6
 10
50.896320
 20
266.758435
 40
6.000000
 50
236.246253
 51
296.606406
  0
CIRCLE
  8
CSLAYER1
  6
CONTINUOUS
 62
     6
 10
31.237132
 20
263.659123
 40
3.500000
  0
LINE
  8
CSLAYER1
  6
CONTINUOUS
 62
     6
 10
31.237132
 20
271.159123
 11
116.237132
 21
271.159123
  0
CIRCLE
  8
CSLAYER1
  6
CONTINUOUS
 62
     6
 10
116.237132
 20
263.659123
 40
3.500000
  0
LINE
  8
CSLAYER1
  6
CONTINUOUS
 62
     6
 10
123.737132
 20
263.659123
 11
123.737132
 21
178.659123
  0
CIRCLE
  8
CSLAYER1
  6
CONTINUOUS
 62
     6
 10
116.237132
 20
178.659123
 40
3.500000
  0
LINE
  8
CSLAYER1
  6
CONTINUOUS
 62
     6
 10
116.237132
 20
171.159123
 11
75.739137
 21
171.159123
  0
ARC
  8
CSLAYER1
  6
CONTINUOUS
 62
     6
 10
114.266850
 20
200.044226
 40
1.700075
 50
217.189358
 51
266.999412
  0
LINE
  8
CSLAYER1
  6
CONTINUOUS
 62
     6
 10
142.585661
 20
196.959123
 11
142.585661
 21
234.159138
  0
ARC
  8
CSLAYER1
  6
CONTINUOUS
 62
     6
 10
144.585661
 20
234.159138
 40
2.000000
 50
89.999999
 51
179.999995
  0
LINE
  8
CSLAYER1
  6
CONTINUOUS
 62
     6
 10
144.585661
 20
236.159138
 11
160.885661
 21
236.159138
  0
LINE
  8
CSLAYER1
  6
CONTINUOUS
 62
     6
 10
160.885661
 20
233.528218
 11
146.409880
 21
233.528218
  0
LINE
  8
CSLAYER1
  6
CONTINUOUS
 62
     6
 10
146.409880
 20
234.753804
 11
146.409880
 21
225.041462
  0
LINE
  8
CSLAYER1
  6
CONTINUOUS
 62
     6
 10
146.409880
 20
225.041462
 11
142.585661
 21
225.041462
  0
LINE
  8
CSLAYER1
  6
CONTINUOUS
 62
     6
 10
146.409880
 20
230.098774
 11
160.885661
 21
230.098774
  0
LINE
  8
CSLAYER1
  6
CONTINUOUS
 62
     6
 10
158.185680
 20
233.528218
 11
158.185680
 21
236.159138
  0
LINE
  8
CSLAYER1
  6
CONTINUOUS
 62
     6
 10
152.393004
 20
232.230610
 11
146.409880
 21
232.230610
  0
LINE
  8
CSLAYER1
  6
CONTINUOUS
 62
     6
 10
146.409880
 20
231.194172
 11
152.393004
 21
231.194172
  0
LINE
  8
CSLAYER1
  6
CONTINUOUS
 62
     6
 10
152.393004
 20
231.194172
 11
152.393004
 21
232.230610
  0
LINE
  8
CSLAYER1
  6
CONTINUOUS
 62
     6
 10
146.409880
 20
234.753804
 11
142.676115
 21
234.753804
  0
LINE
  8
CSLAYER1
  6
CONTINUOUS
 62
     6
 10
160.885661
 20
251.159123
 11
163.781879
 21
251.159123
  0
ARC
  8
CSLAYER1
  6
CONTINUOUS
 62
     6
 10
165.123459
 20
250.741861
 40
1.206899
 50
196.257399
 51
264.999892
  0
LINE
  8
CSLAYER1
  6
CONTINUOUS
 62
     6
 10
165.018268
 20
249.539547
 11
165.778399
 21
249.473048
  0
ARC
  8
CSLAYER1
  6
CONTINUOUS
 62
     6
 10
165.799467
 20
249.713503
 40
0.241380
 50
264.999865
 51
359.942691
  0
LINE
  8
CSLAYER1
  6
CONTINUOUS
 62
     6
 10
166.040861
 20
249.389753
 11
166.040861
 21
256.148358
  0
ARC
  8
CSLAYER1
  6
CONTINUOUS
 62
     6
 10
166.161522
 20
256.148358
 40
0.120690
 50
90.000003
 51
180.000005
  0
LINE
  8
CSLAYER1
  6
CONTINUOUS
 62
     6
 10
166.161522
 20
256.269056
 11
166.764971
 21
256.269056
  0
ARC
  8
CSLAYER1
  6
CONTINUOUS
 62
     6
 10
166.764971
 20
256.148358
 40
0.120690
 50
0.000000
 51
90.000003
  0
ARC
  8
CSLAYER1
  6
CONTINUOUS
 62
     6
 10
165.799467
 20
255.824608
 40
0.241380
 50
0.000000
 51
95.000152
  0
LINE
  8
CSLAYER1
  6
CONTINUOUS
 62
     6
 10
165.778399
 20
256.065064
 11
165.018268
 21
255.998564
  0
ARC
  8
CSLAYER1
  6
CONTINUOUS
 62
     6
 10
165.123459
 20
254.796251
 40
1.206899
 50
95.000111
 51
163.742611
  0
ARC
  8
CSLAYER1
  6
CONTINUOUS
 62
     6
 10
172.075357
 20
252.769056
 40
8.448294
 50
163.742994
 51
196.257016
  0
ARC
  8
CSLAYER1
  6
CONTINUOUS
 62
     6
 10
166.161522
 20
249.389753
 40
0.120690
 50
180.000005
 51
270.000001
  0
LINE
  8
CSLAYER1
  6
CONTINUOUS
 62
     6
 10
166.161522
 20
249.269056
 11
166.764971
 21
249.269056
  0
ARC
  8
CSLAYER1
  6
CONTINUOUS
 62
     6
 10
166.764971
 20
249.389753
 40
0.120690
 50
270.000001
 51
359.942691
  0
LINE
  8
CSLAYER1
  6
CONTINUOUS
 62
     6
 10
166.040861
 20
252.049826
 11
166.885669
 21
252.585524
  0
LINE
  8
CSLAYER1
  6
CONTINUOUS
 62
     6
 10
166.885669
 20
253.188973
 11
166.040861
 21
252.653275
  0
LINE
  8
CSLAYER1
  6
CONTINUOUS
 62
     6
 10
160.885661
 20
251.159123
 11
160.885661
 21
191.159123
  0
LINE
  8
CSLAYER1
  6
CONTINUOUS
 62
     6
 10
160.885661
 20
191.159123
 11
163.781871
 21
191.159123
  0
ARC
  8
CSLAYER1
  6
CONTINUOUS
 62
     6
 10
165.123459
 20
191.576422
 40
1.206899
 50
95.000111
 51
163.742611
  0
LINE
  8
CSLAYER1
  6
CONTINUOUS
 62
     6
 10
165.018268
 20
192.778735
 11
165.778399
 21
192.845235
  0
ARC
  8
CSLAYER1
  6
CONTINUOUS
 62
     6
 10
165.799467
 20
192.604780
 40
0.241380
 50
0.000000
 51
95.000152
  0
ARC
  8
CSLAYER1
  6
CONTINUOUS
 62
     6
 10
166.161522
 20
192.928530
 40
0.120690
 50
90.000003
 51
180.000005
  0
LINE
  8
CSLAYER1
  6
CONTINUOUS
 62
     6
 10
166.161522
 20
193.049227
 11
166.764971
 21
193.049227
  0
ARC
  8
CSLAYER1
  6
CONTINUOUS
 62
     6
 10
166.764971
 20
192.928530
 40
0.120690
 50
0.000000
 51
90.000003
  0
LINE
  8
CSLAYER1
  6
CONTINUOUS
 62
     6
 10
166.040861
 20
192.928530
 11
166.040861
 21
186.169924
  0
ARC
  8
CSLAYER1
  6
CONTINUOUS
 62
     6
 10
166.161522
 20
186.169924
 40
0.120690
 50
180.000005
 51
270.000001
  0
LINE
  8
CSLAYER1
  6
CONTINUOUS
 62
     6
 10
166.161522
 20
186.049227
 11
166.764971
 21
186.049227
  0
ARC
  8
CSLAYER1
  6
CONTINUOUS
 62
     6
 10
166.764971
 20
186.169924
 40
0.120690
 50
270.000001
 51
359.942691
  0
ARC
  8
CSLAYER1
  6
CONTINUOUS
 62
     6
 10
165.799467
 20
186.493674
 40
0.241380
 50
264.999865
 51
359.942691
  0
LINE
  8
CSLAYER1
  6
CONTINUOUS
 62
     6
 10
165.778399
 20
186.253219
 11
165.018268
 21
186.319719
  0
ARC
  8
CSLAYER1
  6
CONTINUOUS
 62
     6
 10
165.123459
 20
187.522032
 40
1.206899
 50
196.257399
 51
264.999892
  0
ARC
  8
CSLAYER1
  6
CONTINUOUS
 62
     6
 10
172.075357
 20
189.549227
 40
8.448294
 50
163.742994
 51
196.257016
  0
LINE
  8
CSLAYER1
  6
CONTINUOUS
 62
     6
 10
166.040861
 20
189.433447
 11
166.885669
 21
189.969145
  0
LINE
  8
CSLAYER1
  6
CONTINUOUS
 62
     6
 10
166.885669
 20
189.365695
 11
166.040861
 21
188.829997
  0
LINE
  8
CSLAYER1
  6
CONTINUOUS
 62
     6
 10
160.885661
 20
194.959123
 11
144.585661
 21
194.959123
  0
ARC
  8
CSLAYER1
  6
CONTINUOUS
 62
     6
 10
144.585661
 20
196.959123
 40
2.000000
 50
180.000005
 51
270.000001
  0
LINE
  8
CSLAYER1
  6
CONTINUOUS
 62
     6
 10
154.565647
 20
194.959123
 11
154.565647
 21
192.459123
  0
LINE
  8
CSLAYER1
  6
CONTINUOUS
 62
     6
 10
154.565647
 20
192.459123
 11
155.205661
 21
192.459123
  0
LINE
  8
CSLAYER1
  6
CONTINUOUS
 62
     6
 10
155.205661
 20
192.459123
 11
155.205661
 21
194.959123
  0
LINE
  8
CSLAYER1
  6
CONTINUOUS
 62
     6
 10
166.885661
 20
176.159123
 11
166.885661
 21
266.159123
  0
LINE
  8
CSLAYER1
  6
CONTINUOUS
 62
     6
 10
166.885661
 20
266.159123
 11
226.885661
 21
266.159123
  0
LINE
  8
CSLAYER1
  6
CONTINUOUS
 62
     6
 10
226.885661
 20
266.159123
 11
226.885661
 21
176.159123
  0
LINE
  8
CSLAYER1
  6
CONTINUOUS
 62
     6
 10
226.885661
 20
176.159123
 11
166.885661
 21
176.159123
  0
LINE
  8
CSLAYER1
  6
CONTINUOUS
 62
     6
 10
171.885661
 20
176.159123
 11
171.885661
 21
266.159123
  0
LINE
  8
CSLAYER1
  6
CONTINUOUS
 62
     6
 10
171.885661
 20
301.159123
 11
171.885661
 21
391.159123
  0
LINE
  8
CSLAYER1
  6
CONTINUOUS
 62
     6
 10
166.885661
 20
391.159123
 11
166.885661
 21
301.159123
  0
LINE
  8
CSLAYER1
  6
CONTINUOUS
 62
     6
 10
166.885661
 20
301.159123
 11
226.885661
 21
301.159123
  0
LINE
  8
CSLAYER1
  6
CONTINUOUS
 62
     6
 10
226.885661
 20
301.159123
 11
226.885661
 21
391.159123
  0
LINE
  8
CSLAYER1
  6
CONTINUOUS
 62
     6
 10
226.885661
 20
391.159123
 11
166.885661
 21
391.159123
  0
LINE
  8
CSLAYER1
  6
CONTINUOUS
 62
     6
 10
166.885661
 20
376.159123
 11
160.885661
 21
376.159123
  0
LINE
  8
CSLAYER1
  6
CONTINUOUS
 62
     6
 10
160.885661
 20
376.159123
 11
160.885661
 21
316.159123
  0
LINE
  8
CSLAYER1
  6
CONTINUOUS
 62
     6
 10
160.885661
 20
316.159123
 11
166.885661
 21
316.159123
  0
LINE
  8
CSLAYER1
  6
CONTINUOUS
 62
     6
 10
160.885661
 20
331.159123
 11
144.585661
 21
331.159123
  0
ARC
  8
CSLAYER1
  6
CONTINUOUS
 62
     6
 10
144.585661
 20
333.159123
 40
2.000000
 50
180.000000
 51
270.000000
  0
LINE
  8
CSLAYER1
  6
CONTINUOUS
 62
     6
 10
142.585661
 20
333.159123
 11
142.585661
 21
359.159123
  0
ARC
  8
CSLAYER1
  6
CONTINUOUS
 62
     6
 10
144.585661
 20
359.159123
 40
2.000000
 50
90.000000
 51
180.000000
  0
LINE
  8
CSLAYER1
  6
CONTINUOUS
 62
     6
 10
144.585661
 20
361.159123
 11
160.885661
 21
361.159123
  0
LINE
  8
CSLAYER1
  6
CONTINUOUS
 62
     6
 10
160.885661
 20
358.204153
 11
146.409880
 21
358.204153
  0
LINE
  8
CSLAYER1
  6
CONTINUOUS
 62
     6
 10
146.409880
 20
360.648016
 11
146.409880
 21
352.498401
  0
LINE
  8
CSLAYER1
  6
CONTINUOUS
 62
     6
 10
146.409880
 20
352.498401
 11
142.585661
 21
352.498401
  0
LINE
  8
CSLAYER1
  6
CONTINUOUS
 62
     6
 10
146.409880
 20
354.644733
 11
160.885661
 21
354.644733
  0
ARC
  8
CSLAYER1
  6
CONTINUOUS
 62
     6
 10
165.123459
 20
380.631946
 40
1.206899
 50
196.257399
 51
264.999892
  0
ARC
  8
CSLAYER1
  6
CONTINUOUS
 62
     6
 10
172.075357
 20
382.659141
 40
8.448294
 50
163.742994
 51
196.257016
  0
ARC
  8
CSLAYER1
  6
CONTINUOUS
 62
     6
 10
165.123459
 20
384.686336
 40
1.206899
 50
95.000111
 51
163.742611
  0
LINE
  8
CSLAYER1
  6
CONTINUOUS
 62
     6
 10
165.018268
 20
385.888650
 11
165.778399
 21
385.955149
  0
ARC
  8
CSLAYER1
  6
CONTINUOUS
 62
     6
 10
165.799467
 20
385.714694
 40
0.241380
 50
0.000000
 51
95.000152
  0
ARC
  8
CSLAYER1
  6
CONTINUOUS
 62
     6
 10
166.161522
 20
386.038444
 40
0.120690
 50
90.000003
 51
180.000005
  0
LINE
  8
CSLAYER1
  6
CONTINUOUS
 62
     6
 10
166.161522
 20
386.159141
 11
166.764971
 21
386.159141
  0
ARC
  8
CSLAYER1
  6
CONTINUOUS
 62
     6
 10
166.764971
 20
386.038444
 40
0.120690
 50
0.000000
 51
90.000003
  0
LINE
  8
CSLAYER1
  6
CONTINUOUS
 62
     6
 10
166.040861
 20
386.038444
 11
166.040861
 21
379.279839
  0
ARC
  8
CSLAYER1
  6
CONTINUOUS
 62
     6
 10
166.161522
 20
379.279839
 40
0.120690
 50
180.000005
 51
270.000001
  0
LINE
  8
CSLAYER1
  6
CONTINUOUS
 62
     6
 10
166.161522
 20
379.159141
 11
166.764971
 21
379.159141
  0
ARC
  8
CSLAYER1
  6
CONTINUOUS
 62
     6
 10
166.764971
 20
379.279839
 40
0.120690
 50
270.000001
 51
359.942691
  0
ARC
  8
CSLAYER1
  6
CONTINUOUS
 62
     6
 10
165.799467
 20
379.603589
 40
0.241380
 50
264.999865
 51
359.942691
  0
LINE
  8
CSLAYER1
  6
CONTINUOUS
 62
     6
 10
165.778399
 20
379.363133
 11
165.018268
 21
379.429633
  0
LINE
  8
CSLAYER1
  6
CONTINUOUS
 62
     6
 10
166.040861
 20
381.939912
 11
166.885669
 21
382.475609
  0
LINE
  8
CSLAYER1
  6
CONTINUOUS
 62
     6
 10
166.885669
 20
383.079059
 11
166.040861
 21
382.543361
  0
LINE
  8
CSLAYER1
  6
CONTINUOUS
 62
     6
 10
146.409880
 20
360.648016
 11
143.250298
 21
360.648016
  0
LINE
  8
CSLAYER1
  6
CONTINUOUS
 62
     6
 10
142.585661
 20
339.819845
 11
146.409880
 21
339.819845
  0
LINE
  8
CSLAYER1
  6
CONTINUOUS
 62
     6
 10
146.409880
 20
339.819845
 11
146.409880
 21
331.670229
  0
LINE
  8
CSLAYER1
  6
CONTINUOUS
 62
     6
 10
146.409880
 20
331.670229
 11
143.250298
 21
331.670229
  0
LINE
  8
CSLAYER1
  6
CONTINUOUS
 62
     6
 10
146.409880
 20
334.114093
 11
160.885661
 21
334.114093
  0
LINE
  8
CSLAYER1
  6
CONTINUOUS
 62
     6
 10
160.885661
 20
337.673513
 11
146.409880
 21
337.673513
  0
LINE
  8
CSLAYER1
  6
CONTINUOUS
 62
     6
 10
146.409880
 20
336.038734
 11
152.393004
 21
336.038734
  0
LINE
  8
CSLAYER1
  6
CONTINUOUS
 62
     6
 10
152.393004
 20
336.038734
 11
152.393004
 21
335.010226
  0
LINE
  8
CSLAYER1
  6
CONTINUOUS
 62
     6
 10
152.393004
 20
335.010226
 11
146.409880
 21
335.010226
  0
ARC
  8
CSLAYER1
  6
CONTINUOUS
 62
     6
 10
228.099345
 20
383.730641
 40
1.000000
 50
270.000001
 51
353.999989
  0
LINE
  8
CSLAYER1
  6
CONTINUOUS
 62
     6
 10
229.093913
 20
383.626149
 11
229.791545
 21
390.263600
  0
ARC
  8
CSLAYER1
  6
CONTINUOUS
 62
     6
 10
230.786052
 20
390.159108
 40
1.000000
 50
90.000003
 51
173.999998
  0
LINE
  8
CSLAYER1
  6
CONTINUOUS
 62
     6
 10
230.786052
 20
391.159108
 11
266.985210
 21
391.159108
  0
ARC
  8
CSLAYER1
  6
CONTINUOUS
 62
     6
 10
266.985210
 20
390.159108
 40
1.000000
 50
6.000003
 51
90.000016
  0
LINE
  8
CSLAYER1
  6
CONTINUOUS
 62
     6
 10
267.979777
 20
390.263600
 11
268.677409
 21
383.626149
  0
ARC
  8
CSLAYER1
  6
CONTINUOUS
 62
     6
 10
269.671916
 20
383.730641
 40
1.000000
 50
186.000026
 51
270.000001
  0
ARC
  8
CSLAYER1
  6
CONTINUOUS
 62
     6
 10
269.622295
 20
388.202931
 40
1.000000
 50
186.000026
 51
270.000001
  0
LINE
  8
CSLAYER1
  6
CONTINUOUS
 62
     6
 10
268.627727
 20
388.098378
 11
267.979777
 21
394.263600
  0
ARC
  8
CSLAYER1
  6
CONTINUOUS
 62
     6
 10
266.985210
 20
394.159108
 40
1.000000
 50
6.000003
 51
90.000016
  0
LINE
  8
CSLAYER1
  6
CONTINUOUS
 62
     6
 10
266.985210
 20
395.159108
 11
230.786052
 21
395.159108
  0
ARC
  8
CSLAYER1
  6
CONTINUOUS
 62
     6
 10
230.786052
 20
394.159108
 40
1.000000
 50
90.000003
 51
173.999998
  0
LINE
  8
CSLAYER1
  6
CONTINUOUS
 62
     6
 10
229.791545
 20
394.263600
 11
229.143535
 21
388.098378
  0
ARC
  8
CSLAYER1
  6
CONTINUOUS
 62
     6
 10
228.149028
 20
388.202931
 40
1.000000
 50
270.000001
 51
353.999989
  0
LINE
  8
CSLAYER1
  6
CONTINUOUS
 62
     6
 10
229.360087
 20
390.159108
 11
226.885661
 21
390.159108
  0
LINE
  8
CSLAYER1
  6
CONTINUOUS
 62
     6
 10
232.571635
 20
382.552296
 11
264.528728
 21
382.552296
  0
LINE
  8
CSLAYER1
  6
CONTINUOUS
 62
     6
 10
268.410625
 20
390.159108
 11
269.885661
 21
390.159108
  0
LINE
  8
CSLAYER1
  6
CONTINUOUS
 62
     6
 10
269.885661
 20
391.159123
 11
405.885631
 21
391.159123
  0
LINE
  8
CSLAYER1
  6
CONTINUOUS
 62
     6
 10
404.885631
 20
391.159123
 11
404.885631
 21
301.159123
  0
LINE
  8
CSLAYER1
  6
CONTINUOUS
 62
     6
 10
405.885631
 20
301.159123
 11
269.885661
 21
301.159123
  0
LINE
  8
CSLAYER1
  6
CONTINUOUS
 62
     6
 10
269.885661
 20
301.159123
 11
269.885661
 21
391.159123
  0
LINE
  8
CSLAYER1
  6
CONTINUOUS
 62
     6
 10
264.528728
 20
309.765919
 11
232.571635
 21
309.765919
  0
LINE
  8
CSLAYER1
  6
CONTINUOUS
 62
     6
 10
229.093913
 20
308.692067
 11
229.791545
 21
302.054554
  0
ARC
  8
CSLAYER1
  6
CONTINUOUS
 62
     6
 10
230.786052
 20
302.159108
 40
1.000000
 50
186.000012
 51
270.000001
  0
LINE
  8
CSLAYER1
  6
CONTINUOUS
 62
     6
 10
230.786052
 20
301.159108
 11
266.985210
 21
301.159108
  0
ARC
  8
CSLAYER1
  6
CONTINUOUS
 62
     6
 10
266.985210
 20
302.159108
 40
1.000000
 50
270.000001
 51
354.000017
  0
LINE
  8
CSLAYER1
  6
CONTINUOUS
 62
     6
 10
267.979777
 20
302.054554
 11
268.677409
 21
308.692067
  0
ARC
  8
CSLAYER1
  6
CONTINUOUS
 62
     6
 10
269.671916
 20
308.587513
 40
1.000000
 50
90.000009
 51
173.999984
  0
ARC
  8
CSLAYER1
  6
CONTINUOUS
 62
     6
 10
269.622295
 20
304.115284
 40
1.000000
 50
90.000009
 51
173.999984
  0
LINE
  8
CSLAYER1
  6
CONTINUOUS
 62
     6
 10
268.627727
 20
304.219838
 11
267.979777
 21
298.054554
  0
ARC
  8
CSLAYER1
  6
CONTINUOUS
 62
     6
 10
266.985210
 20
298.159108
 40
1.000000
 50
270.000001
 51
354.000017
  0
LINE
  8
CSLAYER1
  6
CONTINUOUS
 62
     6
 10
266.985210
 20
297.159108
 11
230.786052
 21
297.159108
  0
ARC
  8
CSLAYER1
  6
CONTINUOUS
 62
     6
 10
230.786052
 20
298.159108
 40
1.000000
 50
186.000012
 51
270.000001
  0
LINE
  8
CSLAYER1
  6
CONTINUOUS
 62
     6
 10
229.791545
 20
298.054554
 11
229.143535
 21
304.219838
  0
ARC
  8
CSLAYER1
  6
CONTINUOUS
 62
     6
 10
228.149028
 20
304.115284
 40
1.000000
 50
6.000021
 51
90.000009
  0
LINE
  8
CSLAYER1
  6
CONTINUOUS
 62
     6
 10
229.360087
 20
302.159108
 11
226.885661
 21
302.159108
  0
ARC
  8
CSLAYER1
  6
CONTINUOUS
 62
     6
 10
228.099345
 20
308.587513
 40
1.000000
 50
6.000021
 51
90.000009
  0
LINE
  8
CSLAYER1
  6
CONTINUOUS
 62
     6
 10
268.410625
 20
302.159108
 11
269.885661
 21
302.159108
  0
LINE
  8
CSLAYER1
  6
CONTINUOUS
 62
     6
 10
269.885661
 20
266.159123
 11
405.885661
 21
266.159123
  0
LINE
  8
CSLAYER1
  6
CONTINUOUS
 62
     6
 10
404.885661
 20
266.159123
 11
404.885661
 21
176.159123
  0
LINE
  8
CSLAYER1
  6
CONTINUOUS
 62
     6
 10
405.885661
 20
176.159123
 11
269.885661
 21
176.159123
  0
LINE
  8
CSLAYER1
  6
CONTINUOUS
 62
     6
 10
269.885661
 20
176.159123
 11
269.885661
 21
266.159123
  0
LINE
  8
CSLAYER1
  6
CONTINUOUS
 62
     6
 10
269.885661
 20
265.047581
 11
226.885661
 21
265.047581
  0
ARC
  8
CSLAYER1
  6
CONTINUOUS
 62
     6
 10
230.885661
 20
246.159123
 40
1.000000
 50
90.000016
 51
180.000005
  0
LINE
  8
CSLAYER1
  6
CONTINUOUS
 62
     6
 10
229.885661
 20
246.159123
 11
229.885661
 21
245.159123
  0
ARC
  8
CSLAYER1
  6
CONTINUOUS
 62
     6
 10
230.885661
 20
245.159123
 40
1.000000
 50
180.000019
 51
270.000001
  0
LINE
  8
CSLAYER1
  6
CONTINUOUS
 62
     6
 10
230.885661
 20
244.159123
 11
266.885661
 21
244.159123
  0
ARC
  8
CSLAYER1
  6
CONTINUOUS
 62
     6
 10
266.885661
 20
245.159123
 40
1.000000
 50
270.000001
 51
359.942691
  0
LINE
  8
CSLAYER1
  6
CONTINUOUS
 62
     6
 10
267.885661
 20
245.159123
 11
267.885661
 21
246.159123
  0
ARC
  8
CSLAYER1
  6
CONTINUOUS
 62
     6
 10
266.885661
 20
246.159123
 40
1.000000
 50
0.000000
 51
90.000003
  0
LINE
  8
CSLAYER1
  6
CONTINUOUS
 62
     6
 10
266.885661
 20
247.159123
 11
230.885661
 21
247.159123
  0
LINE
  8
CSLAYER1
  6
CONTINUOUS
 62
     6
 10
230.885661
 20
240.159123
 11
266.885661
 21
240.159123
  0
ARC
  8
CSLAYER1
  6
CONTINUOUS
 62
     6
 10
266.885661
 20
239.159123
 40
1.000000
 50
0.000000
 51
90.000003
  0
LINE
  8
CSLAYER1
  6
CONTINUOUS
 62
     6
 10
267.885661
 20
239.159123
 11
267.885661
 21
238.159123
  0
ARC
  8
CSLAYER1
  6
CONTINUOUS
 62
     6
 10
266.885661
 20
238.159123
 40
1.000000
 50
270.000001
 51
359.942691
  0
LINE
  8
CSLAYER1
  6
CONTINUOUS
 62
     6
 10
266.885661
 20
237.159123
 11
262.114421
 21
237.159123
  0
ARC
  8
CSLAYER1
  6
CONTINUOUS
 62
     6
 10
262.114421
 20
236.159123
 40
1.000000
 50
90.000003
 51
228.590367
  0
ARC
  8
CSLAYER1
  6
CONTINUOUS
 62
     6
 10
248.885661
 20
221.159123
 40
19.000000
 50
-48.590366
 51
48.590386
  0
ARC
  8
CSLAYER1
  6
CONTINUOUS
 62
     6
 10
262.114421
 20
206.159123
 40
1.000000
 50
131.409643
 51
270.000001
  0
LINE
  8
CSLAYER1
  6
CONTINUOUS
 62
     6
 10
262.114421
 20
205.159123
 11
266.885661
 21
205.159123
  0
ARC
  8
CSLAYER1
  6
CONTINUOUS
 62
     6
 10
266.885661
 20
204.159123
 40
1.000000
 50
0.057309
 51
89.999999
  0
LINE
  8
CSLAYER1
  6
CONTINUOUS
 62
     6
 10
267.885661
 20
204.159123
 11
267.885661
 21
203.159123
  0
ARC
  8
CSLAYER1
  6
CONTINUOUS
 62
     6
 10
266.885661
 20
203.159123
 40
1.000000
 50
269.999997
 51
360.000000
  0
LINE
  8
CSLAYER1
  6
CONTINUOUS
 62
     6
 10
266.885661
 20
202.159123
 11
230.885661
 21
202.159123
  0
ARC
  8
CSLAYER1
  6
CONTINUOUS
 62
     6
 10
230.885661
 20
203.159123
 40
1.000000
 50
179.999995
 51
269.999984
  0
LINE
  8
CSLAYER1
  6
CONTINUOUS
 62
     6
 10
229.885661
 20
203.159123
 11
229.885661
 21
204.159123
  0
ARC
  8
CSLAYER1
  6
CONTINUOUS
 62
     6
 10
230.885661
 20
204.159123
 40
1.000000
 50
89.999999
 51
179.999981
  0
LINE
  8
CSLAYER1
  6
CONTINUOUS
 62
     6
 10
230.885661
 20
205.159123
 11
235.656901
 21
205.159123
  0
ARC
  8
CSLAYER1
  6
CONTINUOUS
 62
     6
 10
235.656901
 20
206.159123
 40
1.000000
 50
-89.999999
 51
48.590386
  0
ARC
  8
CSLAYER1
  6
CONTINUOUS
 62
     6
 10
248.885661
 20
221.159123
 40
19.000000
 50
131.409657
 51
228.590367
  0
ARC
  8
CSLAYER1
  6
CONTINUOUS
 62
     6
 10
235.656901
 20
236.159123
 40
1.000000
 50
-48.590366
 51
90.000019
  0
LINE
  8
CSLAYER1
  6
CONTINUOUS
 62
     6
 10
235.656901
 20
237.159123
 11
230.885661
 21
237.159123
  0
ARC
  8
CSLAYER1
  6
CONTINUOUS
 62
     6
 10
230.885661
 20
238.159123
 40
1.000000
 50
180.000019
 51
270.000001
  0
LINE
  8
CSLAYER1
  6
CONTINUOUS
 62
     6
 10
229.885661
 20
238.159123
 11
229.885661
 21
239.159123
  0
ARC
  8
CSLAYER1
  6
CONTINUOUS
 62
     6
 10
230.885661
 20
239.159123
 40
1.000000
 50
90.000016
 51
180.000005
  0
LINE
  8
CSLAYER1
  6
CONTINUOUS
 62
     6
 10
242.885661
 20
222.059117
 11
242.885661
 21
220.259129
  0
LINE
  8
CSLAYER1
  6
CONTINUOUS
 62
     6
 10
242.885661
 20
220.259129
 11
254.885661
 21
220.259129
  0
LINE
  8
CSLAYER1
  6
CONTINUOUS
 62
     6
 10
254.885661
 20
220.259129
 11
254.885661
 21
222.059117
  0
LINE
  8
CSLAYER1
  6
CONTINUOUS
 62
     6
 10
254.885661
 20
222.059117
 11
242.885661
 21
222.059117
  0
CIRCLE
  8
CSLAYER1
  6
CONTINUOUS
 62
     6
 10
248.885661
 20
221.159123
 40
12.000000
  0
CIRCLE
  8
CSLAYER1
  6
CONTINUOUS
 62
     6
 10
248.885661
 20
221.159123
 40
15.000000
  0
CIRCLE
  8
CSLAYER1
  6
CONTINUOUS
 62
     6
 10
248.885661
 20
221.159123
 40
16.000000
  0
LINE
  8
CSLAYER1
  6
CONTINUOUS
 62
     6
 10
166.764971
 20
324.409141
 11
166.161522
 21
324.409141
  0
ARC
  8
CSLAYER1
  6
CONTINUOUS
 62
     6
 10
166.161522
 20
324.529839
 40
0.120690
 50
180.000005
 51
270.000001
  0
LINE
  8
CSLAYER1
  6
CONTINUOUS
 62
     6
 10
166.040861
 20
324.529839
 11
166.040861
 21
331.288444
  0
ARC
  8
CSLAYER1
  6
CONTINUOUS
 62
     6
 10
166.161522
 20
331.288444
 40
0.120690
 50
90.000003
 51
180.000005
  0
LINE
  8
CSLAYER1
  6
CONTINUOUS
 62
     6
 10
166.161522
 20
331.409141
 11
166.764971
 21
331.409141
  0
ARC
  8
CSLAYER1
  6
CONTINUOUS
 62
     6
 10
166.764971
 20
331.288444
 40
0.120690
 50
0.000000
 51
90.000003
  0
ARC
  8
CSLAYER1
  6
CONTINUOUS
 62
     6
 10
165.799467
 20
330.964694
 40
0.241380
 50
0.000000
 51
95.000152
  0
LINE
  8
CSLAYER1
  6
CONTINUOUS
 62
     6
 10
165.778399
 20
331.205149
 11
165.018268
 21
331.138650
  0
ARC
  8
CSLAYER1
  6
CONTINUOUS
 62
     6
 10
165.123459
 20
329.936336
 40
1.206899
 50
95.000111
 51
163.742611
  0
ARC
  8
CSLAYER1
  6
CONTINUOUS
 62
     6
 10
172.075357
 20
327.909141
 40
8.448294
 50
163.742994
 51
196.257016
  0
ARC
  8
CSLAYER1
  6
CONTINUOUS
 62
     6
 10
165.123459
 20
325.881946
 40
1.206899
 50
196.257399
 51
264.999892
  0
LINE
  8
CSLAYER1
  6
CONTINUOUS
 62
     6
 10
165.018268
 20
324.679633
 11
165.778399
 21
324.613133
  0
ARC
  8
CSLAYER1
  6
CONTINUOUS
 62
     6
 10
165.799467
 20
324.853589
 40
0.241380
 50
264.999865
 51
359.942691
  0
ARC
  8
CSLAYER1
  6
CONTINUOUS
 62
     6
 10
166.764971
 20
324.529839
 40
0.120690
 50
270.000001
 51
359.942691
  0
LINE
  8
CSLAYER1
  6
CONTINUOUS
 62
     6
 10
166.040861
 20
327.189912
 11
166.885669
 21
327.725609
  0
LINE
  8
CSLAYER1
  6
CONTINUOUS
 62
     6
 10
166.885669
 20
328.329059
 11
166.040861
 21
327.793361
  0
LINE
  8
CSLAYER1
  6
CONTINUOUS
 62
     6
 10
230.885661
 20
198.159123
 11
266.885661
 21
198.159123
  0
ARC
  8
CSLAYER1
  6
CONTINUOUS
 62
     6
 10
266.885661
 20
197.159123
 40
1.000000
 50
0.057309
 51
89.999999
  0
LINE
  8
CSLAYER1
  6
CONTINUOUS
 62
     6
 10
267.885661
 20
197.159123
 11
267.885661
 21
196.159123
  0
ARC
  8
CSLAYER1
  6
CONTINUOUS
 62
     6
 10
266.885661
 20
196.159123
 40
1.000000
 50
269.999997
 51
360.000000
  0
LINE
  8
CSLAYER1
  6
CONTINUOUS
 62
     6
 10
266.885661
 20
195.159123
 11
230.885661
 21
195.159123
  0
ARC
  8
CSLAYER1
  6
CONTINUOUS
 62
     6
 10
230.885661
 20
196.159123
 40
1.000000
 50
179.999995
 51
269.999984
  0
LINE
  8
CSLAYER1
  6
CONTINUOUS
 62
     6
 10
229.885661
 20
196.159123
 11
229.885661
 21
197.159123
  0
ARC
  8
CSLAYER1
  6
CONTINUOUS
 62
     6
 10
230.885661
 20
197.159123
 40
1.000000
 50
89.999999
 51
179.999981
  0
LINE
  8
CSLAYER1
  6
CONTINUOUS
 62
     6
 10
230.885661
 20
181.159123
 11
256.885661
 21
181.159123
  0
LINE
  8
CSLAYER1
  6
CONTINUOUS
 62
     6
 10
256.885661
 20
181.159123
 11
256.885661
 21
177.159123
  0
LINE
  8
CSLAYER1
  6
CONTINUOUS
 62
     6
 10
256.885661
 20
177.159123
 11
269.885661
 21
177.159123
  0
LINE
  8
CSLAYER1
  6
CONTINUOUS
 62
     6
 10
256.885661
 20
179.159123
 11
230.885661
 21
179.159123
  0
LINE
  8
CSLAYER1
  6
CONTINUOUS
 62
     6
 10
231.135661
 20
179.159123
 11
231.135661
 21
178.659123
  0
ARC
  8
CSLAYER1
  6
CONTINUOUS
 62
     6
 10
233.135661
 20
178.659123
 40
2.000000
 50
180.000000
 51
270.000000
  0
LINE
  8
CSLAYER1
  6
CONTINUOUS
 62
     6
 10
233.135661
 20
176.659123
 11
242.224286
 21
176.659123
  0
ARC
  8
CSLAYER1
  6
CONTINUOUS
 62
     6
 10
243.885661
 20
183.459111
 40
7.000000
 50
253.743003
 51
286.257026
  0
ARC
  8
CSLAYER1
  6
CONTINUOUS
 62
     6
 10
245.565318
 20
177.699040
 40
1.000000
 50
286.257408
 51
354.999902
  0
LINE
  8
CSLAYER1
  6
CONTINUOUS
 62
     6
 10
246.561503
 20
177.611882
 11
246.616618
 21
178.241704
  0
ARC
  8
CSLAYER1
  6
CONTINUOUS
 62
     6
 10
246.417399
 20
178.259129
 40
0.200000
 50
-5.000126
 51
90.000019
  0
LINE
  8
CSLAYER1
  6
CONTINUOUS
 62
     6
 10
246.685649
 20
178.459141
 11
243.885661
 21
178.459111
  0
LINE
  8
CSLAYER1
  6
CONTINUOUS
 62
     6
 10
243.885661
 20
178.459111
 11
241.085673
 21
178.459111
  0
ARC
  8
CSLAYER1
  6
CONTINUOUS
 62
     6
 10
241.085673
 20
178.559117
 40
0.100000
 50
180.000005
 51
270.000001
  0
LINE
  8
CSLAYER1
  6
CONTINUOUS
 62
     6
 10
240.985637
 20
178.559117
 11
240.985637
 21
179.059117
  0
ARC
  8
CSLAYER1
  6
CONTINUOUS
 62
     6
 10
241.085673
 20
179.059117
 40
0.100000
 50
90.000003
 51
180.000005
  0
ARC
  8
CSLAYER1
  6
CONTINUOUS
 62
     6
 10
241.353923
 20
178.259129
 40
0.200000
 50
90.000003
 51
185.000154
  0
LINE
  8
CSLAYER1
  6
CONTINUOUS
 62
     6
 10
241.154674
 20
178.241704
 11
241.209758
 21
177.611882
  0
ARC
  8
CSLAYER1
  6
CONTINUOUS
 62
     6
 10
242.205974
 20
177.699040
 40
1.000000
 50
185.000113
 51
253.742620
  0
LINE
  8
CSLAYER1
  6
CONTINUOUS
 62
     6
 10
240.314284
 20
176.659123
 11
240.149166
 21
175.641079
  0
LINE
  8
CSLAYER1
  6
CONTINUOUS
 62
     6
 10
240.149166
 20
175.641079
 11
240.091031
 21
175.318652
  0
LINE
  8
CSLAYER1
  6
CONTINUOUS
 62
     6
 10
240.091031
 20
175.318652
 11
240.026178
 21
174.986843
  0
LINE
  8
CSLAYER1
  6
CONTINUOUS
 62
     6
 10
240.026178
 20
174.986843
 11
239.955802
 21
174.649046
  0
LINE
  8
CSLAYER1
  6
CONTINUOUS
 62
     6
 10
239.955802
 20
174.649046
 11
239.881099
 21
174.308659
  0
LINE
  8
CSLAYER1
  6
CONTINUOUS
 62
     6
 10
239.881099
 20
174.308659
 11
239.803263
 21
173.969075
  0
LINE
  8
CSLAYER1
  6
CONTINUOUS
 62
     6
 10
239.803263
 20
173.969075
 11
239.723489
 21
173.633689
  0
LINE
  8
CSLAYER1
  6
CONTINUOUS
 62
     6
 10
239.723489
 20
173.633689
 11
239.642973
 21
173.305898
  0
LINE
  8
CSLAYER1
  6
CONTINUOUS
 62
     6
 10
239.642973
 20
173.305898
 11
239.562908
 21
172.989097
  0
LINE
  8
CSLAYER1
  6
CONTINUOUS
 62
     6
 10
239.562908
 20
172.989097
 11
239.484491
 21
172.686680
  0
LINE
  8
CSLAYER1
  6
CONTINUOUS
 62
     6
 10
239.484491
 20
172.686680
 11
239.401119
 21
172.386930
  0
LINE
  8
CSLAYER1
  6
CONTINUOUS
 62
     6
 10
239.401119
 20
172.386930
 11
239.307206
 21
172.081406
  0
LINE
  8
CSLAYER1
  6
CONTINUOUS
 62
     6
 10
239.307206
 20
172.081406
 11
239.203620
 21
171.771367
  0
LINE
  8
CSLAYER1
  6
CONTINUOUS
 62
     6
 10
239.203620
 20
171.771367
 11
239.091232
 21
171.458071
  0
LINE
  8
CSLAYER1
  6
CONTINUOUS
 62
     6
 10
239.091232
 20
171.458071
 11
238.970910
 21
171.142780
  0
LINE
  8
CSLAYER1
  6
CONTINUOUS
 62
     6
 10
238.970910
 20
171.142780
 11
238.843523
 21
170.826752
  0
LINE
  8
CSLAYER1
  6
CONTINUOUS
 62
     6
 10
238.843523
 20
170.826752
 11
238.709941
 21
170.511246
  0
LINE
  8
CSLAYER1
  6
CONTINUOUS
 62
     6
 10
238.709941
 20
170.511246
 11
238.571032
 21
170.197522
  0
LINE
  8
CSLAYER1
  6
CONTINUOUS
 62
     6
 10
238.571032
 20
170.197522
 11
238.427665
 21
169.886840
  0
LINE
  8
CSLAYER1
  6
CONTINUOUS
 62
     6
 10
238.427665
 20
169.886840
 11
238.280710
 21
169.580458
  0
LINE
  8
CSLAYER1
  6
CONTINUOUS
 62
     6
 10
238.280710
 20
169.580458
 11
238.131036
 21
169.279637
  0
LINE
  8
CSLAYER1
  6
CONTINUOUS
 62
     6
 10
238.131036
 20
169.279637
 11
238.003692
 21
169.032017
  0
LINE
  8
CSLAYER1
  6
CONTINUOUS
 62
     6
 10
238.003692
 20
169.032017
 11
237.873540
 21
168.785983
  0
LINE
  8
CSLAYER1
  6
CONTINUOUS
 62
     6
 10
237.873540
 20
168.785983
 11
237.740861
 21
168.541377
  0
LINE
  8
CSLAYER1
  6
CONTINUOUS
 62
     6
 10
237.740861
 20
168.541377
 11
237.605936
 21
168.298040
  0
LINE
  8
CSLAYER1
  6
CONTINUOUS
 62
     6
 10
237.605936
 20
168.298040
 11
237.469046
 21
168.055813
  0
LINE
  8
CSLAYER1
  6
CONTINUOUS
 62
     6
 10
237.469046
 20
168.055813
 11
237.330471
 21
167.814538
  0
LINE
  8
CSLAYER1
  6
CONTINUOUS
 62
     6
 10
237.330471
 20
167.814538
 11
237.190493
 21
167.574056
  0
LINE
  8
CSLAYER1
  6
CONTINUOUS
 62
     6
 10
237.190493
 20
167.574056
 11
237.049391
 21
167.334209
  0
LINE
  8
CSLAYER1
  6
CONTINUOUS
 62
     6
 10
237.049391
 20
167.334209
 11
236.907447
 21
167.094837
  0
LINE
  8
CSLAYER1
  6
CONTINUOUS
 62
     6
 10
236.907447
 20
167.094837
 11
236.764942
 21
166.855783
  0
LINE
  8
CSLAYER1
  6
CONTINUOUS
 62
     6
 10
236.764942
 20
166.855783
 11
236.622156
 21
166.616887
  0
ARC
  8
CSLAYER1
  6
CONTINUOUS
 62
     6
 10
236.612490
 20
167.816855
 40
1.200008
 50
210.461486
 51
270.461486
  0
ARC
  8
CSLAYER1
  6
CONTINUOUS
 62
     6
 10
235.568454
 20
168.408469
 40
1.200008
 50
210.461486
 51
270.461486
  0
LINE
  8
CSLAYER1
  6
CONTINUOUS
 62
     6
 10
234.534051
 20
167.800114
 11
234.669333
 21
168.026036
  0
LINE
  8
CSLAYER1
  6
CONTINUOUS
 62
     6
 10
234.669333
 20
168.026036
 11
234.804339
 21
168.252112
  0
LINE
  8
CSLAYER1
  6
CONTINUOUS
 62
     6
 10
234.804339
 20
168.252112
 11
234.938796
 21
168.478498
  0
LINE
  8
CSLAYER1
  6
CONTINUOUS
 62
     6
 10
234.938796
 20
168.478498
 11
235.072426
 21
168.705348
  0
LINE
  8
CSLAYER1
  6
CONTINUOUS
 62
     6
 10
235.072426
 20
168.705348
 11
235.204956
 21
168.932816
  0
LINE
  8
CSLAYER1
  6
CONTINUOUS
 62
     6
 10
235.204956
 20
168.932816
 11
235.336109
 21
169.161058
  0
LINE
  8
CSLAYER1
  6
CONTINUOUS
 62
     6
 10
235.336109
 20
169.161058
 11
235.465611
 21
169.390228
  0
LINE
  8
CSLAYER1
  6
CONTINUOUS
 62
     6
 10
235.465611
 20
169.390228
 11
235.593187
 21
169.620480
  0
LINE
  8
CSLAYER1
  6
CONTINUOUS
 62
     6
 10
235.593187
 20
169.620480
 11
235.718561
 21
169.851970
  0
LINE
  8
CSLAYER1
  6
CONTINUOUS
 62
     6
 10
235.718561
 20
169.851970
 11
235.841458
 21
170.084851
  0
LINE
  8
CSLAYER1
  6
CONTINUOUS
 62
     6
 10
235.841458
 20
170.084851
 11
235.961603
 21
170.319279
  0
LINE
  8
CSLAYER1
  6
CONTINUOUS
 62
     6
 10
235.961603
 20
170.319279
 11
236.095844
 21
170.590085
  0
LINE
  8
CSLAYER1
  6
CONTINUOUS
 62
     6
 10
236.095844
 20
170.590085
 11
236.227707
 21
170.865850
  0
LINE
  8
CSLAYER1
  6
CONTINUOUS
 62
     6
 10
236.227707
 20
170.865850
 11
236.356415
 21
171.145443
  0
LINE
  8
CSLAYER1
  6
CONTINUOUS
 62
     6
 10
236.356415
 20
171.145443
 11
236.481189
 21
171.427733
  0
LINE
  8
CSLAYER1
  6
CONTINUOUS
 62
     6
 10
236.481189
 20
171.427733
 11
236.601252
 21
171.711589
  0
LINE
  8
CSLAYER1
  6
CONTINUOUS
 62
     6
 10
236.601252
 20
171.711589
 11
236.715827
 21
171.995879
  0
LINE
  8
CSLAYER1
  6
CONTINUOUS
 62
     6
 10
236.715827
 20
171.995879
 11
236.824136
 21
172.279472
  0
LINE
  8
CSLAYER1
  6
CONTINUOUS
 62
     6
 10
236.824136
 20
172.279472
 11
236.925401
 21
172.561237
  0
LINE
  8
CSLAYER1
  6
CONTINUOUS
 62
     6
 10
236.925401
 20
172.561237
 11
237.018846
 21
172.840043
  0
LINE
  8
CSLAYER1
  6
CONTINUOUS
 62
     6
 10
237.018846
 20
172.840043
 11
237.103692
 21
173.114758
  0
LINE
  8
CSLAYER1
  6
CONTINUOUS
 62
     6
 10
237.103692
 20
173.114758
 11
237.179162
 21
173.384251
  0
LINE
  8
CSLAYER1
  6
CONTINUOUS
 62
     6
 10
237.179162
 20
173.384251
 11
237.253702
 21
173.669690
  0
LINE
  8
CSLAYER1
  6
CONTINUOUS
 62
     6
 10
237.253702
 20
173.669690
 11
237.329710
 21
173.968869
  0
LINE
  8
CSLAYER1
  6
CONTINUOUS
 62
     6
 10
237.329710
 20
173.968869
 11
237.406054
 21
174.278534
  0
LINE
  8
CSLAYER1
  6
CONTINUOUS
 62
     6
 10
237.406054
 20
174.278534
 11
237.481600
 21
174.595434
  0
LINE
  8
CSLAYER1
  6
CONTINUOUS
 62
     6
 10
237.481600
 20
174.595434
 11
237.555216
 21
174.916316
  0
LINE
  8
CSLAYER1
  6
CONTINUOUS
 62
     6
 10
237.555216
 20
174.916316
 11
237.625768
 21
175.237927
  0
LINE
  8
CSLAYER1
  6
CONTINUOUS
 62
     6
 10
237.625768
 20
175.237927
 11
237.692125
 21
175.557015
  0
LINE
  8
CSLAYER1
  6
CONTINUOUS
 62
     6
 10
237.692125
 20
175.557015
 11
237.753154
 21
175.870326
  0
LINE
  8
CSLAYER1
  6
CONTINUOUS
 62
     6
 10
237.753154
 20
175.870326
 11
237.807720
 21
176.174609
  0
LINE
  8
CSLAYER1
  6
CONTINUOUS
 62
     6
 10
237.807720
 20
176.174609
 11
237.885661
 21
176.659123
  0
LINE
  8
CSLAYER1
  6
CONTINUOUS
 62
     6
 10
237.757261
 20
175.893229
 11
237.709014
 21
175.805395
  0
LINE
  8
CSLAYER1
  6
CONTINUOUS
 62
     6
 10
237.709014
 20
175.805395
 11
237.599127
 21
175.613586
  0
LINE
  8
CSLAYER1
  6
CONTINUOUS
 62
     6
 10
237.599127
 20
175.613586
 11
237.480873
 21
175.414099
  0
LINE
  8
CSLAYER1
  6
CONTINUOUS
 62
     6
 10
237.480873
 20
175.414099
 11
237.355835
 21
175.209119
  0
LINE
  8
CSLAYER1
  6
CONTINUOUS
 62
     6
 10
237.355835
 20
175.209119
 11
237.225593
 21
175.000834
  0
LINE
  8
CSLAYER1
  6
CONTINUOUS
 62
     6
 10
237.225593
 20
175.000834
 11
237.091731
 21
174.791428
  0
LINE
  8
CSLAYER1
  6
CONTINUOUS
 62
     6
 10
237.091731
 20
174.791428
 11
236.955829
 21
174.583088
  0
LINE
  8
CSLAYER1
  6
CONTINUOUS
 62
     6
 10
236.955829
 20
174.583088
 11
236.819468
 21
174.378001
  0
LINE
  8
CSLAYER1
  6
CONTINUOUS
 62
     6
 10
236.819468
 20
174.378001
 11
236.684232
 21
174.178351
  0
LINE
  8
CSLAYER1
  6
CONTINUOUS
 62
     6
 10
236.684232
 20
174.178351
 11
236.551701
 21
173.986326
  0
LINE
  8
CSLAYER1
  6
CONTINUOUS
 62
     6
 10
236.551701
 20
173.986326
 11
236.423456
 21
173.804112
  0
LINE
  8
CSLAYER1
  6
CONTINUOUS
 62
     6
 10
236.423456
 20
173.804112
 11
236.318376
 21
173.659933
  0
LINE
  8
CSLAYER1
  6
CONTINUOUS
 62
     6
 10
236.318376
 20
173.659933
 11
236.206485
 21
173.512883
  0
LINE
  8
CSLAYER1
  6
CONTINUOUS
 62
     6
 10
236.206485
 20
173.512883
 11
236.088917
 21
173.363861
  0
LINE
  8
CSLAYER1
  6
CONTINUOUS
 62
     6
 10
236.088917
 20
173.363861
 11
235.966803
 21
173.213767
  0
LINE
  8
CSLAYER1
  6
CONTINUOUS
 62
     6
 10
235.966803
 20
173.213767
 11
235.841277
 21
173.063499
  0
LINE
  8
CSLAYER1
  6
CONTINUOUS
 62
     6
 10
235.841277
 20
173.063499
 11
235.713472
 21
172.913956
  0
LINE
  8
CSLAYER1
  6
CONTINUOUS
 62
     6
 10
235.713472
 20
172.913956
 11
235.584519
 21
172.766038
  0
LINE
  8
CSLAYER1
  6
CONTINUOUS
 62
     6
 10
235.584519
 20
172.766038
 11
235.455552
 21
172.620643
  0
LINE
  8
CSLAYER1
  6
CONTINUOUS
 62
     6
 10
235.455552
 20
172.620643
 11
235.327703
 21
172.478671
  0
LINE
  8
CSLAYER1
  6
CONTINUOUS
 62
     6
 10
235.327703
 20
172.478671
 11
235.202104
 21
172.341021
  0
LINE
  8
CSLAYER1
  6
CONTINUOUS
 62
     6
 10
235.202104
 20
172.341021
 11
235.079889
 21
172.208592
  0
LINE
  8
CSLAYER1
  6
CONTINUOUS
 62
     6
 10
235.079889
 20
172.208592
 11
234.934913
 21
172.056432
  0
LINE
  8
CSLAYER1
  6
CONTINUOUS
 62
     6
 10
234.934913
 20
172.056432
 11
234.781738
 21
171.902481
  0
LINE
  8
CSLAYER1
  6
CONTINUOUS
 62
     6
 10
234.781738
 20
171.902481
 11
234.622329
 21
171.747048
  0
LINE
  8
CSLAYER1
  6
CONTINUOUS
 62
     6
 10
234.622329
 20
171.747048
 11
234.458652
 21
171.590440
  0
LINE
  8
CSLAYER1
  6
CONTINUOUS
 62
     6
 10
234.458652
 20
171.590440
 11
234.292672
 21
171.432966
  0
LINE
  8
CSLAYER1
  6
CONTINUOUS
 62
     6
 10
234.292672
 20
171.432966
 11
234.126354
 21
171.274935
  0
LINE
  8
CSLAYER1
  6
CONTINUOUS
 62
     6
 10
234.126354
 20
171.274935
 11
233.961664
 21
171.116655
  0
LINE
  8
CSLAYER1
  6
CONTINUOUS
 62
     6
 10
233.961664
 20
171.116655
 11
233.800567
 21
170.958435
  0
LINE
  8
CSLAYER1
  6
CONTINUOUS
 62
     6
 10
233.800567
 20
170.958435
 11
233.645028
 21
170.800583
  0
LINE
  8
CSLAYER1
  6
CONTINUOUS
 62
     6
 10
233.645028
 20
170.800583
 11
233.497012
 21
170.643407
  0
LINE
  8
CSLAYER1
  6
CONTINUOUS
 62
     6
 10
233.497012
 20
170.643407
 11
233.358484
 21
170.487217
  0
LINE
  8
CSLAYER1
  6
CONTINUOUS
 62
     6
 10
233.358484
 20
170.487217
 11
233.232569
 21
170.340635
  0
LINE
  8
CSLAYER1
  6
CONTINUOUS
 62
     6
 10
233.232569
 20
170.340635
 11
233.101760
 21
170.190457
  0
LINE
  8
CSLAYER1
  6
CONTINUOUS
 62
     6
 10
233.101760
 20
170.190457
 11
232.966157
 21
170.038237
  0
LINE
  8
CSLAYER1
  6
CONTINUOUS
 62
     6
 10
232.966157
 20
170.038237
 11
232.825864
 21
169.885532
  0
LINE
  8
CSLAYER1
  6
CONTINUOUS
 62
     6
 10
232.825864
 20
169.885532
 11
232.680981
 21
169.733899
  0
LINE
  8
CSLAYER1
  6
CONTINUOUS
 62
     6
 10
232.680981
 20
169.733899
 11
232.531610
 21
169.584892
  0
LINE
  8
CSLAYER1
  6
CONTINUOUS
 62
     6
 10
232.531610
 20
169.584892
 11
232.377854
 21
169.440068
  0
LINE
  8
CSLAYER1
  6
CONTINUOUS
 62
     6
 10
232.377854
 20
169.440068
 11
232.219813
 21
169.300983
  0
LINE
  8
CSLAYER1
  6
CONTINUOUS
 62
     6
 10
232.219813
 20
169.300983
 11
232.057589
 21
169.169193
  0
LINE
  8
CSLAYER1
  6
CONTINUOUS
 62
     6
 10
232.057589
 20
169.169193
 11
231.891285
 21
169.046253
  0
LINE
  8
CSLAYER1
  6
CONTINUOUS
 62
     6
 10
231.891285
 20
169.046253
 11
231.721002
 21
168.933720
  0
LINE
  8
CSLAYER1
  6
CONTINUOUS
 62
     6
 10
231.721002
 20
168.933720
 11
231.628268
 21
168.878294
  0
LINE
  8
CSLAYER1
  6
CONTINUOUS
 62
     6
 10
231.628268
 20
168.878294
 11
231.533676
 21
168.825617
  0
LINE
  8
CSLAYER1
  6
CONTINUOUS
 62
     6
 10
231.533676
 20
168.825617
 11
231.437411
 21
168.775416
  0
LINE
  8
CSLAYER1
  6
CONTINUOUS
 62
     6
 10
231.437411
 20
168.775416
 11
231.339660
 21
168.727415
  0
LINE
  8
CSLAYER1
  6
CONTINUOUS
 62
     6
 10
231.339660
 20
168.727415
 11
231.240608
 21
168.681338
  0
LINE
  8
CSLAYER1
  6
CONTINUOUS
 62
     6
 10
231.240608
 20
168.681338
 11
231.140442
 21
168.636912
  0
LINE
  8
CSLAYER1
  6
CONTINUOUS
 62
     6
 10
231.140442
 20
168.636912
 11
231.039346
 21
168.593861
  0
LINE
  8
CSLAYER1
  6
CONTINUOUS
 62
     6
 10
231.039346
 20
168.593861
 11
230.937507
 21
168.551909
  0
LINE
  8
CSLAYER1
  6
CONTINUOUS
 62
     6
 10
230.937507
 20
168.551909
 11
230.835110
 21
168.510783
  0
LINE
  8
CSLAYER1
  6
CONTINUOUS
 62
     6
 10
230.835110
 20
168.510783
 11
230.732342
 21
168.470206
  0
LINE
  8
CSLAYER1
  6
CONTINUOUS
 62
     6
 10
230.732342
 20
168.470206
 11
230.629388
 21
168.429905
  0
ARC
  8
CSLAYER1
  6
CONTINUOUS
 62
     6
 10
230.752120
 20
169.518877
 40
1.095863
 50
203.568976
 51
263.568976
  0
ARC
  8
CSLAYER1
  6
CONTINUOUS
 62
     6
 10
229.870419
 20
170.169660
 40
1.095863
 50
203.568976
 51
263.568976
  0
LINE
  8
CSLAYER1
  6
CONTINUOUS
 62
     6
 10
228.865991
 20
169.731480
 11
229.119103
 21
169.911447
  0
LINE
  8
CSLAYER1
  6
CONTINUOUS
 62
     6
 10
229.119103
 20
169.911447
 11
229.371964
 21
170.091767
  0
LINE
  8
CSLAYER1
  6
CONTINUOUS
 62
     6
 10
229.371964
 20
170.091767
 11
229.624324
 21
170.272793
  0
LINE
  8
CSLAYER1
  6
CONTINUOUS
 62
     6
 10
229.624324
 20
170.272793
 11
229.875932
 21
170.454877
  0
LINE
  8
CSLAYER1
  6
CONTINUOUS
 62
     6
 10
229.875932
 20
170.454877
 11
230.126537
 21
170.638372
  0
LINE
  8
CSLAYER1
  6
CONTINUOUS
 62
     6
 10
230.126537
 20
170.638372
 11
230.375890
 21
170.823631
  0
LINE
  8
CSLAYER1
  6
CONTINUOUS
 62
     6
 10
230.375890
 20
170.823631
 11
230.623739
 21
171.011006
  0
LINE
  8
CSLAYER1
  6
CONTINUOUS
 62
     6
 10
230.623739
 20
171.011006
 11
230.869834
 21
171.200851
  0
LINE
  8
CSLAYER1
  6
CONTINUOUS
 62
     6
 10
230.869834
 20
171.200851
 11
231.113924
 21
171.393519
  0
LINE
  8
CSLAYER1
  6
CONTINUOUS
 62
     6
 10
231.113924
 20
171.393519
 11
231.355758
 21
171.589361
  0
LINE
  8
CSLAYER1
  6
CONTINUOUS
 62
     6
 10
231.355758
 20
171.589361
 11
231.595086
 21
171.788731
  0
LINE
  8
CSLAYER1
  6
CONTINUOUS
 62
     6
 10
231.595086
 20
171.788731
 11
231.752351
 21
171.923028
  0
LINE
  8
CSLAYER1
  6
CONTINUOUS
 62
     6
 10
231.752351
 20
171.923028
 11
231.909400
 21
172.060052
  0
LINE
  8
CSLAYER1
  6
CONTINUOUS
 62
     6
 10
231.909400
 20
172.060052
 11
232.065491
 21
172.199612
  0
LINE
  8
CSLAYER1
  6
CONTINUOUS
 62
     6
 10
232.065491
 20
172.199612
 11
232.219881
 21
172.341514
  0
LINE
  8
CSLAYER1
  6
CONTINUOUS
 62
     6
 10
232.219881
 20
172.341514
 11
232.371825
 21
172.485567
  0
LINE
  8
CSLAYER1
  6
CONTINUOUS
 62
     6
 10
232.371825
 20
172.485567
 11
232.520582
 21
172.631577
  0
LINE
  8
CSLAYER1
  6
CONTINUOUS
 62
     6
 10
232.520582
 20
172.631577
 11
232.665408
 21
172.779352
  0
LINE
  8
CSLAYER1
  6
CONTINUOUS
 62
     6
 10
232.665408
 20
172.779352
 11
232.805561
 21
172.928699
  0
LINE
  8
CSLAYER1
  6
CONTINUOUS
 62
     6
 10
232.805561
 20
172.928699
 11
232.940297
 21
173.079427
  0
LINE
  8
CSLAYER1
  6
CONTINUOUS
 62
     6
 10
232.940297
 20
173.079427
 11
233.068872
 21
173.231342
  0
LINE
  8
CSLAYER1
  6
CONTINUOUS
 62
     6
 10
233.068872
 20
173.231342
 11
233.190545
 21
173.384251
  0
LINE
  8
CSLAYER1
  6
CONTINUOUS
 62
     6
 10
233.190545
 20
173.384251
 11
233.305000
 21
173.535577
  0
LINE
  8
CSLAYER1
  6
CONTINUOUS
 62
     6
 10
233.305000
 20
173.535577
 11
233.420301
 21
173.692831
  0
LINE
  8
CSLAYER1
  6
CONTINUOUS
 62
     6
 10
233.420301
 20
173.692831
 11
233.535914
 21
173.854889
  0
LINE
  8
CSLAYER1
  6
CONTINUOUS
 62
     6
 10
233.535914
 20
173.854889
 11
233.651307
 21
174.020629
  0
LINE
  8
CSLAYER1
  6
CONTINUOUS
 62
     6
 10
233.651307
 20
174.020629
 11
233.765947
 21
174.188928
  0
LINE
  8
CSLAYER1
  6
CONTINUOUS
 62
     6
 10
233.765947
 20
174.188928
 11
233.879301
 21
174.358664
  0
LINE
  8
CSLAYER1
  6
CONTINUOUS
 62
     6
 10
233.879301
 20
174.358664
 11
233.990836
 21
174.528715
  0
LINE
  8
CSLAYER1
  6
CONTINUOUS
 62
     6
 10
233.990836
 20
174.528715
 11
234.100021
 21
174.697957
  0
LINE
  8
CSLAYER1
  6
CONTINUOUS
 62
     6
 10
234.100021
 20
174.697957
 11
234.206320
 21
174.865269
  0
LINE
  8
CSLAYER1
  6
CONTINUOUS
 62
     6
 10
234.206320
 20
174.865269
 11
234.309203
 21
175.029528
  0
LINE
  8
CSLAYER1
  6
CONTINUOUS
 62
     6
 10
234.309203
 20
175.029528
 11
234.408136
 21
175.189610
  0
LINE
  8
CSLAYER1
  6
CONTINUOUS
 62
     6
 10
234.408136
 20
175.189610
 11
234.494610
 21
175.327836
  0
LINE
  8
CSLAYER1
  6
CONTINUOUS
 62
     6
 10
234.494610
 20
175.327836
 11
234.586562
 21
175.470294
  0
LINE
  8
CSLAYER1
  6
CONTINUOUS
 62
     6
 10
234.586562
 20
175.470294
 11
234.682762
 21
175.615774
  0
LINE
  8
CSLAYER1
  6
CONTINUOUS
 62
     6
 10
234.682762
 20
175.615774
 11
234.781981
 21
175.763064
  0
LINE
  8
CSLAYER1
  6
CONTINUOUS
 62
     6
 10
234.781981
 20
175.763064
 11
234.882989
 21
175.910954
  0
LINE
  8
CSLAYER1
  6
CONTINUOUS
 62
     6
 10
234.882989
 20
175.910954
 11
234.984557
 21
176.058233
  0
LINE
  8
CSLAYER1
  6
CONTINUOUS
 62
     6
 10
234.984557
 20
176.058233
 11
235.085455
 21
176.203689
  0
LINE
  8
CSLAYER1
  6
CONTINUOUS
 62
     6
 10
235.085455
 20
176.203689
 11
235.184454
 21
176.346113
  0
LINE
  8
CSLAYER1
  6
CONTINUOUS
 62
     6
 10
235.184454
 20
176.346113
 11
235.280323
 21
176.484293
  0
LINE
  8
CSLAYER1
  6
CONTINUOUS
 62
     6
 10
235.280323
 20
176.484293
 11
235.400865
 21
176.659123
  0
LINE
  8
CSLAYER1
  6
CONTINUOUS
 62
     6
 10
230.885661
 20
177.159123
 11
230.885661
 21
181.159123
  0
LINE
  8
CSLAYER1
  6
CONTINUOUS
 62
     6
 10
230.885661
 20
177.159123
 11
226.885661
 21
177.159123
  0
ARC
  8
CSLAYER1
  6
CONTINUOUS
 62
     6
 10
228.323323
 20
169.321545
 40
1.080690
 50
210.945197
 51
270.945197
  0
ARC
  8
CSLAYER1
  6
CONTINUOUS
 62
     6
 10
227.414286
 20
167.685292
 40
1.080690
 50
30.945197
 51
90.945197
  0
LINE
  8
CSLAYER1
  6
CONTINUOUS
 62
     6
 10
227.396478
 20
168.765812
 11
227.251776
 21
168.626466
  0
LINE
  8
CSLAYER1
  6
CONTINUOUS
 62
     6
 10
227.251776
 20
168.626466
 11
227.097861
 21
168.476716
  0
LINE
  8
CSLAYER1
  6
CONTINUOUS
 62
     6
 10
227.097861
 20
168.476716
 11
226.936510
 21
168.318888
  0
LINE
  8
CSLAYER1
  6
CONTINUOUS
 62
     6
 10
226.936510
 20
168.318888
 11
226.769500
 21
168.155306
  0
LINE
  8
CSLAYER1
  6
CONTINUOUS
 62
     6
 10
226.769500
 20
168.155306
 11
226.598605
 21
167.988295
  0
LINE
  8
CSLAYER1
  6
CONTINUOUS
 62
     6
 10
226.598605
 20
167.988295
 11
226.425602
 21
167.820179
  0
LINE
  8
CSLAYER1
  6
CONTINUOUS
 62
     6
 10
226.425602
 20
167.820179
 11
226.252267
 21
167.653284
  0
LINE
  8
CSLAYER1
  6
CONTINUOUS
 62
     6
 10
226.252267
 20
167.653284
 11
226.080375
 21
167.489935
  0
LINE
  8
CSLAYER1
  6
CONTINUOUS
 62
     6
 10
226.080375
 20
167.489935
 11
225.911702
 21
167.332456
  0
LINE
  8
CSLAYER1
  6
CONTINUOUS
 62
     6
 10
225.911702
 20
167.332456
 11
225.748025
 21
167.183171
  0
LINE
  8
CSLAYER1
  6
CONTINUOUS
 62
     6
 10
225.748025
 20
167.183171
 11
225.591119
 21
167.044407
  0
LINE
  8
CSLAYER1
  6
CONTINUOUS
 62
     6
 10
225.591119
 20
167.044407
 11
225.449888
 21
166.921610
  0
LINE
  8
CSLAYER1
  6
CONTINUOUS
 62
     6
 10
225.449888
 20
166.921610
 11
225.303705
 21
166.793724
  0
LINE
  8
CSLAYER1
  6
CONTINUOUS
 62
     6
 10
225.303705
 20
166.793724
 11
225.153712
 21
166.661217
  0
LINE
  8
CSLAYER1
  6
CONTINUOUS
 62
     6
 10
225.153712
 20
166.661217
 11
225.001050
 21
166.524558
  0
LINE
  8
CSLAYER1
  6
CONTINUOUS
 62
     6
 10
225.001050
 20
166.524558
 11
224.846863
 21
166.384213
  0
LINE
  8
CSLAYER1
  6
CONTINUOUS
 62
     6
 10
224.846863
 20
166.384213
 11
224.692293
 21
166.240650
  0
LINE
  8
CSLAYER1
  6
CONTINUOUS
 62
     6
 10
224.692293
 20
166.240650
 11
224.538482
 21
166.094338
  0
LINE
  8
CSLAYER1
  6
CONTINUOUS
 62
     6
 10
224.538482
 20
166.094338
 11
224.386571
 21
165.945743
  0
LINE
  8
CSLAYER1
  6
CONTINUOUS
 62
     6
 10
224.386571
 20
165.945743
 11
224.237704
 21
165.795333
  0
LINE
  8
CSLAYER1
  6
CONTINUOUS
 62
     6
 10
224.237704
 20
165.795333
 11
224.093022
 21
165.643577
  0
LINE
  8
CSLAYER1
  6
CONTINUOUS
 62
     6
 10
224.093022
 20
165.643577
 11
223.953668
 21
165.490941
  0
LINE
  8
CSLAYER1
  6
CONTINUOUS
 62
     6
 10
223.953668
 20
165.490941
 11
223.898144
 21
165.427997
  0
LINE
  8
CSLAYER1
  6
CONTINUOUS
 62
     6
 10
223.898144
 20
165.427997
 11
223.843216
 21
165.364497
  0
LINE
  8
CSLAYER1
  6
CONTINUOUS
 62
     6
 10
223.843216
 20
165.364497
 11
223.788825
 21
165.300495
  0
LINE
  8
CSLAYER1
  6
CONTINUOUS
 62
     6
 10
223.788825
 20
165.300495
 11
223.734912
 21
165.236049
  0
LINE
  8
CSLAYER1
  6
CONTINUOUS
 62
     6
 10
223.734912
 20
165.236049
 11
223.681416
 21
165.171213
  0
LINE
  8
CSLAYER1
  6
CONTINUOUS
 62
     6
 10
223.681416
 20
165.171213
 11
223.628278
 21
165.106043
  0
LINE
  8
CSLAYER1
  6
CONTINUOUS
 62
     6
 10
223.628278
 20
165.106043
 11
223.575438
 21
165.040595
  0
LINE
  8
CSLAYER1
  6
CONTINUOUS
 62
     6
 10
223.575438
 20
165.040595
 11
223.522837
 21
164.974925
  0
LINE
  8
CSLAYER1
  6
CONTINUOUS
 62
     6
 10
223.522837
 20
164.974925
 11
223.470415
 21
164.909087
  0
LINE
  8
CSLAYER1
  6
CONTINUOUS
 62
     6
 10
223.470415
 20
164.909087
 11
223.418112
 21
164.843139
  0
LINE
  8
CSLAYER1
  6
CONTINUOUS
 62
     6
 10
223.418112
 20
164.843139
 11
223.289557
 21
164.680721
  0
LINE
  8
CSLAYER1
  6
CONTINUOUS
 62
     6
 10
223.289557
 20
164.680721
 11
223.318295
 21
164.633866
  0
LINE
  8
CSLAYER1
  6
CONTINUOUS
 62
     6
 10
223.318295
 20
164.633866
 11
223.358887
 21
164.573985
  0
LINE
  8
CSLAYER1
  6
CONTINUOUS
 62
     6
 10
223.358887
 20
164.573985
 11
223.403169
 21
164.514117
  0
LINE
  8
CSLAYER1
  6
CONTINUOUS
 62
     6
 10
223.403169
 20
164.514117
 11
223.450620
 21
164.454844
  0
LINE
  8
CSLAYER1
  6
CONTINUOUS
 62
     6
 10
223.450620
 20
164.454844
 11
223.500719
 21
164.396746
  0
LINE
  8
CSLAYER1
  6
CONTINUOUS
 62
     6
 10
223.500719
 20
164.396746
 11
223.552943
 21
164.340406
  0
LINE
  8
CSLAYER1
  6
CONTINUOUS
 62
     6
 10
223.552943
 20
164.340406
 11
223.606772
 21
164.286402
  0
LINE
  8
CSLAYER1
  6
CONTINUOUS
 62
     6
 10
223.606772
 20
164.286402
 11
223.661682
 21
164.235317
  0
LINE
  8
CSLAYER1
  6
CONTINUOUS
 62
     6
 10
223.661682
 20
164.235317
 11
223.717153
 21
164.187731
  0
LINE
  8
CSLAYER1
  6
CONTINUOUS
 62
     6
 10
223.717153
 20
164.187731
 11
223.772664
 21
164.144226
  0
LINE
  8
CSLAYER1
  6
CONTINUOUS
 62
     6
 10
223.772664
 20
164.144226
 11
223.827691
 21
164.105381
  0
LINE
  8
CSLAYER1
  6
CONTINUOUS
 62
     6
 10
223.827691
 20
164.105381
 11
223.884177
 21
164.071087
  0
LINE
  8
CSLAYER1
  6
CONTINUOUS
 62
     6
 10
223.884177
 20
164.071087
 11
223.944779
 21
164.040120
  0
LINE
  8
CSLAYER1
  6
CONTINUOUS
 62
     6
 10
223.944779
 20
164.040120
 11
224.008940
 21
164.012131
  0
LINE
  8
CSLAYER1
  6
CONTINUOUS
 62
     6
 10
224.008940
 20
164.012131
 11
224.076102
 21
163.986770
  0
LINE
  8
CSLAYER1
  6
CONTINUOUS
 62
     6
 10
224.076102
 20
163.986770
 11
224.145708
 21
163.963688
  0
LINE
  8
CSLAYER1
  6
CONTINUOUS
 62
     6
 10
224.145708
 20
163.963688
 11
224.217202
 21
163.942534
  0
LINE
  8
CSLAYER1
  6
CONTINUOUS
 62
     6
 10
224.217202
 20
163.942534
 11
224.290027
 21
163.922960
  0
LINE
  8
CSLAYER1
  6
CONTINUOUS
 62
     6
 10
224.290027
 20
163.922960
 11
224.363625
 21
163.904615
  0
LINE
  8
CSLAYER1
  6
CONTINUOUS
 62
     6
 10
224.363625
 20
163.904615
 11
224.437440
 21
163.887149
  0
LINE
  8
CSLAYER1
  6
CONTINUOUS
 62
     6
 10
224.437440
 20
163.887149
 11
224.510914
 21
163.870214
  0
LINE
  8
CSLAYER1
  6
CONTINUOUS
 62
     6
 10
224.510914
 20
163.870214
 11
224.583490
 21
163.853459
  0
LINE
  8
CSLAYER1
  6
CONTINUOUS
 62
     6
 10
224.583490
 20
163.853459
 11
224.657714
 21
163.835859
  0
LINE
  8
CSLAYER1
  6
CONTINUOUS
 62
     6
 10
224.657714
 20
163.835859
 11
224.731450
 21
163.817834
  0
LINE
  8
CSLAYER1
  6
CONTINUOUS
 62
     6
 10
224.731450
 20
163.817834
 11
224.804746
 21
163.799428
  0
LINE
  8
CSLAYER1
  6
CONTINUOUS
 62
     6
 10
224.804746
 20
163.799428
 11
224.877652
 21
163.780683
  0
LINE
  8
CSLAYER1
  6
CONTINUOUS
 62
     6
 10
224.877652
 20
163.780683
 11
224.950216
 21
163.761640
  0
LINE
  8
CSLAYER1
  6
CONTINUOUS
 62
     6
 10
224.950216
 20
163.761640
 11
225.022487
 21
163.742344
  0
LINE
  8
CSLAYER1
  6
CONTINUOUS
 62
     6
 10
225.022487
 20
163.742344
 11
225.094514
 21
163.722835
  0
LINE
  8
CSLAYER1
  6
CONTINUOUS
 62
     6
 10
225.094514
 20
163.722835
 11
225.166346
 21
163.703157
  0
LINE
  8
CSLAYER1
  6
CONTINUOUS
 62
     6
 10
225.166346
 20
163.703157
 11
225.238031
 21
163.683351
  0
LINE
  8
CSLAYER1
  6
CONTINUOUS
 62
     6
 10
225.238031
 20
163.683351
 11
225.309619
 21
163.663461
  0
LINE
  8
CSLAYER1
  6
CONTINUOUS
 62
     6
 10
225.309619
 20
163.663461
 11
225.390238
 21
163.640998
  0
LINE
  8
CSLAYER1
  6
CONTINUOUS
 62
     6
 10
225.390238
 20
163.640998
 11
225.517494
 21
163.813148
  0
LINE
  8
CSLAYER1
  6
CONTINUOUS
 62
     6
 10
225.517494
 20
163.813148
 11
225.612274
 21
163.940311
  0
LINE
  8
CSLAYER1
  6
CONTINUOUS
 62
     6
 10
225.612274
 20
163.940311
 11
225.707925
 21
164.066542
  0
LINE
  8
CSLAYER1
  6
CONTINUOUS
 62
     6
 10
225.707925
 20
164.066542
 11
225.804884
 21
164.191378
  0
LINE
  8
CSLAYER1
  6
CONTINUOUS
 62
     6
 10
225.804884
 20
164.191378
 11
225.903586
 21
164.314353
  0
LINE
  8
CSLAYER1
  6
CONTINUOUS
 62
     6
 10
225.903586
 20
164.314353
 11
226.004467
 21
164.435001
  0
LINE
  8
CSLAYER1
  6
CONTINUOUS
 62
     6
 10
226.004467
 20
164.435001
 11
226.107964
 21
164.552858
  0
LINE
  8
CSLAYER1
  6
CONTINUOUS
 62
     6
 10
226.107964
 20
164.552858
 11
226.214511
 21
164.667458
  0
LINE
  8
CSLAYER1
  6
CONTINUOUS
 62
     6
 10
226.214511
 20
164.667458
 11
226.324545
 21
164.778336
  0
LINE
  8
CSLAYER1
  6
CONTINUOUS
 62
     6
 10
226.324545
 20
164.778336
 11
226.438502
 21
164.885027
  0
LINE
  8
CSLAYER1
  6
CONTINUOUS
 62
     6
 10
226.438502
 20
164.885027
 11
226.556817
 21
164.987065
  0
LINE
  8
CSLAYER1
  6
CONTINUOUS
 62
     6
 10
226.556817
 20
164.987065
 11
226.708242
 21
165.106103
  0
LINE
  8
CSLAYER1
  6
CONTINUOUS
 62
     6
 10
226.708242
 20
165.106103
 11
226.866482
 21
165.220615
  0
LINE
  8
CSLAYER1
  6
CONTINUOUS
 62
     6
 10
226.866482
 20
165.220615
 11
227.029602
 21
165.331555
  0
LINE
  8
CSLAYER1
  6
CONTINUOUS
 62
     6
 10
227.029602
 20
165.331555
 11
227.195671
 21
165.439874
  0
LINE
  8
CSLAYER1
  6
CONTINUOUS
 62
     6
 10
227.195671
 20
165.439874
 11
227.362752
 21
165.546523
  0
LINE
  8
CSLAYER1
  6
CONTINUOUS
 62
     6
 10
227.362752
 20
165.546523
 11
227.528913
 21
165.652456
  0
LINE
  8
CSLAYER1
  6
CONTINUOUS
 62
     6
 10
227.528913
 20
165.652456
 11
227.692220
 21
165.758623
  0
LINE
  8
CSLAYER1
  6
CONTINUOUS
 62
     6
 10
227.692220
 20
165.758623
 11
227.850738
 21
165.865978
  0
LINE
  8
CSLAYER1
  6
CONTINUOUS
 62
     6
 10
227.850738
 20
165.865978
 11
228.002534
 21
165.975472
  0
LINE
  8
CSLAYER1
  6
CONTINUOUS
 62
     6
 10
228.002534
 20
165.975472
 11
228.145673
 21
166.088058
  0
LINE
  8
CSLAYER1
  6
CONTINUOUS
 62
     6
 10
228.145673
 20
166.088058
 11
228.278222
 21
166.204686
  0
LINE
  8
CSLAYER1
  6
CONTINUOUS
 62
     6
 10
228.278222
 20
166.204686
 11
228.381227
 21
166.307701
  0
LINE
  8
CSLAYER1
  6
CONTINUOUS
 62
     6
 10
228.381227
 20
166.307701
 11
228.482891
 21
166.421137
  0
LINE
  8
CSLAYER1
  6
CONTINUOUS
 62
     6
 10
228.482891
 20
166.421137
 11
228.582645
 21
166.543304
  0
LINE
  8
CSLAYER1
  6
CONTINUOUS
 62
     6
 10
228.582645
 20
166.543304
 11
228.679924
 21
166.672513
  0
LINE
  8
CSLAYER1
  6
CONTINUOUS
 62
     6
 10
228.679924
 20
166.672513
 11
228.774158
 21
166.807073
  0
LINE
  8
CSLAYER1
  6
CONTINUOUS
 62
     6
 10
228.774158
 20
166.807073
 11
228.864783
 21
166.945295
  0
LINE
  8
CSLAYER1
  6
CONTINUOUS
 62
     6
 10
228.864783
 20
166.945295
 11
228.951229
 21
167.085488
  0
LINE
  8
CSLAYER1
  6
CONTINUOUS
 62
     6
 10
228.951229
 20
167.085488
 11
229.032930
 21
167.225962
  0
LINE
  8
CSLAYER1
  6
CONTINUOUS
 62
     6
 10
229.032930
 20
167.225962
 11
229.109319
 21
167.365029
  0
LINE
  8
CSLAYER1
  6
CONTINUOUS
 62
     6
 10
229.109319
 20
167.365029
 11
229.179828
 21
167.500997
  0
LINE
  8
CSLAYER1
  6
CONTINUOUS
 62
     6
 10
229.179828
 20
167.500997
 11
229.285088
 21
167.716537
  0
ARC
  8
CSLAYER1
  6
CONTINUOUS
 62
     6
 10
228.358977
 20
167.160459
 40
1.080690
 50
30.945197
 51
90.945197
  0
ARC
  8
CSLAYER1
  6
CONTINUOUS
 62
     6
 10
229.624930
 20
167.991726
 40
1.095863
 50
23.568976
 51
83.568976
  0
LINE
  8
CSLAYER1
  6
CONTINUOUS
 62
     6
 10
233.528153
 20
166.109273
 11
233.657163
 21
166.266672
  0
LINE
  8
CSLAYER1
  6
CONTINUOUS
 62
     6
 10
233.657163
 20
166.266672
 11
233.778344
 21
166.414586
  0
ARC
  8
CSLAYER1
  6
CONTINUOUS
 62
     6
 10
234.824754
 20
166.925487
 40
1.164461
 50
206.024005
 51
266.024005
  0
ARC
  8
CSLAYER1
  6
CONTINUOUS
 62
     6
 10
233.697616
 20
165.252925
 40
1.164461
 50
26.024005
 51
86.024005
  0
LINE
  8
CSLAYER1
  6
CONTINUOUS
 62
     6
 10
233.528153
 20
166.109273
 11
233.393351
 21
165.943961
  0
LINE
  8
CSLAYER1
  6
CONTINUOUS
 62
     6
 10
233.393351
 20
165.943961
 11
233.254794
 21
165.772309
  0
LINE
  8
CSLAYER1
  6
CONTINUOUS
 62
     6
 10
233.254794
 20
165.772309
 11
233.114519
 21
165.595887
  0
LINE
  8
CSLAYER1
  6
CONTINUOUS
 62
     6
 10
233.114519
 20
165.595887
 11
232.974561
 21
165.416269
  0
LINE
  8
CSLAYER1
  6
CONTINUOUS
 62
     6
 10
232.974561
 20
165.416269
 11
232.836958
 21
165.235026
  0
LINE
  8
CSLAYER1
  6
CONTINUOUS
 62
     6
 10
232.836958
 20
165.235026
 11
232.703746
 21
165.053729
  0
LINE
  8
CSLAYER1
  6
CONTINUOUS
 62
     6
 10
232.703746
 20
165.053729
 11
232.576962
 21
164.873952
  0
LINE
  8
CSLAYER1
  6
CONTINUOUS
 62
     6
 10
232.576962
 20
164.873952
 11
232.458643
 21
164.697266
  0
LINE
  8
CSLAYER1
  6
CONTINUOUS
 62
     6
 10
232.458643
 20
164.697266
 11
232.350824
 21
164.525242
  0
LINE
  8
CSLAYER1
  6
CONTINUOUS
 62
     6
 10
232.350824
 20
164.525242
 11
232.253185
 21
164.361481
  0
LINE
  8
CSLAYER1
  6
CONTINUOUS
 62
     6
 10
232.253185
 20
164.361481
 11
232.153556
 21
164.192214
  0
LINE
  8
CSLAYER1
  6
CONTINUOUS
 62
     6
 10
232.153556
 20
164.192214
 11
232.051730
 21
164.018743
  0
LINE
  8
CSLAYER1
  6
CONTINUOUS
 62
     6
 10
232.051730
 20
164.018743
 11
231.947500
 21
163.842370
  0
LINE
  8
CSLAYER1
  6
CONTINUOUS
 62
     6
 10
231.947500
 20
163.842370
 11
231.840660
 21
163.664397
  0
LINE
  8
CSLAYER1
  6
CONTINUOUS
 62
     6
 10
231.840660
 20
163.664397
 11
231.731002
 21
163.486128
  0
LINE
  8
CSLAYER1
  6
CONTINUOUS
 62
     6
 10
231.731002
 20
163.486128
 11
231.618322
 21
163.308863
  0
LINE
  8
CSLAYER1
  6
CONTINUOUS
 62
     6
 10
231.618322
 20
163.308863
 11
231.502411
 21
163.133905
  0
LINE
  8
CSLAYER1
  6
CONTINUOUS
 62
     6
 10
231.502411
 20
163.133905
 11
231.383064
 21
162.962557
  0
LINE
  8
CSLAYER1
  6
CONTINUOUS
 62
     6
 10
231.383064
 20
162.962557
 11
231.260074
 21
162.796121
  0
LINE
  8
CSLAYER1
  6
CONTINUOUS
 62
     6
 10
231.260074
 20
162.796121
 11
231.133233
 21
162.635899
  0
LINE
  8
CSLAYER1
  6
CONTINUOUS
 62
     6
 10
231.133233
 20
162.635899
 11
231.034412
 21
162.519386
  0
LINE
  8
CSLAYER1
  6
CONTINUOUS
 62
     6
 10
231.034412
 20
162.519386
 11
230.932200
 21
162.405627
  0
LINE
  8
CSLAYER1
  6
CONTINUOUS
 62
     6
 10
230.932200
 20
162.405627
 11
230.826936
 21
162.294346
  0
LINE
  8
CSLAYER1
  6
CONTINUOUS
 62
     6
 10
230.826936
 20
162.294346
 11
230.718959
 21
162.185268
  0
LINE
  8
CSLAYER1
  6
CONTINUOUS
 62
     6
 10
230.718959
 20
162.185268
 11
230.608608
 21
162.078117
  0
LINE
  8
CSLAYER1
  6
CONTINUOUS
 62
     6
 10
230.608608
 20
162.078117
 11
230.496222
 21
161.972619
  0
LINE
  8
CSLAYER1
  6
CONTINUOUS
 62
     6
 10
230.496222
 20
161.972619
 11
230.382141
 21
161.868497
  0
LINE
  8
CSLAYER1
  6
CONTINUOUS
 62
     6
 10
230.382141
 20
161.868497
 11
230.266704
 21
161.765477
  0
LINE
  8
CSLAYER1
  6
CONTINUOUS
 62
     6
 10
230.266704
 20
161.765477
 11
230.150249
 21
161.663282
  0
LINE
  8
CSLAYER1
  6
CONTINUOUS
 62
     6
 10
230.150249
 20
161.663282
 11
230.054222
 21
161.579954
  0
LINE
  8
CSLAYER1
  6
CONTINUOUS
 62
     6
 10
230.054222
 20
161.579954
 11
230.123370
 21
161.545426
  0
LINE
  8
CSLAYER1
  6
CONTINUOUS
 62
     6
 10
230.123370
 20
161.545426
 11
230.207846
 21
161.497809
  0
LINE
  8
CSLAYER1
  6
CONTINUOUS
 62
     6
 10
230.207846
 20
161.497809
 11
230.293778
 21
161.444059
  0
LINE
  8
CSLAYER1
  6
CONTINUOUS
 62
     6
 10
230.293778
 20
161.444059
 11
230.379898
 21
161.384835
  0
LINE
  8
CSLAYER1
  6
CONTINUOUS
 62
     6
 10
230.379898
 20
161.384835
 11
230.464933
 21
161.320797
  0
LINE
  8
CSLAYER1
  6
CONTINUOUS
 62
     6
 10
230.464933
 20
161.320797
 11
230.547616
 21
161.252606
  0
LINE
  8
CSLAYER1
  6
CONTINUOUS
 62
     6
 10
230.547616
 20
161.252606
 11
230.626675
 21
161.180923
  0
LINE
  8
CSLAYER1
  6
CONTINUOUS
 62
     6
 10
230.626675
 20
161.180923
 11
230.700841
 21
161.106407
  0
LINE
  8
CSLAYER1
  6
CONTINUOUS
 62
     6
 10
230.700841
 20
161.106407
 11
230.768844
 21
161.029720
  0
LINE
  8
CSLAYER1
  6
CONTINUOUS
 62
     6
 10
230.768844
 20
161.029720
 11
230.829414
 21
160.951521
  0
LINE
  8
CSLAYER1
  6
CONTINUOUS
 62
     6
 10
230.829414
 20
160.951521
 11
230.881280
 21
160.872471
  0
LINE
  8
CSLAYER1
  6
CONTINUOUS
 62
     6
 10
230.881280
 20
160.872471
 11
230.897187
 21
160.844865
  0
LINE
  8
CSLAYER1
  6
CONTINUOUS
 62
     6
 10
230.897187
 20
160.844865
 11
230.912840
 21
160.816171
  0
LINE
  8
CSLAYER1
  6
CONTINUOUS
 62
     6
 10
230.912840
 20
160.816171
 11
230.928282
 21
160.786558
  0
LINE
  8
CSLAYER1
  6
CONTINUOUS
 62
     6
 10
230.928282
 20
160.786558
 11
230.943555
 21
160.756192
  0
LINE
  8
CSLAYER1
  6
CONTINUOUS
 62
     6
 10
230.943555
 20
160.756192
 11
230.958701
 21
160.725240
  0
LINE
  8
CSLAYER1
  6
CONTINUOUS
 62
     6
 10
230.958701
 20
160.725240
 11
230.973761
 21
160.693870
  0
LINE
  8
CSLAYER1
  6
CONTINUOUS
 62
     6
 10
230.973761
 20
160.693870
 11
230.988778
 21
160.662248
  0
LINE
  8
CSLAYER1
  6
CONTINUOUS
 62
     6
 10
230.988778
 20
160.662248
 11
231.003793
 21
160.630543
  0
LINE
  8
CSLAYER1
  6
CONTINUOUS
 62
     6
 10
231.003793
 20
160.630543
 11
231.018849
 21
160.598921
  0
LINE
  8
CSLAYER1
  6
CONTINUOUS
 62
     6
 10
231.018849
 20
160.598921
 11
231.033987
 21
160.567549
  0
LINE
  8
CSLAYER1
  6
CONTINUOUS
 62
     6
 10
231.033987
 20
160.567549
 11
231.049249
 21
160.536595
  0
LINE
  8
CSLAYER1
  6
CONTINUOUS
 62
     6
 10
231.049249
 20
160.536595
 11
231.090070
 21
160.458458
  0
LINE
  8
CSLAYER1
  6
CONTINUOUS
 62
     6
 10
231.090070
 20
160.458458
 11
231.133406
 21
160.381926
  0
LINE
  8
CSLAYER1
  6
CONTINUOUS
 62
     6
 10
231.133406
 20
160.381926
 11
231.179004
 21
160.306837
  0
LINE
  8
CSLAYER1
  6
CONTINUOUS
 62
     6
 10
231.179004
 20
160.306837
 11
231.226614
 21
160.233033
  0
LINE
  8
CSLAYER1
  6
CONTINUOUS
 62
     6
 10
231.226614
 20
160.233033
 11
231.275984
 21
160.160351
  0
LINE
  8
CSLAYER1
  6
CONTINUOUS
 62
     6
 10
231.275984
 20
160.160351
 11
231.326863
 21
160.088633
  0
LINE
  8
CSLAYER1
  6
CONTINUOUS
 62
     6
 10
231.326863
 20
160.088633
 11
231.378999
 21
160.017716
  0
LINE
  8
CSLAYER1
  6
CONTINUOUS
 62
     6
 10
231.378999
 20
160.017716
 11
231.432141
 21
159.947442
  0
LINE
  8
CSLAYER1
  6
CONTINUOUS
 62
     6
 10
231.432141
 20
159.947442
 11
231.486037
 21
159.877649
  0
LINE
  8
CSLAYER1
  6
CONTINUOUS
 62
     6
 10
231.486037
 20
159.877649
 11
231.540436
 21
159.808177
  0
LINE
  8
CSLAYER1
  6
CONTINUOUS
 62
     6
 10
231.540436
 20
159.808177
 11
231.592509
 21
159.742134
  0
LINE
  8
CSLAYER1
  6
CONTINUOUS
 62
     6
 10
231.592509
 20
159.742134
 11
231.719856
 21
159.851435
  0
LINE
  8
CSLAYER1
  6
CONTINUOUS
 62
     6
 10
231.719856
 20
159.851435
 11
231.856571
 21
159.969468
  0
LINE
  8
CSLAYER1
  6
CONTINUOUS
 62
     6
 10
231.856571
 20
159.969468
 11
231.992459
 21
160.088172
  0
LINE
  8
CSLAYER1
  6
CONTINUOUS
 62
     6
 10
231.992459
 20
160.088172
 11
232.127105
 21
160.207883
  0
LINE
  8
CSLAYER1
  6
CONTINUOUS
 62
     6
 10
232.127105
 20
160.207883
 11
232.260096
 21
160.328938
  0
LINE
  8
CSLAYER1
  6
CONTINUOUS
 62
     6
 10
232.260096
 20
160.328938
 11
232.391019
 21
160.451671
  0
LINE
  8
CSLAYER1
  6
CONTINUOUS
 62
     6
 10
232.391019
 20
160.451671
 11
232.519459
 21
160.576419
  0
LINE
  8
CSLAYER1
  6
CONTINUOUS
 62
     6
 10
232.519459
 20
160.576419
 11
232.645002
 21
160.703517
  0
LINE
  8
CSLAYER1
  6
CONTINUOUS
 62
     6
 10
232.645002
 20
160.703517
 11
232.767235
 21
160.833300
  0
LINE
  8
CSLAYER1
  6
CONTINUOUS
 62
     6
 10
232.767235
 20
160.833300
 11
232.885745
 21
160.966106
  0
LINE
  8
CSLAYER1
  6
CONTINUOUS
 62
     6
 10
232.885745
 20
160.966106
 11
233.000116
 21
161.102269
  0
LINE
  8
CSLAYER1
  6
CONTINUOUS
 62
     6
 10
233.000116
 20
161.102269
 11
233.136612
 21
161.276495
  0
LINE
  8
CSLAYER1
  6
CONTINUOUS
 62
     6
 10
233.136612
 20
161.276495
 11
233.268955
 21
161.457171
  0
LINE
  8
CSLAYER1
  6
CONTINUOUS
 62
     6
 10
233.268955
 20
161.457171
 11
233.397427
 21
161.642941
  0
LINE
  8
CSLAYER1
  6
CONTINUOUS
 62
     6
 10
233.397427
 20
161.642941
 11
233.522308
 21
161.832449
  0
LINE
  8
CSLAYER1
  6
CONTINUOUS
 62
     6
 10
233.522308
 20
161.832449
 11
233.643880
 21
162.024337
  0
LINE
  8
CSLAYER1
  6
CONTINUOUS
 62
     6
 10
233.643880
 20
162.024337
 11
233.762425
 21
162.217250
  0
LINE
  8
CSLAYER1
  6
CONTINUOUS
 62
     6
 10
233.762425
 20
162.217250
 11
233.878223
 21
162.409830
  0
LINE
  8
CSLAYER1
  6
CONTINUOUS
 62
     6
 10
233.878223
 20
162.409830
 11
233.991555
 21
162.600721
  0
LINE
  8
CSLAYER1
  6
CONTINUOUS
 62
     6
 10
233.991555
 20
162.600721
 11
234.102704
 21
162.788566
  0
LINE
  8
CSLAYER1
  6
CONTINUOUS
 62
     6
 10
234.102704
 20
162.788566
 11
234.211950
 21
162.972009
  0
LINE
  8
CSLAYER1
  6
CONTINUOUS
 62
     6
 10
234.211950
 20
162.972009
 11
234.319574
 21
163.149693
  0
LINE
  8
CSLAYER1
  6
CONTINUOUS
 62
     6
 10
234.319574
 20
163.149693
 11
234.424900
 21
163.315380
  0
LINE
  8
CSLAYER1
  6
CONTINUOUS
 62
     6
 10
234.424900
 20
163.315380
 11
234.539629
 21
163.485269
  0
LINE
  8
CSLAYER1
  6
CONTINUOUS
 62
     6
 10
234.539629
 20
163.485269
 11
234.661929
 21
163.657932
  0
LINE
  8
CSLAYER1
  6
CONTINUOUS
 62
     6
 10
234.661929
 20
163.657932
 11
234.789971
 21
163.831942
  0
LINE
  8
CSLAYER1
  6
CONTINUOUS
 62
     6
 10
234.789971
 20
163.831942
 11
234.921923
 21
164.005872
  0
LINE
  8
CSLAYER1
  6
CONTINUOUS
 62
     6
 10
234.921923
 20
164.005872
 11
235.055955
 21
164.178293
  0
LINE
  8
CSLAYER1
  6
CONTINUOUS
 62
     6
 10
235.055955
 20
164.178293
 11
235.190236
 21
164.347778
  0
LINE
  8
CSLAYER1
  6
CONTINUOUS
 62
     6
 10
235.190236
 20
164.347778
 11
235.322935
 21
164.512900
  0
LINE
  8
CSLAYER1
  6
CONTINUOUS
 62
     6
 10
235.322935
 20
164.512900
 11
235.452221
 21
164.672230
  0
LINE
  8
CSLAYER1
  6
CONTINUOUS
 62
     6
 10
235.452221
 20
164.672230
 11
235.576263
 21
164.824342
  0
LINE
  8
CSLAYER1
  6
CONTINUOUS
 62
     6
 10
235.576263
 20
164.824342
 11
235.745520
 21
165.031943
  0
ARC
  8
CSLAYER1
  6
CONTINUOUS
 62
     6
 10
234.663270
 20
164.602171
 40
1.164461
 50
21.658505
 51
86.024005
  0
ARC
  8
CSLAYER1
  6
CONTINUOUS
 62
     6
 10
235.587785
 20
166.008531
 40
1.200008
 50
30.461486
 51
90.461486
  0
LINE
  8
CSLAYER1
  6
CONTINUOUS
 62
     6
 10
230.819271
 20
160.964616
 11
228.376275
 21
158.569981
  0
LINE
  8
CSLAYER1
  6
CONTINUOUS
 62
     6
 10
227.761926
 20
158.782628
 11
230.507773
 21
161.285466
  0
LINE
  8
CSLAYER1
  6
CONTINUOUS
 62
     6
 10
231.099741
 20
160.441379
 11
228.848810
 21
158.002873
  0
LINE
  8
CSLAYER1
  6
CONTINUOUS
 62
     6
 10
222.421930
 20
160.861912
 11
224.648052
 21
163.838150
  0
LINE
  8
CSLAYER1
  6
CONTINUOUS
 62
     6
 10
224.082219
 20
163.984742
 11
221.736688
 21
161.310856
  0
LINE
  8
CSLAYER1
  6
CONTINUOUS
 62
     6
 10
221.193231
 20
161.830662
 11
223.665001
 21
164.232470
  0
LINE
  8
CSLAYER1
  6
CONTINUOUS
 62
     6
 10
208.482896
 20
158.742722
 11
206.553753
 21
157.739988
  0
ARC
  8
CSLAYER1
  6
CONTINUOUS
 62
     6
 10
220.372671
 20
164.922609
 40
15.574134
 50
201.503298
 51
207.463892
  0
ARC
  8
CSLAYER1
  6
CONTINUOUS
 62
     6
 10
191.398652
 20
164.938252
 40
15.574134
 50
332.536225
 51
359.942687
  0
ARC
  8
CSLAYER1
  6
CONTINUOUS
 62
     6
 10
220.372671
 20
164.922609
 40
13.399933
 50
179.999963
 51
207.463892
  0
LINE
  8
CSLAYER1
  6
CONTINUOUS
 62
     6
 10
207.832999
 20
158.404931
 11
209.431211
 21
155.501308
  0
LINE
  8
CSLAYER1
  6
CONTINUOUS
 62
     6
 10
208.908118
 20
156.169897
 11
207.349810
 21
158.153775
  0
LINE
  8
CSLAYER1
  6
CONTINUOUS
 62
     6
 10
206.956338
 20
157.949301
 11
208.341410
 21
155.893818
  0
LINE
  8
CSLAYER1
  6
CONTINUOUS
 62
     6
 10
205.217569
 20
157.755664
 11
203.288427
 21
158.758399
  0
ARC
  8
CSLAYER1
  6
CONTINUOUS
 62
     6
 10
191.398652
 20
164.938252
 40
13.399933
 50
332.536225
 51
359.942687
  0
LINE
  8
CSLAYER1
  6
CONTINUOUS
 62
     6
 10
204.798578
 20
164.938252
 11
204.798578
 21
166.196568
  0
ARC
  8
CSLAYER1
  6
CONTINUOUS
 62
     6
 10
205.342113
 20
165.255102
 40
1.087108
 50
60.000362
 51
120.000362
  0
ARC
  8
CSLAYER1
  6
CONTINUOUS
 62
     6
 10
206.429221
 20
165.255108
 40
1.087108
 50
60.000362
 51
120.000362
  0
LINE
  8
CSLAYER1
  6
CONTINUOUS
 62
     6
 10
206.972811
 20
166.196568
 11
206.972811
 21
164.938252
  0
ARC
  8
CSLAYER1
  6
CONTINUOUS
 62
     6
 10
205.342101
 20
167.138027
 40
1.087108
 50
240.000362
 51
300.000362
  0
ARC
  8
CSLAYER1
  6
CONTINUOUS
 62
     6
 10
205.342138
 20
168.757808
 40
1.087115
 50
239.999981
 51
299.999981
  0
ARC
  8
CSLAYER1
  6
CONTINUOUS
 62
     6
 10
206.429253
 20
168.757808
 40
1.087115
 50
239.999981
 51
299.999981
  0
ARC
  8
CSLAYER1
  6
CONTINUOUS
 62
     6
 10
206.429252
 20
166.874869
 40
1.087115
 50
59.999981
 51
119.999981
  0
LINE
  8
CSLAYER1
  6
CONTINUOUS
 62
     6
 10
206.972811
 20
167.816356
 11
206.972811
 21
175.159123
  0
LINE
  8
CSLAYER1
  6
CONTINUOUS
 62
     6
 10
204.798578
 20
175.159123
 11
204.798578
 21
167.816356
  0
LINE
  8
CSLAYER1
  6
CONTINUOUS
 62
     6
 10
202.175661
 20
175.159123
 11
202.175661
 21
176.159123
  0
LINE
  8
CSLAYER1
  6
CONTINUOUS
 62
     6
 10
202.175661
 20
175.159123
 11
209.595661
 21
175.159123
  0
LINE
  8
CSLAYER1
  6
CONTINUOUS
 62
     6
 10
209.595661
 20
175.159123
 11
209.595661
 21
176.159123
  0
LINE
  8
CSLAYER1
  6
CONTINUOUS
 62
     6
 10
203.938324
 20
158.420608
 11
202.340113
 21
155.516935
  0
LINE
  8
CSLAYER1
  6
CONTINUOUS
 62
     6
 10
202.863206
 20
156.185542
 11
204.421512
 21
158.169418
  0
LINE
  8
CSLAYER1
  6
CONTINUOUS
 62
     6
 10
204.814984
 20
157.964894
 11
203.429914
 21
155.909495
  0
LINE
  8
CSLAYER1
  6
CONTINUOUS
 62
     6
 10
226.885661
 20
131.159123
 11
166.885661
 21
131.159123
  0
LINE
  8
CSLAYER1
  6
CONTINUOUS
 62
     6
 10
166.885661
 20
131.159123
 11
166.885661
 21
41.159123
  0
LINE
  8
CSLAYER1
  6
CONTINUOUS
 62
     6
 10
166.885661
 20
41.159123
 11
226.885661
 21
41.159123
  0
LINE
  8
CSLAYER1
  6
CONTINUOUS
 62
     6
 10
226.885661
 20
41.159123
 11
226.885661
 21
83.099655
  0
ARC
  8
CSLAYER1
  6
CONTINUOUS
 62
     6
 10
227.903933
 20
84.142101
 40
1.500006
 50
183.178280
 51
243.178280
  0
LINE
  8
CSLAYER1
  6
CONTINUOUS
 62
     6
 10
226.406200
 20
84.058991
 11
226.551626
 21
84.161930
  0
LINE
  8
CSLAYER1
  6
CONTINUOUS
 62
     6
 10
226.551626
 20
84.161930
 11
226.697221
 21
84.264587
  0
LINE
  8
CSLAYER1
  6
CONTINUOUS
 62
     6
 10
226.697221
 20
84.264587
 11
226.843154
 21
84.366678
  0
LINE
  8
CSLAYER1
  6
CONTINUOUS
 62
     6
 10
226.843154
 20
84.366678
 11
226.989594
 21
84.467921
  0
LINE
  8
CSLAYER1
  6
CONTINUOUS
 62
     6
 10
226.989594
 20
84.467921
 11
227.136709
 21
84.568034
  0
LINE
  8
CSLAYER1
  6
CONTINUOUS
 62
     6
 10
227.136709
 20
84.568034
 11
227.284669
 21
84.666734
  0
LINE
  8
CSLAYER1
  6
CONTINUOUS
 62
     6
 10
227.284669
 20
84.666734
 11
227.433642
 21
84.763737
  0
LINE
  8
CSLAYER1
  6
CONTINUOUS
 62
     6
 10
227.433642
 20
84.763737
 11
227.583798
 21
84.858763
  0
LINE
  8
CSLAYER1
  6
CONTINUOUS
 62
     6
 10
227.583798
 20
84.858763
 11
227.735304
 21
84.951527
  0
LINE
  8
CSLAYER1
  6
CONTINUOUS
 62
     6
 10
227.735304
 20
84.951527
 11
227.888331
 21
85.041748
  0
LINE
  8
CSLAYER1
  6
CONTINUOUS
 62
     6
 10
227.888331
 20
85.041748
 11
228.043047
 21
85.129143
  0
LINE
  8
CSLAYER1
  6
CONTINUOUS
 62
     6
 10
228.043047
 20
85.129143
 11
228.259538
 21
85.244974
  0
LINE
  8
CSLAYER1
  6
CONTINUOUS
 62
     6
 10
228.259538
 20
85.244974
 11
228.481533
 21
85.356514
  0
LINE
  8
CSLAYER1
  6
CONTINUOUS
 62
     6
 10
228.481533
 20
85.356514
 11
228.707992
 21
85.463157
  0
LINE
  8
CSLAYER1
  6
CONTINUOUS
 62
     6
 10
228.707992
 20
85.463157
 11
228.937872
 21
85.564294
  0
LINE
  8
CSLAYER1
  6
CONTINUOUS
 62
     6
 10
228.937872
 20
85.564294
 11
229.170132
 21
85.659319
  0
LINE
  8
CSLAYER1
  6
CONTINUOUS
 62
     6
 10
229.170132
 20
85.659319
 11
229.403731
 21
85.747624
  0
LINE
  8
CSLAYER1
  6
CONTINUOUS
 62
     6
 10
229.403731
 20
85.747624
 11
229.637627
 21
85.828603
  0
LINE
  8
CSLAYER1
  6
CONTINUOUS
 62
     6
 10
229.637627
 20
85.828603
 11
229.870779
 21
85.901648
  0
LINE
  8
CSLAYER1
  6
CONTINUOUS
 62
     6
 10
229.870779
 20
85.901648
 11
230.102146
 21
85.966152
  0
LINE
  8
CSLAYER1
  6
CONTINUOUS
 62
     6
 10
230.102146
 20
85.966152
 11
230.330685
 21
86.021509
  0
LINE
  8
CSLAYER1
  6
CONTINUOUS
 62
     6
 10
230.330685
 20
86.021509
 11
230.555356
 21
86.067111
  0
LINE
  8
CSLAYER1
  6
CONTINUOUS
 62
     6
 10
230.555356
 20
86.067111
 11
230.799599
 21
86.110116
  0
LINE
  8
CSLAYER1
  6
CONTINUOUS
 62
     6
 10
230.799599
 20
86.110116
 11
231.052644
 21
86.151351
  0
LINE
  8
CSLAYER1
  6
CONTINUOUS
 62
     6
 10
231.052644
 20
86.151351
 11
231.312704
 21
86.189927
  0
LINE
  8
CSLAYER1
  6
CONTINUOUS
 62
     6
 10
231.312704
 20
86.189927
 11
231.577993
 21
86.224952
  0
LINE
  8
CSLAYER1
  6
CONTINUOUS
 62
     6
 10
231.577993
 20
86.224952
 11
231.846721
 21
86.255536
  0
LINE
  8
CSLAYER1
  6
CONTINUOUS
 62
     6
 10
231.846721
 20
86.255536
 11
232.117101
 21
86.280789
  0
LINE
  8
CSLAYER1
  6
CONTINUOUS
 62
     6
 10
232.117101
 20
86.280789
 11
232.387346
 21
86.299820
  0
LINE
  8
CSLAYER1
  6
CONTINUOUS
 62
     6
 10
232.387346
 20
86.299820
 11
232.655668
 21
86.311739
  0
LINE
  8
CSLAYER1
  6
CONTINUOUS
 62
     6
 10
232.655668
 20
86.311739
 11
232.920280
 21
86.315656
  0
LINE
  8
CSLAYER1
  6
CONTINUOUS
 62
     6
 10
232.920280
 20
86.315656
 11
233.179393
 21
86.310679
  0
LINE
  8
CSLAYER1
  6
CONTINUOUS
 62
     6
 10
233.179393
 20
86.310679
 11
233.431221
 21
86.295919
  0
LINE
  8
CSLAYER1
  6
CONTINUOUS
 62
     6
 10
233.431221
 20
86.295919
 11
233.620366
 21
86.280647
  0
LINE
  8
CSLAYER1
  6
CONTINUOUS
 62
     6
 10
233.620366
 20
86.280647
 11
233.814106
 21
86.264821
  0
LINE
  8
CSLAYER1
  6
CONTINUOUS
 62
     6
 10
233.814106
 20
86.264821
 11
234.011408
 21
86.248354
  0
LINE
  8
CSLAYER1
  6
CONTINUOUS
 62
     6
 10
234.011408
 20
86.248354
 11
234.211237
 21
86.231153
  0
LINE
  8
CSLAYER1
  6
CONTINUOUS
 62
     6
 10
234.211237
 20
86.231153
 11
234.412558
 21
86.213129
  0
LINE
  8
CSLAYER1
  6
CONTINUOUS
 62
     6
 10
234.412558
 20
86.213129
 11
234.614336
 21
86.194192
  0
LINE
  8
CSLAYER1
  6
CONTINUOUS
 62
     6
 10
234.614336
 20
86.194192
 11
234.815538
 21
86.174252
  0
LINE
  8
CSLAYER1
  6
CONTINUOUS
 62
     6
 10
234.815538
 20
86.174252
 11
235.015128
 21
86.153219
  0
LINE
  8
CSLAYER1
  6
CONTINUOUS
 62
     6
 10
235.015128
 20
86.153219
 11
235.212072
 21
86.131002
  0
LINE
  8
CSLAYER1
  6
CONTINUOUS
 62
     6
 10
235.212072
 20
86.131002
 11
235.405336
 21
86.107511
  0
LINE
  8
CSLAYER1
  6
CONTINUOUS
 62
     6
 10
235.405336
 20
86.107511
 11
235.593885
 21
86.082657
  0
LINE
  8
CSLAYER1
  6
CONTINUOUS
 62
     6
 10
235.593885
 20
86.082657
 11
235.742505
 21
86.063006
  0
LINE
  8
CSLAYER1
  6
CONTINUOUS
 62
     6
 10
235.742505
 20
86.063006
 11
235.895223
 21
86.044390
  0
LINE
  8
CSLAYER1
  6
CONTINUOUS
 62
     6
 10
235.895223
 20
86.044390
 11
236.051097
 21
86.026953
  0
LINE
  8
CSLAYER1
  6
CONTINUOUS
 62
     6
 10
236.051097
 20
86.026953
 11
236.209185
 21
86.010841
  0
LINE
  8
CSLAYER1
  6
CONTINUOUS
 62
     6
 10
236.209185
 20
86.010841
 11
236.368547
 21
85.996199
  0
LINE
  8
CSLAYER1
  6
CONTINUOUS
 62
     6
 10
236.368547
 20
85.996199
 11
236.528242
 21
85.983171
  0
LINE
  8
CSLAYER1
  6
CONTINUOUS
 62
     6
 10
236.528242
 20
85.983171
 11
236.687328
 21
85.971903
  0
LINE
  8
CSLAYER1
  6
CONTINUOUS
 62
     6
 10
236.687328
 20
85.971903
 11
236.844864
 21
85.962540
  0
LINE
  8
CSLAYER1
  6
CONTINUOUS
 62
     6
 10
236.844864
 20
85.962540
 11
236.999910
 21
85.955227
  0
LINE
  8
CSLAYER1
  6
CONTINUOUS
 62
     6
 10
236.999910
 20
85.955227
 11
237.151523
 21
85.950109
  0
LINE
  8
CSLAYER1
  6
CONTINUOUS
 62
     6
 10
237.151523
 20
85.950109
 11
237.298764
 21
85.947331
  0
LINE
  8
CSLAYER1
  6
CONTINUOUS
 62
     6
 10
237.298764
 20
85.947331
 11
237.442738
 21
85.946738
  0
LINE
  8
CSLAYER1
  6
CONTINUOUS
 62
     6
 10
237.442738
 20
85.946738
 11
237.592723
 21
85.947934
  0
LINE
  8
CSLAYER1
  6
CONTINUOUS
 62
     6
 10
237.592723
 20
85.947934
 11
237.747165
 21
85.950840
  0
LINE
  8
CSLAYER1
  6
CONTINUOUS
 62
     6
 10
237.747165
 20
85.950840
 11
237.904506
 21
85.955376
  0
LINE
  8
CSLAYER1
  6
CONTINUOUS
 62
     6
 10
237.904506
 20
85.955376
 11
238.063192
 21
85.961463
  0
LINE
  8
CSLAYER1
  6
CONTINUOUS
 62
     6
 10
238.063192
 20
85.961463
 11
238.221667
 21
85.969021
  0
LINE
  8
CSLAYER1
  6
CONTINUOUS
 62
     6
 10
238.221667
 20
85.969021
 11
238.378376
 21
85.977970
  0
LINE
  8
CSLAYER1
  6
CONTINUOUS
 62
     6
 10
238.378376
 20
85.977970
 11
238.531763
 21
85.988230
  0
LINE
  8
CSLAYER1
  6
CONTINUOUS
 62
     6
 10
238.531763
 20
85.988230
 11
238.680273
 21
85.999724
  0
LINE
  8
CSLAYER1
  6
CONTINUOUS
 62
     6
 10
238.680273
 20
85.999724
 11
238.822350
 21
86.012369
  0
LINE
  8
CSLAYER1
  6
CONTINUOUS
 62
     6
 10
238.822350
 20
86.012369
 11
238.956439
 21
86.026088
  0
ARC
  8
CSLAYER1
  6
CONTINUOUS
 62
     6
 10
239.063157
 20
84.528665
 40
1.500000
 50
-88.640300
 51
91.359720
  0
LINE
  8
CSLAYER1
  6
CONTINUOUS
 62
     6
 10
239.098778
 20
83.029473
 11
238.949098
 21
83.014235
  0
LINE
  8
CSLAYER1
  6
CONTINUOUS
 62
     6
 10
238.949098
 20
83.014235
 11
238.790377
 21
83.000201
  0
LINE
  8
CSLAYER1
  6
CONTINUOUS
 62
     6
 10
238.790377
 20
83.000201
 11
238.624409
 21
82.987453
  0
LINE
  8
CSLAYER1
  6
CONTINUOUS
 62
     6
 10
238.624409
 20
82.987453
 11
238.452986
 21
82.976075
  0
LINE
  8
CSLAYER1
  6
CONTINUOUS
 62
     6
 10
238.452986
 20
82.976075
 11
238.277903
 21
82.966149
  0
LINE
  8
CSLAYER1
  6
CONTINUOUS
 62
     6
 10
238.277903
 20
82.966149
 11
238.100952
 21
82.957759
  0
LINE
  8
CSLAYER1
  6
CONTINUOUS
 62
     6
 10
238.100952
 20
82.957759
 11
237.923927
 21
82.950987
  0
LINE
  8
CSLAYER1
  6
CONTINUOUS
 62
     6
 10
237.923927
 20
82.950987
 11
237.748622
 21
82.945917
  0
LINE
  8
CSLAYER1
  6
CONTINUOUS
 62
     6
 10
237.748622
 20
82.945917
 11
237.576830
 21
82.942632
  0
LINE
  8
CSLAYER1
  6
CONTINUOUS
 62
     6
 10
237.576830
 20
82.942632
 11
237.410343
 21
82.941215
  0
LINE
  8
CSLAYER1
  6
CONTINUOUS
 62
     6
 10
237.410343
 20
82.941215
 11
237.250956
 21
82.941748
  0
LINE
  8
CSLAYER1
  6
CONTINUOUS
 62
     6
 10
237.250956
 20
82.941748
 11
237.085810
 21
82.944683
  0
LINE
  8
CSLAYER1
  6
CONTINUOUS
 62
     6
 10
237.085810
 20
82.944683
 11
236.915004
 21
82.950198
  0
LINE
  8
CSLAYER1
  6
CONTINUOUS
 62
     6
 10
236.915004
 20
82.950198
 11
236.739780
 21
82.958161
  0
LINE
  8
CSLAYER1
  6
CONTINUOUS
 62
     6
 10
236.739780
 20
82.958161
 11
236.561376
 21
82.968443
  0
LINE
  8
CSLAYER1
  6
CONTINUOUS
 62
     6
 10
236.561376
 20
82.968443
 11
236.381033
 21
82.980913
  0
LINE
  8
CSLAYER1
  6
CONTINUOUS
 62
     6
 10
236.381033
 20
82.980913
 11
236.199990
 21
82.995441
  0
LINE
  8
CSLAYER1
  6
CONTINUOUS
 62
     6
 10
236.199990
 20
82.995441
 11
236.019489
 21
83.011896
  0
LINE
  8
CSLAYER1
  6
CONTINUOUS
 62
     6
 10
236.019489
 20
83.011896
 11
235.840767
 21
83.030149
  0
LINE
  8
CSLAYER1
  6
CONTINUOUS
 62
     6
 10
235.840767
 20
83.030149
 11
235.665067
 21
83.050068
  0
LINE
  8
CSLAYER1
  6
CONTINUOUS
 62
     6
 10
235.665067
 20
83.050068
 11
235.493627
 21
83.071524
  0
LINE
  8
CSLAYER1
  6
CONTINUOUS
 62
     6
 10
235.493627
 20
83.071524
 11
235.327688
 21
83.094387
  0
LINE
  8
CSLAYER1
  6
CONTINUOUS
 62
     6
 10
235.327688
 20
83.094387
 11
235.161604
 21
83.117193
  0
LINE
  8
CSLAYER1
  6
CONTINUOUS
 62
     6
 10
235.161604
 20
83.117193
 11
234.990474
 21
83.138528
  0
LINE
  8
CSLAYER1
  6
CONTINUOUS
 62
     6
 10
234.990474
 20
83.138528
 11
234.815385
 21
83.158511
  0
LINE
  8
CSLAYER1
  6
CONTINUOUS
 62
     6
 10
234.815385
 20
83.158511
 11
234.637425
 21
83.177263
  0
LINE
  8
CSLAYER1
  6
CONTINUOUS
 62
     6
 10
234.637425
 20
83.177263
 11
234.457683
 21
83.194902
  0
LINE
  8
CSLAYER1
  6
CONTINUOUS
 62
     6
 10
234.457683
 20
83.194902
 11
234.277245
 21
83.211551
  0
LINE
  8
CSLAYER1
  6
CONTINUOUS
 62
     6
 10
234.277245
 20
83.211551
 11
234.097199
 21
83.227328
  0
LINE
  8
CSLAYER1
  6
CONTINUOUS
 62
     6
 10
234.097199
 20
83.227328
 11
233.918634
 21
83.242353
  0
LINE
  8
CSLAYER1
  6
CONTINUOUS
 62
     6
 10
233.918634
 20
83.242353
 11
233.742637
 21
83.256748
  0
LINE
  8
CSLAYER1
  6
CONTINUOUS
 62
     6
 10
233.742637
 20
83.256748
 11
233.570296
 21
83.270631
  0
LINE
  8
CSLAYER1
  6
CONTINUOUS
 62
     6
 10
233.570296
 20
83.270631
 11
233.402698
 21
83.284124
  0
LINE
  8
CSLAYER1
  6
CONTINUOUS
 62
     6
 10
233.402698
 20
83.284124
 11
233.211907
 21
83.295394
  0
LINE
  8
CSLAYER1
  6
CONTINUOUS
 62
     6
 10
233.211907
 20
83.295394
 11
233.015167
 21
83.299318
  0
LINE
  8
CSLAYER1
  6
CONTINUOUS
 62
     6
 10
233.015167
 20
83.299318
 11
232.813900
 21
83.296539
  0
LINE
  8
CSLAYER1
  6
CONTINUOUS
 62
     6
 10
232.813900
 20
83.296539
 11
232.609530
 21
83.287696
  0
LINE
  8
CSLAYER1
  6
CONTINUOUS
 62
     6
 10
232.609530
 20
83.287696
 11
232.403479
 21
83.273431
  0
LINE
  8
CSLAYER1
  6
CONTINUOUS
 62
     6
 10
232.403479
 20
83.273431
 11
232.197170
 21
83.254383
  0
LINE
  8
CSLAYER1
  6
CONTINUOUS
 62
     6
 10
232.197170
 20
83.254383
 11
231.992026
 21
83.231195
  0
LINE
  8
CSLAYER1
  6
CONTINUOUS
 62
     6
 10
231.992026
 20
83.231195
 11
231.789470
 21
83.204506
  0
LINE
  8
CSLAYER1
  6
CONTINUOUS
 62
     6
 10
231.789470
 20
83.204506
 11
231.590926
 21
83.174957
  0
LINE
  8
CSLAYER1
  6
CONTINUOUS
 62
     6
 10
231.590926
 20
83.174957
 11
231.397814
 21
83.143190
  0
LINE
  8
CSLAYER1
  6
CONTINUOUS
 62
     6
 10
231.397814
 20
83.143190
 11
231.211560
 21
83.109844
  0
LINE
  8
CSLAYER1
  6
CONTINUOUS
 62
     6
 10
231.211560
 20
83.109844
 11
231.050029
 21
83.076469
  0
LINE
  8
CSLAYER1
  6
CONTINUOUS
 62
     6
 10
231.050029
 20
83.076469
 11
230.885809
 21
83.036150
  0
LINE
  8
CSLAYER1
  6
CONTINUOUS
 62
     6
 10
230.885809
 20
83.036150
 11
230.719619
 21
82.989342
  0
LINE
  8
CSLAYER1
  6
CONTINUOUS
 62
     6
 10
230.719619
 20
82.989342
 11
230.552177
 21
82.936495
  0
LINE
  8
CSLAYER1
  6
CONTINUOUS
 62
     6
 10
230.552177
 20
82.936495
 11
230.384201
 21
82.878062
  0
LINE
  8
CSLAYER1
  6
CONTINUOUS
 62
     6
 10
230.384201
 20
82.878062
 11
230.216409
 21
82.814495
  0
LINE
  8
CSLAYER1
  6
CONTINUOUS
 62
     6
 10
230.216409
 20
82.814495
 11
230.049519
 21
82.746246
  0
LINE
  8
CSLAYER1
  6
CONTINUOUS
 62
     6
 10
230.049519
 20
82.746246
 11
229.884250
 21
82.673767
  0
LINE
  8
CSLAYER1
  6
CONTINUOUS
 62
     6
 10
229.884250
 20
82.673767
 11
229.721321
 21
82.597510
  0
LINE
  8
CSLAYER1
  6
CONTINUOUS
 62
     6
 10
229.721321
 20
82.597510
 11
229.561448
 21
82.517929
  0
LINE
  8
CSLAYER1
  6
CONTINUOUS
 62
     6
 10
229.561448
 20
82.517929
 11
229.405351
 21
82.435474
  0
LINE
  8
CSLAYER1
  6
CONTINUOUS
 62
     6
 10
229.405351
 20
82.435474
 11
229.276646
 21
82.363681
  0
LINE
  8
CSLAYER1
  6
CONTINUOUS
 62
     6
 10
229.276646
 20
82.363681
 11
229.149457
 21
82.289351
  0
LINE
  8
CSLAYER1
  6
CONTINUOUS
 62
     6
 10
229.149457
 20
82.289351
 11
229.023631
 21
82.212737
  0
LINE
  8
CSLAYER1
  6
CONTINUOUS
 62
     6
 10
229.023631
 20
82.212737
 11
228.899018
 21
82.134094
  0
LINE
  8
CSLAYER1
  6
CONTINUOUS
 62
     6
 10
228.899018
 20
82.134094
 11
228.775466
 21
82.053674
  0
LINE
  8
CSLAYER1
  6
CONTINUOUS
 62
     6
 10
228.775466
 20
82.053674
 11
228.652823
 21
81.971731
  0
LINE
  8
CSLAYER1
  6
CONTINUOUS
 62
     6
 10
228.652823
 20
81.971731
 11
228.530937
 21
81.888520
  0
LINE
  8
CSLAYER1
  6
CONTINUOUS
 62
     6
 10
228.530937
 20
81.888520
 11
228.409658
 21
81.804294
  0
LINE
  8
CSLAYER1
  6
CONTINUOUS
 62
     6
 10
228.409658
 20
81.804294
 11
228.288833
 21
81.719307
  0
LINE
  8
CSLAYER1
  6
CONTINUOUS
 62
     6
 10
228.288833
 20
81.719307
 11
228.168312
 21
81.633812
  0
LINE
  8
CSLAYER1
  6
CONTINUOUS
 62
     6
 10
228.168312
 20
81.633812
 11
228.047942
 21
81.548063
  0
ARC
  8
CSLAYER1
  6
CONTINUOUS
 62
     6
 10
226.550280
 20
81.464847
 40
1.500006
 50
3.178280
 51
63.178280
  0
ARC
  8
CSLAYER1
  6
CONTINUOUS
 62
     6
 10
228.724805
 20
82.886639
 40
1.500006
 50
183.178280
 51
243.178280
  0
LINE
  8
CSLAYER1
  6
CONTINUOUS
 62
     6
 10
226.885661
 20
82.159123
 11
224.820170
 21
82.159123
  0
ARC
  8
CSLAYER1
  6
CONTINUOUS
 62
     6
 10
224.018501
 20
80.891319
 40
1.500000
 50
18.366208
 51
78.366208
  0
ARC
  8
CSLAYER1
  6
CONTINUOUS
 62
     6
 10
225.744577
 20
82.833138
 40
1.500000
 50
198.366208
 51
258.366208
  0
LINE
  8
CSLAYER1
  6
CONTINUOUS
 62
     6
 10
224.320976
 20
82.360558
 11
224.218775
 21
82.271319
  0
LINE
  8
CSLAYER1
  6
CONTINUOUS
 62
     6
 10
224.218775
 20
82.271319
 11
224.114600
 21
82.174226
  0
LINE
  8
CSLAYER1
  6
CONTINUOUS
 62
     6
 10
224.114600
 20
82.174226
 11
224.009376
 21
82.070480
  0
LINE
  8
CSLAYER1
  6
CONTINUOUS
 62
     6
 10
224.009376
 20
82.070480
 11
223.904026
 21
81.961283
  0
LINE
  8
CSLAYER1
  6
CONTINUOUS
 62
     6
 10
223.904026
 20
81.961283
 11
223.799474
 21
81.847836
  0
LINE
  8
CSLAYER1
  6
CONTINUOUS
 62
     6
 10
223.799474
 20
81.847836
 11
223.696645
 21
81.731338
  0
LINE
  8
CSLAYER1
  6
CONTINUOUS
 62
     6
 10
223.696645
 20
81.731338
 11
223.596462
 21
81.612993
  0
LINE
  8
CSLAYER1
  6
CONTINUOUS
 62
     6
 10
223.596462
 20
81.612993
 11
223.499850
 21
81.494000
  0
LINE
  8
CSLAYER1
  6
CONTINUOUS
 62
     6
 10
223.499850
 20
81.494000
 11
223.407732
 21
81.375560
  0
LINE
  8
CSLAYER1
  6
CONTINUOUS
 62
     6
 10
223.407732
 20
81.375560
 11
223.321032
 21
81.258875
  0
LINE
  8
CSLAYER1
  6
CONTINUOUS
 62
     6
 10
223.321032
 20
81.258875
 11
223.240675
 21
81.145146
  0
LINE
  8
CSLAYER1
  6
CONTINUOUS
 62
     6
 10
223.240675
 20
81.145146
 11
223.159358
 21
81.019660
  0
LINE
  8
CSLAYER1
  6
CONTINUOUS
 62
     6
 10
223.159358
 20
81.019660
 11
223.082329
 21
80.886961
  0
LINE
  8
CSLAYER1
  6
CONTINUOUS
 62
     6
 10
223.082329
 20
80.886961
 11
223.009308
 21
80.747996
  0
LINE
  8
CSLAYER1
  6
CONTINUOUS
 62
     6
 10
223.009308
 20
80.747996
 11
222.940017
 21
80.603713
  0
LINE
  8
CSLAYER1
  6
CONTINUOUS
 62
     6
 10
222.940017
 20
80.603713
 11
222.874177
 21
80.455058
  0
LINE
  8
CSLAYER1
  6
CONTINUOUS
 62
     6
 10
222.874177
 20
80.455058
 11
222.811508
 21
80.302980
  0
LINE
  8
CSLAYER1
  6
CONTINUOUS
 62
     6
 10
222.811508
 20
80.302980
 11
222.751732
 21
80.148425
  0
LINE
  8
CSLAYER1
  6
CONTINUOUS
 62
     6
 10
222.751732
 20
80.148425
 11
222.694570
 21
79.992341
  0
LINE
  8
CSLAYER1
  6
CONTINUOUS
 62
     6
 10
222.694570
 20
79.992341
 11
222.639742
 21
79.835675
  0
LINE
  8
CSLAYER1
  6
CONTINUOUS
 62
     6
 10
222.639742
 20
79.835675
 11
222.586969
 21
79.679374
  0
LINE
  8
CSLAYER1
  6
CONTINUOUS
 62
     6
 10
222.586969
 20
79.679374
 11
222.535974
 21
79.524386
  0
LINE
  8
CSLAYER1
  6
CONTINUOUS
 62
     6
 10
222.535974
 20
79.524386
 11
222.489467
 21
79.380639
  0
LINE
  8
CSLAYER1
  6
CONTINUOUS
 62
     6
 10
222.489467
 20
79.380639
 11
222.443643
 21
79.236996
  0
LINE
  8
CSLAYER1
  6
CONTINUOUS
 62
     6
 10
222.443643
 20
79.236996
 11
222.398435
 21
79.093448
  0
LINE
  8
CSLAYER1
  6
CONTINUOUS
 62
     6
 10
222.398435
 20
79.093448
 11
222.353773
 21
78.949984
  0
LINE
  8
CSLAYER1
  6
CONTINUOUS
 62
     6
 10
222.353773
 20
78.949984
 11
222.309590
 21
78.806594
  0
LINE
  8
CSLAYER1
  6
CONTINUOUS
 62
     6
 10
222.309590
 20
78.806594
 11
222.265817
 21
78.663266
  0
LINE
  8
CSLAYER1
  6
CONTINUOUS
 62
     6
 10
222.265817
 20
78.663266
 11
222.222386
 21
78.519991
  0
LINE
  8
CSLAYER1
  6
CONTINUOUS
 62
     6
 10
222.222386
 20
78.519991
 11
222.179229
 21
78.376759
  0
LINE
  8
CSLAYER1
  6
CONTINUOUS
 62
     6
 10
222.179229
 20
78.376759
 11
222.136276
 21
78.233557
  0
LINE
  8
CSLAYER1
  6
CONTINUOUS
 62
     6
 10
222.136276
 20
78.233557
 11
222.093460
 21
78.090377
  0
LINE
  8
CSLAYER1
  6
CONTINUOUS
 62
     6
 10
222.093460
 20
78.090377
 11
222.050713
 21
77.947207
  0
ARC
  8
CSLAYER1
  6
CONTINUOUS
 62
     6
 10
223.149574
 20
78.968268
 40
1.500000
 50
222.897147
 51
282.897147
  0
ARC
  8
CSLAYER1
  6
CONTINUOUS
 62
     6
 10
223.819179
 20
76.043951
 40
1.500000
 50
42.897147
 51
102.897147
  0
LINE
  8
CSLAYER1
  6
CONTINUOUS
 62
     6
 10
224.918011
 20
77.064962
 11
224.956078
 21
77.193650
  0
LINE
  8
CSLAYER1
  6
CONTINUOUS
 62
     6
 10
224.956078
 20
77.193650
 11
224.994224
 21
77.322345
  0
LINE
  8
CSLAYER1
  6
CONTINUOUS
 62
     6
 10
224.994224
 20
77.322345
 11
225.032527
 21
77.451053
  0
LINE
  8
CSLAYER1
  6
CONTINUOUS
 62
     6
 10
225.032527
 20
77.451053
 11
225.071065
 21
77.579781
  0
LINE
  8
CSLAYER1
  6
CONTINUOUS
 62
     6
 10
225.071065
 20
77.579781
 11
225.109917
 21
77.708534
  0
LINE
  8
CSLAYER1
  6
CONTINUOUS
 62
     6
 10
225.109917
 20
77.708534
 11
225.149161
 21
77.837319
  0
LINE
  8
CSLAYER1
  6
CONTINUOUS
 62
     6
 10
225.149161
 20
77.837319
 11
225.188875
 21
77.966144
  0
LINE
  8
CSLAYER1
  6
CONTINUOUS
 62
     6
 10
225.188875
 20
77.966144
 11
225.229138
 21
78.095013
  0
LINE
  8
CSLAYER1
  6
CONTINUOUS
 62
     6
 10
225.229138
 20
78.095013
 11
225.270029
 21
78.223934
  0
LINE
  8
CSLAYER1
  6
CONTINUOUS
 62
     6
 10
225.270029
 20
78.223934
 11
225.311625
 21
78.352913
  0
LINE
  8
CSLAYER1
  6
CONTINUOUS
 62
     6
 10
225.311625
 20
78.352913
 11
225.354005
 21
78.481957
  0
LINE
  8
CSLAYER1
  6
CONTINUOUS
 62
     6
 10
225.354005
 20
78.481957
 11
225.386818
 21
78.580078
  0
LINE
  8
CSLAYER1
  6
CONTINUOUS
 62
     6
 10
225.386818
 20
78.580078
 11
225.420657
 21
78.678894
  0
LINE
  8
CSLAYER1
  6
CONTINUOUS
 62
     6
 10
225.420657
 20
78.678894
 11
225.455701
 21
78.777863
  0
LINE
  8
CSLAYER1
  6
CONTINUOUS
 62
     6
 10
225.455701
 20
78.777863
 11
225.492130
 21
78.876440
  0
LINE
  8
CSLAYER1
  6
CONTINUOUS
 62
     6
 10
225.492130
 20
78.876440
 11
225.530123
 21
78.974083
  0
LINE
  8
CSLAYER1
  6
CONTINUOUS
 62
     6
 10
225.530123
 20
78.974083
 11
225.569859
 21
79.070249
  0
LINE
  8
CSLAYER1
  6
CONTINUOUS
 62
     6
 10
225.569859
 20
79.070249
 11
225.611518
 21
79.164395
  0
LINE
  8
CSLAYER1
  6
CONTINUOUS
 62
     6
 10
225.611518
 20
79.164395
 11
225.655278
 21
79.255978
  0
LINE
  8
CSLAYER1
  6
CONTINUOUS
 62
     6
 10
225.655278
 20
79.255978
 11
225.701320
 21
79.344455
  0
LINE
  8
CSLAYER1
  6
CONTINUOUS
 62
     6
 10
225.701320
 20
79.344455
 11
225.749821
 21
79.429282
  0
LINE
  8
CSLAYER1
  6
CONTINUOUS
 62
     6
 10
225.749821
 20
79.429282
 11
225.800961
 21
79.509918
  0
LINE
  8
CSLAYER1
  6
CONTINUOUS
 62
     6
 10
225.800961
 20
79.509918
 11
225.857253
 21
79.591298
  0
LINE
  8
CSLAYER1
  6
CONTINUOUS
 62
     6
 10
225.857253
 20
79.591298
 11
225.918162
 21
79.674471
  0
LINE
  8
CSLAYER1
  6
CONTINUOUS
 62
     6
 10
225.918162
 20
79.674471
 11
225.983015
 21
79.758612
  0
LINE
  8
CSLAYER1
  6
CONTINUOUS
 62
     6
 10
225.983015
 20
79.758612
 11
226.051143
 21
79.842895
  0
LINE
  8
CSLAYER1
  6
CONTINUOUS
 62
     6
 10
226.051143
 20
79.842895
 11
226.121872
 21
79.926493
  0
LINE
  8
CSLAYER1
  6
CONTINUOUS
 62
     6
 10
226.121872
 20
79.926493
 11
226.194532
 21
80.008580
  0
LINE
  8
CSLAYER1
  6
CONTINUOUS
 62
     6
 10
226.194532
 20
80.008580
 11
226.268450
 21
80.088331
  0
LINE
  8
CSLAYER1
  6
CONTINUOUS
 62
     6
 10
226.268450
 20
80.088331
 11
226.342954
 21
80.164919
  0
LINE
  8
CSLAYER1
  6
CONTINUOUS
 62
     6
 10
226.342954
 20
80.164919
 11
226.417374
 21
80.237518
  0
LINE
  8
CSLAYER1
  6
CONTINUOUS
 62
     6
 10
226.417374
 20
80.237518
 11
226.491037
 21
80.305303
  0
LINE
  8
CSLAYER1
  6
CONTINUOUS
 62
     6
 10
226.491037
 20
80.305303
 11
226.563271
 21
80.367447
  0
ARC
  8
CSLAYER1
  6
CONTINUOUS
 62
     6
 10
225.139610
 20
79.894768
 40
1.500000
 50
18.366208
 51
78.366208
  0
LINE
  8
CSLAYER1
  6
CONTINUOUS
 62
     6
 10
224.099282
 20
82.159123
 11
221.891894
 21
82.159123
  0
LINE
  8
CSLAYER1
  6
CONTINUOUS
 62
     6
 10
221.879961
 20
82.138184
 11
221.961760
 21
82.281708
  0
LINE
  8
CSLAYER1
  6
CONTINUOUS
 62
     6
 10
221.961760
 20
82.281708
 11
222.046003
 21
82.423754
  0
LINE
  8
CSLAYER1
  6
CONTINUOUS
 62
     6
 10
222.046003
 20
82.423754
 11
222.133038
 21
82.564111
  0
LINE
  8
CSLAYER1
  6
CONTINUOUS
 62
     6
 10
222.133038
 20
82.564111
 11
222.223214
 21
82.702568
  0
LINE
  8
CSLAYER1
  6
CONTINUOUS
 62
     6
 10
222.223214
 20
82.702568
 11
222.316881
 21
82.838914
  0
LINE
  8
CSLAYER1
  6
CONTINUOUS
 62
     6
 10
222.316881
 20
82.838914
 11
222.391302
 21
82.942176
  0
LINE
  8
CSLAYER1
  6
CONTINUOUS
 62
     6
 10
222.391302
 20
82.942176
 11
222.468504
 21
83.045062
  0
LINE
  8
CSLAYER1
  6
CONTINUOUS
 62
     6
 10
222.468504
 20
83.045062
 11
222.548263
 21
83.147031
  0
LINE
  8
CSLAYER1
  6
CONTINUOUS
 62
     6
 10
222.548263
 20
83.147031
 11
222.630356
 21
83.247543
  0
LINE
  8
CSLAYER1
  6
CONTINUOUS
 62
     6
 10
222.630356
 20
83.247543
 11
222.714560
 21
83.346055
  0
LINE
  8
CSLAYER1
  6
CONTINUOUS
 62
     6
 10
222.714560
 20
83.346055
 11
222.800651
 21
83.442027
  0
LINE
  8
CSLAYER1
  6
CONTINUOUS
 62
     6
 10
222.800651
 20
83.442027
 11
222.888408
 21
83.534918
  0
LINE
  8
CSLAYER1
  6
CONTINUOUS
 62
     6
 10
222.888408
 20
83.534918
 11
222.977605
 21
83.624185
  0
LINE
  8
CSLAYER1
  6
CONTINUOUS
 62
     6
 10
222.977605
 20
83.624185
 11
223.068020
 21
83.709289
  0
LINE
  8
CSLAYER1
  6
CONTINUOUS
 62
     6
 10
223.068020
 20
83.709289
 11
223.159430
 21
83.789688
  0
LINE
  8
CSLAYER1
  6
CONTINUOUS
 62
     6
 10
223.159430
 20
83.789688
 11
223.251612
 21
83.864840
  0
LINE
  8
CSLAYER1
  6
CONTINUOUS
 62
     6
 10
223.251612
 20
83.864840
 11
223.369861
 21
83.955907
  0
LINE
  8
CSLAYER1
  6
CONTINUOUS
 62
     6
 10
223.369861
 20
83.955907
 11
223.494508
 21
84.049028
  0
LINE
  8
CSLAYER1
  6
CONTINUOUS
 62
     6
 10
223.494508
 20
84.049028
 11
223.624308
 21
84.143084
  0
LINE
  8
CSLAYER1
  6
CONTINUOUS
 62
     6
 10
223.624308
 20
84.143084
 11
223.758013
 21
84.236957
  0
LINE
  8
CSLAYER1
  6
CONTINUOUS
 62
     6
 10
223.758013
 20
84.236957
 11
223.894376
 21
84.329527
  0
LINE
  8
CSLAYER1
  6
CONTINUOUS
 62
     6
 10
223.894376
 20
84.329527
 11
224.032152
 21
84.419677
  0
LINE
  8
CSLAYER1
  6
CONTINUOUS
 62
     6
 10
224.032152
 20
84.419677
 11
224.170093
 21
84.506288
  0
LINE
  8
CSLAYER1
  6
CONTINUOUS
 62
     6
 10
224.170093
 20
84.506288
 11
224.306952
 21
84.588240
  0
LINE
  8
CSLAYER1
  6
CONTINUOUS
 62
     6
 10
224.306952
 20
84.588240
 11
224.441483
 21
84.664415
  0
LINE
  8
CSLAYER1
  6
CONTINUOUS
 62
     6
 10
224.441483
 20
84.664415
 11
224.572439
 21
84.733695
  0
LINE
  8
CSLAYER1
  6
CONTINUOUS
 62
     6
 10
224.572439
 20
84.733695
 11
224.698573
 21
84.794960
  0
ARC
  8
CSLAYER1
  6
CONTINUOUS
 62
     6
 10
223.200335
 20
84.723428
 40
1.499998
 50
2.735346
 51
62.735346
  0
ARC
  8
CSLAYER1
  6
CONTINUOUS
 62
     6
 10
224.574637
 20
87.390124
 40
1.499998
 50
182.735346
 51
242.735346
  0
ARC
  8
CSLAYER1
  6
CONTINUOUS
 62
     6
 10
222.389197
 20
85.985192
 40
1.499998
 50
2.735346
 51
62.735346
  0
LINE
  8
CSLAYER1
  6
CONTINUOUS
 62
     6
 10
223.076271
 20
87.318600
 11
222.920741
 21
87.240779
  0
LINE
  8
CSLAYER1
  6
CONTINUOUS
 62
     6
 10
222.920741
 20
87.240779
 11
222.759754
 21
87.153693
  0
LINE
  8
CSLAYER1
  6
CONTINUOUS
 62
     6
 10
222.759754
 20
87.153693
 11
222.594723
 21
87.058692
  0
LINE
  8
CSLAYER1
  6
CONTINUOUS
 62
     6
 10
222.594723
 20
87.058692
 11
222.427064
 21
86.957126
  0
LINE
  8
CSLAYER1
  6
CONTINUOUS
 62
     6
 10
222.427064
 20
86.957126
 11
222.258190
 21
86.850346
  0
LINE
  8
CSLAYER1
  6
CONTINUOUS
 62
     6
 10
222.258190
 20
86.850346
 11
222.089517
 21
86.739703
  0
LINE
  8
CSLAYER1
  6
CONTINUOUS
 62
     6
 10
222.089517
 20
86.739703
 11
221.922459
 21
86.626546
  0
LINE
  8
CSLAYER1
  6
CONTINUOUS
 62
     6
 10
221.922459
 20
86.626546
 11
221.758431
 21
86.512226
  0
LINE
  8
CSLAYER1
  6
CONTINUOUS
 62
     6
 10
221.758431
 20
86.512226
 11
221.598847
 21
86.398093
  0
LINE
  8
CSLAYER1
  6
CONTINUOUS
 62
     6
 10
221.598847
 20
86.398093
 11
221.445123
 21
86.285499
  0
LINE
  8
CSLAYER1
  6
CONTINUOUS
 62
     6
 10
221.445123
 20
86.285499
 11
221.298672
 21
86.175792
  0
LINE
  8
CSLAYER1
  6
CONTINUOUS
 62
     6
 10
221.298672
 20
86.175792
 11
221.156622
 21
86.063211
  0
LINE
  8
CSLAYER1
  6
CONTINUOUS
 62
     6
 10
221.156622
 20
86.063211
 11
221.015951
 21
85.942088
  0
LINE
  8
CSLAYER1
  6
CONTINUOUS
 62
     6
 10
221.015951
 20
85.942088
 11
220.877028
 21
85.813289
  0
LINE
  8
CSLAYER1
  6
CONTINUOUS
 62
     6
 10
220.877028
 20
85.813289
 11
220.740220
 21
85.677681
  0
LINE
  8
CSLAYER1
  6
CONTINUOUS
 62
     6
 10
220.740220
 20
85.677681
 11
220.605895
 21
85.536132
  0
LINE
  8
CSLAYER1
  6
CONTINUOUS
 62
     6
 10
220.605895
 20
85.536132
 11
220.474422
 21
85.389509
  0
LINE
  8
CSLAYER1
  6
CONTINUOUS
 62
     6
 10
220.474422
 20
85.389509
 11
220.346167
 21
85.238679
  0
LINE
  8
CSLAYER1
  6
CONTINUOUS
 62
     6
 10
220.346167
 20
85.238679
 11
220.221499
 21
85.084509
  0
LINE
  8
CSLAYER1
  6
CONTINUOUS
 62
     6
 10
220.221499
 20
85.084509
 11
220.100786
 21
84.927866
  0
LINE
  8
CSLAYER1
  6
CONTINUOUS
 62
     6
 10
220.100786
 20
84.927866
 11
219.984395
 21
84.769617
  0
LINE
  8
CSLAYER1
  6
CONTINUOUS
 62
     6
 10
219.984395
 20
84.769617
 11
219.872695
 21
84.610630
  0
LINE
  8
CSLAYER1
  6
CONTINUOUS
 62
     6
 10
219.872695
 20
84.610630
 11
219.763515
 21
84.447703
  0
LINE
  8
CSLAYER1
  6
CONTINUOUS
 62
     6
 10
219.763515
 20
84.447703
 11
219.657949
 21
84.282658
  0
LINE
  8
CSLAYER1
  6
CONTINUOUS
 62
     6
 10
219.657949
 20
84.282658
 11
219.555635
 21
84.115707
  0
LINE
  8
CSLAYER1
  6
CONTINUOUS
 62
     6
 10
219.555635
 20
84.115707
 11
219.456213
 21
83.947062
  0
LINE
  8
CSLAYER1
  6
CONTINUOUS
 62
     6
 10
219.456213
 20
83.947062
 11
219.359319
 21
83.776935
  0
LINE
  8
CSLAYER1
  6
CONTINUOUS
 62
     6
 10
219.359319
 20
83.776935
 11
219.264594
 21
83.605538
  0
LINE
  8
CSLAYER1
  6
CONTINUOUS
 62
     6
 10
219.264594
 20
83.605538
 11
219.171676
 21
83.433081
  0
LINE
  8
CSLAYER1
  6
CONTINUOUS
 62
     6
 10
219.171676
 20
83.433081
 11
219.080203
 21
83.259778
  0
LINE
  8
CSLAYER1
  6
CONTINUOUS
 62
     6
 10
219.080203
 20
83.259778
 11
218.989815
 21
83.085839
  0
LINE
  8
CSLAYER1
  6
CONTINUOUS
 62
     6
 10
218.989815
 20
83.085839
 11
218.900149
 21
82.911477
  0
LINE
  8
CSLAYER1
  6
CONTINUOUS
 62
     6
 10
218.900149
 20
82.911477
 11
218.810844
 21
82.736903
  0
ARC
  8
CSLAYER1
  6
CONTINUOUS
 62
     6
 10
220.103825
 20
83.497341
 40
1.499998
 50
210.461270
 51
270.461270
  0
ARC
  8
CSLAYER1
  6
CONTINUOUS
 62
     6
 10
220.127977
 20
80.497442
 40
1.499998
 50
30.461270
 51
90.461270
  0
LINE
  8
CSLAYER1
  6
CONTINUOUS
 62
     6
 10
221.420928
 20
81.257829
 11
221.495398
 21
81.405787
  0
LINE
  8
CSLAYER1
  6
CONTINUOUS
 62
     6
 10
221.495398
 20
81.405787
 11
221.570216
 21
81.553533
  0
LINE
  8
CSLAYER1
  6
CONTINUOUS
 62
     6
 10
221.570216
 20
81.553533
 11
221.645732
 21
81.700857
  0
LINE
  8
CSLAYER1
  6
CONTINUOUS
 62
     6
 10
221.645732
 20
81.700857
 11
221.722296
 21
81.847548
  0
LINE
  8
CSLAYER1
  6
CONTINUOUS
 62
     6
 10
221.722296
 20
81.847548
 11
221.800256
 21
81.993394
  0
LINE
  8
CSLAYER1
  6
CONTINUOUS
 62
     6
 10
221.800256
 20
81.993394
 11
221.879961
 21
82.138184
  0
LINE
  8
CSLAYER1
  6
CONTINUOUS
 62
     6
 10
220.633486
 20
81.909694
 11
219.655258
 21
78.312225
  0
LINE
  8
CSLAYER1
  6
CONTINUOUS
 62
     6
 10
218.791569
 20
78.600110
 11
219.957026
 21
82.004543
  0
LINE
  8
CSLAYER1
  6
CONTINUOUS
 62
     6
 10
219.426207
 20
82.159123
 11
205.885661
 21
82.159123
  0
ARC
  8
CSLAYER1
  6
CONTINUOUS
 62
     6
 10
205.885661
 20
86.159123
 40
4.000000
 50
234.043961
 51
270.000000
  0
LINE
  8
CSLAYER1
  6
CONTINUOUS
 62
     6
 10
203.565054
 20
82.932762
 11
203.500363
 21
82.870738
  0
LINE
  8
CSLAYER1
  6
CONTINUOUS
 62
     6
 10
203.500363
 20
82.870738
 11
203.436487
 21
82.805213
  0
LINE
  8
CSLAYER1
  6
CONTINUOUS
 62
     6
 10
203.436487
 20
82.805213
 11
203.373636
 21
82.736584
  0
LINE
  8
CSLAYER1
  6
CONTINUOUS
 62
     6
 10
203.373636
 20
82.736584
 11
203.312021
 21
82.665250
  0
LINE
  8
CSLAYER1
  6
CONTINUOUS
 62
     6
 10
203.312021
 20
82.665250
 11
203.251851
 21
82.591608
  0
LINE
  8
CSLAYER1
  6
CONTINUOUS
 62
     6
 10
203.251851
 20
82.591608
 11
203.193336
 21
82.516057
  0
LINE
  8
CSLAYER1
  6
CONTINUOUS
 62
     6
 10
203.193336
 20
82.516057
 11
203.136685
 21
82.438993
  0
LINE
  8
CSLAYER1
  6
CONTINUOUS
 62
     6
 10
203.136685
 20
82.438993
 11
203.082110
 21
82.360816
  0
LINE
  8
CSLAYER1
  6
CONTINUOUS
 62
     6
 10
203.082110
 20
82.360816
 11
203.029818
 21
82.281922
  0
LINE
  8
CSLAYER1
  6
CONTINUOUS
 62
     6
 10
203.029818
 20
82.281922
 11
202.980021
 21
82.202710
  0
LINE
  8
CSLAYER1
  6
CONTINUOUS
 62
     6
 10
202.980021
 20
82.202710
 11
202.939972
 21
82.135651
  0
LINE
  8
CSLAYER1
  6
CONTINUOUS
 62
     6
 10
202.939972
 20
82.135651
 11
202.901290
 21
82.067829
  0
LINE
  8
CSLAYER1
  6
CONTINUOUS
 62
     6
 10
202.901290
 20
82.067829
 11
202.863840
 21
81.999320
  0
LINE
  8
CSLAYER1
  6
CONTINUOUS
 62
     6
 10
202.863840
 20
81.999320
 11
202.827483
 21
81.930200
  0
LINE
  8
CSLAYER1
  6
CONTINUOUS
 62
     6
 10
202.827483
 20
81.930200
 11
202.792085
 21
81.860547
  0
LINE
  8
CSLAYER1
  6
CONTINUOUS
 62
     6
 10
202.792085
 20
81.860547
 11
202.757507
 21
81.790435
  0
LINE
  8
CSLAYER1
  6
CONTINUOUS
 62
     6
 10
202.757507
 20
81.790435
 11
202.723614
 21
81.719942
  0
LINE
  8
CSLAYER1
  6
CONTINUOUS
 62
     6
 10
202.723614
 20
81.719942
 11
202.690267
 21
81.649144
  0
LINE
  8
CSLAYER1
  6
CONTINUOUS
 62
     6
 10
202.690267
 20
81.649144
 11
202.657331
 21
81.578117
  0
LINE
  8
CSLAYER1
  6
CONTINUOUS
 62
     6
 10
202.657331
 20
81.578117
 11
202.624669
 21
81.506937
  0
LINE
  8
CSLAYER1
  6
CONTINUOUS
 62
     6
 10
202.624669
 20
81.506937
 11
202.592143
 21
81.435681
  0
ARC
  8
CSLAYER1
  6
CONTINUOUS
 62
     6
 10
201.926779
 20
81.000605
 40
0.795003
 50
33.178280
 51
93.178280
  0
ARC
  8
CSLAYER1
  6
CONTINUOUS
 62
     6
 10
202.548096
 20
82.229447
 40
0.795003
 50
213.178280
 51
273.178280
  0
ARC
  8
CSLAYER1
  6
CONTINUOUS
 62
     6
 10
201.838624
 20
82.588165
 40
0.795003
 50
213.178280
 51
273.178280
  0
LINE
  8
CSLAYER1
  6
CONTINUOUS
 62
     6
 10
201.173198
 20
82.153119
 11
201.212669
 21
82.238905
  0
LINE
  8
CSLAYER1
  6
CONTINUOUS
 62
     6
 10
201.212669
 20
82.238905
 11
201.252292
 21
82.324607
  0
LINE
  8
CSLAYER1
  6
CONTINUOUS
 62
     6
 10
201.252292
 20
82.324607
 11
201.292221
 21
82.410138
  0
LINE
  8
CSLAYER1
  6
CONTINUOUS
 62
     6
 10
201.292221
 20
82.410138
 11
201.332606
 21
82.495415
  0
LINE
  8
CSLAYER1
  6
CONTINUOUS
 62
     6
 10
201.332606
 20
82.495415
 11
201.373601
 21
82.580351
  0
LINE
  8
CSLAYER1
  6
CONTINUOUS
 62
     6
 10
201.373601
 20
82.580351
 11
201.415358
 21
82.664863
  0
LINE
  8
CSLAYER1
  6
CONTINUOUS
 62
     6
 10
201.415358
 20
82.664863
 11
201.458030
 21
82.748865
  0
LINE
  8
CSLAYER1
  6
CONTINUOUS
 62
     6
 10
201.458030
 20
82.748865
 11
201.501769
 21
82.832272
  0
LINE
  8
CSLAYER1
  6
CONTINUOUS
 62
     6
 10
201.501769
 20
82.832272
 11
201.546727
 21
82.915000
  0
LINE
  8
CSLAYER1
  6
CONTINUOUS
 62
     6
 10
201.546727
 20
82.915000
 11
201.593056
 21
82.996963
  0
LINE
  8
CSLAYER1
  6
CONTINUOUS
 62
     6
 10
201.593056
 20
82.996963
 11
201.640910
 21
83.078076
  0
LINE
  8
CSLAYER1
  6
CONTINUOUS
 62
     6
 10
201.640910
 20
83.078076
 11
201.709583
 21
83.188612
  0
LINE
  8
CSLAYER1
  6
CONTINUOUS
 62
     6
 10
201.709583
 20
83.188612
 11
201.781919
 21
83.298637
  0
LINE
  8
CSLAYER1
  6
CONTINUOUS
 62
     6
 10
201.781919
 20
83.298637
 11
201.857602
 21
83.407597
  0
LINE
  8
CSLAYER1
  6
CONTINUOUS
 62
     6
 10
201.857602
 20
83.407597
 11
201.936314
 21
83.514936
  0
LINE
  8
CSLAYER1
  6
CONTINUOUS
 62
     6
 10
201.936314
 20
83.514936
 11
202.017739
 21
83.620101
  0
LINE
  8
CSLAYER1
  6
CONTINUOUS
 62
     6
 10
202.017739
 20
83.620101
 11
202.101558
 21
83.722536
  0
LINE
  8
CSLAYER1
  6
CONTINUOUS
 62
     6
 10
202.101558
 20
83.722536
 11
202.187455
 21
83.821687
  0
LINE
  8
CSLAYER1
  6
CONTINUOUS
 62
     6
 10
202.187455
 20
83.821687
 11
202.275114
 21
83.917000
  0
LINE
  8
CSLAYER1
  6
CONTINUOUS
 62
     6
 10
202.275114
 20
83.917000
 11
202.364216
 21
84.007919
  0
LINE
  8
CSLAYER1
  6
CONTINUOUS
 62
     6
 10
202.364216
 20
84.007919
 11
202.454444
 21
84.093890
  0
LINE
  8
CSLAYER1
  6
CONTINUOUS
 62
     6
 10
202.454444
 20
84.093890
 11
202.545482
 21
84.174359
  0
LINE
  8
CSLAYER1
  6
CONTINUOUS
 62
     6
 10
202.545482
 20
84.174359
 11
202.646192
 21
84.258822
  0
LINE
  8
CSLAYER1
  6
CONTINUOUS
 62
     6
 10
202.646192
 20
84.258822
 11
202.751410
 21
84.344806
  0
LINE
  8
CSLAYER1
  6
CONTINUOUS
 62
     6
 10
202.751410
 20
84.344806
 11
202.860554
 21
84.431428
  0
LINE
  8
CSLAYER1
  6
CONTINUOUS
 62
     6
 10
202.860554
 20
84.431428
 11
202.973038
 21
84.517806
  0
LINE
  8
CSLAYER1
  6
CONTINUOUS
 62
     6
 10
202.973038
 20
84.517806
 11
203.088277
 21
84.603057
  0
LINE
  8
CSLAYER1
  6
CONTINUOUS
 62
     6
 10
203.088277
 20
84.603057
 11
203.205688
 21
84.686298
  0
LINE
  8
CSLAYER1
  6
CONTINUOUS
 62
     6
 10
203.205688
 20
84.686298
 11
203.324686
 21
84.766648
  0
LINE
  8
CSLAYER1
  6
CONTINUOUS
 62
     6
 10
203.324686
 20
84.766648
 11
203.444685
 21
84.843224
  0
LINE
  8
CSLAYER1
  6
CONTINUOUS
 62
     6
 10
203.444685
 20
84.843224
 11
203.565102
 21
84.915144
  0
LINE
  8
CSLAYER1
  6
CONTINUOUS
 62
     6
 10
203.565102
 20
84.915144
 11
203.685353
 21
84.981525
  0
LINE
  8
CSLAYER1
  6
CONTINUOUS
 62
     6
 10
203.685353
 20
84.981525
 11
203.804851
 21
85.041485
  0
LINE
  8
CSLAYER1
  6
CONTINUOUS
 62
     6
 10
203.804851
 20
85.041485
 11
203.895715
 21
85.084598
  0
LINE
  8
CSLAYER1
  6
CONTINUOUS
 62
     6
 10
203.895715
 20
85.084598
 11
203.988834
 21
85.128676
  0
LINE
  8
CSLAYER1
  6
CONTINUOUS
 62
     6
 10
203.988834
 20
85.128676
 11
204.083758
 21
85.173402
  0
LINE
  8
CSLAYER1
  6
CONTINUOUS
 62
     6
 10
204.083758
 20
85.173402
 11
204.180036
 21
85.218462
  0
LINE
  8
CSLAYER1
  6
CONTINUOUS
 62
     6
 10
204.180036
 20
85.218462
 11
204.277218
 21
85.263539
  0
LINE
  8
CSLAYER1
  6
CONTINUOUS
 62
     6
 10
204.277218
 20
85.263539
 11
204.374851
 21
85.308318
  0
LINE
  8
CSLAYER1
  6
CONTINUOUS
 62
     6
 10
204.374851
 20
85.308318
 11
204.472485
 21
85.352484
  0
LINE
  8
CSLAYER1
  6
CONTINUOUS
 62
     6
 10
204.472485
 20
85.352484
 11
204.569670
 21
85.395722
  0
LINE
  8
CSLAYER1
  6
CONTINUOUS
 62
     6
 10
204.569670
 20
85.395722
 11
204.665953
 21
85.437715
  0
LINE
  8
CSLAYER1
  6
CONTINUOUS
 62
     6
 10
204.665953
 20
85.437715
 11
204.760885
 21
85.478147
  0
LINE
  8
CSLAYER1
  6
CONTINUOUS
 62
     6
 10
204.760885
 20
85.478147
 11
204.854014
 21
85.516705
  0
LINE
  8
CSLAYER1
  6
CONTINUOUS
 62
     6
 10
204.854014
 20
85.516705
 11
204.927438
 21
85.547070
  0
LINE
  8
CSLAYER1
  6
CONTINUOUS
 62
     6
 10
204.927438
 20
85.547070
 11
205.002467
 21
85.578995
  0
LINE
  8
CSLAYER1
  6
CONTINUOUS
 62
     6
 10
205.002467
 20
85.578995
 11
205.078633
 21
85.612298
  0
LINE
  8
CSLAYER1
  6
CONTINUOUS
 62
     6
 10
205.078633
 20
85.612298
 11
205.155464
 21
85.646796
  0
LINE
  8
CSLAYER1
  6
CONTINUOUS
 62
     6
 10
205.155464
 20
85.646796
 11
205.232491
 21
85.682306
  0
LINE
  8
CSLAYER1
  6
CONTINUOUS
 62
     6
 10
205.232491
 20
85.682306
 11
205.309242
 21
85.718646
  0
LINE
  8
CSLAYER1
  6
CONTINUOUS
 62
     6
 10
205.309242
 20
85.718646
 11
205.385247
 21
85.755632
  0
LINE
  8
CSLAYER1
  6
CONTINUOUS
 62
     6
 10
205.385247
 20
85.755632
 11
205.460036
 21
85.793082
  0
LINE
  8
CSLAYER1
  6
CONTINUOUS
 62
     6
 10
205.460036
 20
85.793082
 11
205.533139
 21
85.830812
  0
LINE
  8
CSLAYER1
  6
CONTINUOUS
 62
     6
 10
205.533139
 20
85.830812
 11
205.604085
 21
85.868640
  0
LINE
  8
CSLAYER1
  6
CONTINUOUS
 62
     6
 10
205.604085
 20
85.868640
 11
205.672404
 21
85.906384
  0
LINE
  8
CSLAYER1
  6
CONTINUOUS
 62
     6
 10
205.672404
 20
85.906384
 11
205.738644
 21
85.944265
  0
LINE
  8
CSLAYER1
  6
CONTINUOUS
 62
     6
 10
205.738644
 20
85.944265
 11
205.807170
 21
85.984560
  0
LINE
  8
CSLAYER1
  6
CONTINUOUS
 62
     6
 10
205.807170
 20
85.984560
 11
205.877287
 21
86.026821
  0
LINE
  8
CSLAYER1
  6
CONTINUOUS
 62
     6
 10
205.877287
 20
86.026821
 11
205.948304
 21
86.070598
  0
LINE
  8
CSLAYER1
  6
CONTINUOUS
 62
     6
 10
205.948304
 20
86.070598
 11
206.019527
 21
86.115444
  0
LINE
  8
CSLAYER1
  6
CONTINUOUS
 62
     6
 10
206.019527
 20
86.115444
 11
206.090263
 21
86.160909
  0
LINE
  8
CSLAYER1
  6
CONTINUOUS
 62
     6
 10
206.090263
 20
86.160909
 11
206.159820
 21
86.206544
  0
LINE
  8
CSLAYER1
  6
CONTINUOUS
 62
     6
 10
206.159820
 20
86.206544
 11
206.227504
 21
86.251901
  0
LINE
  8
CSLAYER1
  6
CONTINUOUS
 62
     6
 10
206.227504
 20
86.251901
 11
206.292624
 21
86.296532
  0
LINE
  8
CSLAYER1
  6
CONTINUOUS
 62
     6
 10
206.292624
 20
86.296532
 11
206.354485
 21
86.339987
  0
LINE
  8
CSLAYER1
  6
CONTINUOUS
 62
     6
 10
206.354485
 20
86.339987
 11
206.412395
 21
86.381817
  0
ARC
  8
CSLAYER1
  6
CONTINUOUS
 62
     6
 10
206.858195
 20
85.722790
 40
0.795000
 50
-58.640300
 51
121.359720
  0
LINE
  8
CSLAYER1
  6
CONTINUOUS
 62
     6
 10
207.271831
 20
85.044110
 11
207.207167
 21
84.997451
  0
LINE
  8
CSLAYER1
  6
CONTINUOUS
 62
     6
 10
207.207167
 20
84.997451
 11
207.138034
 21
84.948948
  0
LINE
  8
CSLAYER1
  6
CONTINUOUS
 62
     6
 10
207.138034
 20
84.948948
 11
207.065234
 21
84.899115
  0
LINE
  8
CSLAYER1
  6
CONTINUOUS
 62
     6
 10
207.065234
 20
84.899115
 11
206.989567
 21
84.848466
  0
LINE
  8
CSLAYER1
  6
CONTINUOUS
 62
     6
 10
206.989567
 20
84.848466
 11
206.911836
 21
84.797513
  0
LINE
  8
CSLAYER1
  6
CONTINUOUS
 62
     6
 10
206.911836
 20
84.797513
 11
206.832840
 21
84.746770
  0
LINE
  8
CSLAYER1
  6
CONTINUOUS
 62
     6
 10
206.832840
 20
84.746770
 11
206.753381
 21
84.696750
  0
LINE
  8
CSLAYER1
  6
CONTINUOUS
 62
     6
 10
206.753381
 20
84.696750
 11
206.674261
 21
84.647967
  0
LINE
  8
CSLAYER1
  6
CONTINUOUS
 62
     6
 10
206.674261
 20
84.647967
 11
206.596280
 21
84.600934
  0
LINE
  8
CSLAYER1
  6
CONTINUOUS
 62
     6
 10
206.596280
 20
84.600934
 11
206.520239
 21
84.556165
  0
LINE
  8
CSLAYER1
  6
CONTINUOUS
 62
     6
 10
206.520239
 20
84.556165
 11
206.446940
 21
84.514172
  0
LINE
  8
CSLAYER1
  6
CONTINUOUS
 62
     6
 10
206.446940
 20
84.514172
 11
206.370361
 21
84.471755
  0
LINE
  8
CSLAYER1
  6
CONTINUOUS
 62
     6
 10
206.370361
 20
84.471755
 11
206.290501
 21
84.429023
  0
LINE
  8
CSLAYER1
  6
CONTINUOUS
 62
     6
 10
206.290501
 20
84.429023
 11
206.207964
 21
84.386244
  0
LINE
  8
CSLAYER1
  6
CONTINUOUS
 62
     6
 10
206.207964
 20
84.386244
 11
206.123353
 21
84.343686
  0
LINE
  8
CSLAYER1
  6
CONTINUOUS
 62
     6
 10
206.123353
 20
84.343686
 11
206.037272
 21
84.301619
  0
LINE
  8
CSLAYER1
  6
CONTINUOUS
 62
     6
 10
206.037272
 20
84.301619
 11
205.950325
 21
84.260311
  0
LINE
  8
CSLAYER1
  6
CONTINUOUS
 62
     6
 10
205.950325
 20
84.260311
 11
205.863115
 21
84.220031
  0
LINE
  8
CSLAYER1
  6
CONTINUOUS
 62
     6
 10
205.863115
 20
84.220031
 11
205.776246
 21
84.181047
  0
LINE
  8
CSLAYER1
  6
CONTINUOUS
 62
     6
 10
205.776246
 20
84.181047
 11
205.690322
 21
84.143630
  0
LINE
  8
CSLAYER1
  6
CONTINUOUS
 62
     6
 10
205.690322
 20
84.143630
 11
205.605947
 21
84.108046
  0
LINE
  8
CSLAYER1
  6
CONTINUOUS
 62
     6
 10
205.605947
 20
84.108046
 11
205.523723
 21
84.074566
  0
LINE
  8
CSLAYER1
  6
CONTINUOUS
 62
     6
 10
205.523723
 20
84.074566
 11
205.441448
 21
84.041022
  0
LINE
  8
CSLAYER1
  6
CONTINUOUS
 62
     6
 10
205.441448
 20
84.041022
 11
205.357247
 21
84.005465
  0
LINE
  8
CSLAYER1
  6
CONTINUOUS
 62
     6
 10
205.357247
 20
84.005465
 11
205.271587
 21
83.968239
  0
LINE
  8
CSLAYER1
  6
CONTINUOUS
 62
     6
 10
205.271587
 20
83.968239
 11
205.184935
 21
83.929686
  0
LINE
  8
CSLAYER1
  6
CONTINUOUS
 62
     6
 10
205.184935
 20
83.929686
 11
205.097760
 21
83.890151
  0
LINE
  8
CSLAYER1
  6
CONTINUOUS
 62
     6
 10
205.097760
 20
83.890151
 11
205.010528
 21
83.849976
  0
LINE
  8
CSLAYER1
  6
CONTINUOUS
 62
     6
 10
205.010528
 20
83.849976
 11
204.923708
 21
83.809506
  0
LINE
  8
CSLAYER1
  6
CONTINUOUS
 62
     6
 10
204.923708
 20
83.809506
 11
204.837766
 21
83.769082
  0
LINE
  8
CSLAYER1
  6
CONTINUOUS
 62
     6
 10
204.837766
 20
83.769082
 11
204.753170
 21
83.729050
  0
LINE
  8
CSLAYER1
  6
CONTINUOUS
 62
     6
 10
204.753170
 20
83.729050
 11
204.589885
 21
83.651532
  0
LINE
  8
CSLAYER1
  6
CONTINUOUS
 62
     6
 10
204.589885
 20
83.651532
 11
204.499327
 21
83.606145
  0
LINE
  8
CSLAYER1
  6
CONTINUOUS
 62
     6
 10
204.499327
 20
83.606145
 11
204.407984
 21
83.555810
  0
LINE
  8
CSLAYER1
  6
CONTINUOUS
 62
     6
 10
204.407984
 20
83.555810
 11
204.316341
 21
83.501199
  0
LINE
  8
CSLAYER1
  6
CONTINUOUS
 62
     6
 10
204.316341
 20
83.501199
 11
204.224880
 21
83.442982
  0
LINE
  8
CSLAYER1
  6
CONTINUOUS
 62
     6
 10
204.224880
 20
83.442982
 11
204.134084
 21
83.381831
  0
LINE
  8
CSLAYER1
  6
CONTINUOUS
 62
     6
 10
204.134084
 20
83.381831
 11
204.044437
 21
83.318416
  0
LINE
  8
CSLAYER1
  6
CONTINUOUS
 62
     6
 10
204.044437
 20
83.318416
 11
203.956422
 21
83.253410
  0
LINE
  8
CSLAYER1
  6
CONTINUOUS
 62
     6
 10
203.956422
 20
83.253410
 11
203.870523
 21
83.187482
  0
LINE
  8
CSLAYER1
  6
CONTINUOUS
 62
     6
 10
203.870523
 20
83.187482
 11
203.787223
 21
83.121305
  0
LINE
  8
CSLAYER1
  6
CONTINUOUS
 62
     6
 10
203.787223
 20
83.121305
 11
203.707004
 21
83.055550
  0
LINE
  8
CSLAYER1
  6
CONTINUOUS
 62
     6
 10
203.707004
 20
83.055550
 11
203.630351
 21
82.990887
  0
LINE
  8
CSLAYER1
  6
CONTINUOUS
 62
     6
 10
203.630351
 20
82.990887
 11
203.565054
 21
82.932762
  0
ARC
  8
CSLAYER1
  6
CONTINUOUS
 62
     6
 10
205.885661
 20
86.159100
 40
3.710000
 50
-124.666466
 51
179.299504
  0
LINE
  8
CSLAYER1
  6
CONTINUOUS
 62
     6
 10
202.085760
 20
86.160387
 11
201.879944
 21
86.058823
  0
LINE
  8
CSLAYER1
  6
CONTINUOUS
 62
     6
 10
201.879944
 20
86.058823
 11
201.676297
 21
85.951050
  0
LINE
  8
CSLAYER1
  6
CONTINUOUS
 62
     6
 10
201.676297
 20
85.951050
 11
201.476092
 21
85.836876
  0
LINE
  8
CSLAYER1
  6
CONTINUOUS
 62
     6
 10
201.476092
 20
85.836876
 11
201.280597
 21
85.716107
  0
LINE
  8
CSLAYER1
  6
CONTINUOUS
 62
     6
 10
201.280597
 20
85.716107
 11
201.091085
 21
85.588550
  0
LINE
  8
CSLAYER1
  6
CONTINUOUS
 62
     6
 10
201.091085
 20
85.588550
 11
200.908824
 21
85.454011
  0
LINE
  8
CSLAYER1
  6
CONTINUOUS
 62
     6
 10
200.908824
 20
85.454011
 11
200.735087
 21
85.312298
  0
LINE
  8
CSLAYER1
  6
CONTINUOUS
 62
     6
 10
200.735087
 20
85.312298
 11
200.627701
 21
85.216629
  0
LINE
  8
CSLAYER1
  6
CONTINUOUS
 62
     6
 10
200.627701
 20
85.216629
 11
200.523358
 21
85.117332
  0
LINE
  8
CSLAYER1
  6
CONTINUOUS
 62
     6
 10
200.523358
 20
85.117332
 11
200.421752
 21
85.014771
  0
LINE
  8
CSLAYER1
  6
CONTINUOUS
 62
     6
 10
200.421752
 20
85.014771
 11
200.322580
 21
84.909308
  0
LINE
  8
CSLAYER1
  6
CONTINUOUS
 62
     6
 10
200.322580
 20
84.909308
 11
200.225538
 21
84.801305
  0
LINE
  8
CSLAYER1
  6
CONTINUOUS
 62
     6
 10
200.225538
 20
84.801305
 11
200.130321
 21
84.691126
  0
LINE
  8
CSLAYER1
  6
CONTINUOUS
 62
     6
 10
200.130321
 20
84.691126
 11
200.036626
 21
84.579134
  0
LINE
  8
CSLAYER1
  6
CONTINUOUS
 62
     6
 10
200.036626
 20
84.579134
 11
199.944147
 21
84.465691
  0
LINE
  8
CSLAYER1
  6
CONTINUOUS
 62
     6
 10
199.944147
 20
84.465691
 11
199.852581
 21
84.351159
  0
LINE
  8
CSLAYER1
  6
CONTINUOUS
 62
     6
 10
199.852581
 20
84.351159
 11
199.761623
 21
84.235902
  0
LINE
  8
CSLAYER1
  6
CONTINUOUS
 62
     6
 10
199.761623
 20
84.235902
 11
199.670970
 21
84.120282
  0
ARC
  8
CSLAYER1
  6
CONTINUOUS
 62
     6
 10
200.426029
 20
84.369190
 40
0.794997
 50
198.245911
 51
258.245911
  0
ARC
  8
CSLAYER1
  6
CONTINUOUS
 62
     6
 10
200.102129
 20
82.812536
 40
0.794997
 50
18.245911
 51
78.245911
  0
ARC
  8
CSLAYER1
  6
CONTINUOUS
 62
     6
 10
201.019105
 20
83.839773
 40
0.794997
 50
198.245911
 51
258.245911
  0
LINE
  8
CSLAYER1
  6
CONTINUOUS
 62
     6
 10
200.857127
 20
83.061444
 11
200.932476
 21
83.157302
  0
LINE
  8
CSLAYER1
  6
CONTINUOUS
 62
     6
 10
200.932476
 20
83.157302
 11
201.008071
 21
83.252864
  0
LINE
  8
CSLAYER1
  6
CONTINUOUS
 62
     6
 10
201.008071
 20
83.252864
 11
201.084161
 21
83.347834
  0
LINE
  8
CSLAYER1
  6
CONTINUOUS
 62
     6
 10
201.084161
 20
83.347834
 11
201.160993
 21
83.441919
  0
LINE
  8
CSLAYER1
  6
CONTINUOUS
 62
     6
 10
201.160993
 20
83.441919
 11
201.238813
 21
83.534821
  0
LINE
  8
CSLAYER1
  6
CONTINUOUS
 62
     6
 10
201.238813
 20
83.534821
 11
201.317869
 21
83.626245
  0
LINE
  8
CSLAYER1
  6
CONTINUOUS
 62
     6
 10
201.317869
 20
83.626245
 11
201.398407
 21
83.715896
  0
LINE
  8
CSLAYER1
  6
CONTINUOUS
 62
     6
 10
201.398407
 20
83.715896
 11
201.480676
 21
83.803477
  0
LINE
  8
CSLAYER1
  6
CONTINUOUS
 62
     6
 10
201.480676
 20
83.803477
 11
201.564923
 21
83.888695
  0
LINE
  8
CSLAYER1
  6
CONTINUOUS
 62
     6
 10
201.564923
 20
83.888695
 11
201.651394
 21
83.971252
  0
LINE
  8
CSLAYER1
  6
CONTINUOUS
 62
     6
 10
201.651394
 20
83.971252
 11
201.740336
 21
84.050854
  0
LINE
  8
CSLAYER1
  6
CONTINUOUS
 62
     6
 10
201.740336
 20
84.050854
 11
201.889506
 21
84.173096
  0
LINE
  8
CSLAYER1
  6
CONTINUOUS
 62
     6
 10
201.889506
 20
84.173096
 11
202.046198
 21
84.289178
  0
LINE
  8
CSLAYER1
  6
CONTINUOUS
 62
     6
 10
202.046198
 20
84.289178
 11
202.209272
 21
84.399238
  0
LINE
  8
CSLAYER1
  6
CONTINUOUS
 62
     6
 10
202.209272
 20
84.399238
 11
202.377586
 21
84.503413
  0
LINE
  8
CSLAYER1
  6
CONTINUOUS
 62
     6
 10
202.377586
 20
84.503413
 11
202.549999
 21
84.601843
  0
LINE
  8
CSLAYER1
  6
CONTINUOUS
 62
     6
 10
202.549999
 20
84.601843
 11
202.725370
 21
84.694664
  0
LINE
  8
CSLAYER1
  6
CONTINUOUS
 62
     6
 10
202.725370
 20
84.694664
 11
202.902557
 21
84.782015
  0
LINE
  8
CSLAYER1
  6
CONTINUOUS
 62
     6
 10
202.902557
 20
84.782015
 11
203.080418
 21
84.864034
  0
LINE
  8
CSLAYER1
  6
CONTINUOUS
 62
     6
 10
203.080418
 20
84.864034
 11
203.257813
 21
84.940859
  0
LINE
  8
CSLAYER1
  6
CONTINUOUS
 62
     6
 10
203.257813
 20
84.940859
 11
203.433601
 21
85.012629
  0
LINE
  8
CSLAYER1
  6
CONTINUOUS
 62
     6
 10
203.433601
 20
85.012629
 11
203.606639
 21
85.079480
  0
LINE
  8
CSLAYER1
  6
CONTINUOUS
 62
     6
 10
203.606639
 20
85.079480
 11
203.735342
 21
85.129151
  0
LINE
  8
CSLAYER1
  6
CONTINUOUS
 62
     6
 10
203.735342
 20
85.129151
 11
203.866754
 21
85.182119
  0
LINE
  8
CSLAYER1
  6
CONTINUOUS
 62
     6
 10
203.866754
 20
85.182119
 11
204.000187
 21
85.237781
  0
LINE
  8
CSLAYER1
  6
CONTINUOUS
 62
     6
 10
204.000187
 20
85.237781
 11
204.134954
 21
85.295538
  0
LINE
  8
CSLAYER1
  6
CONTINUOUS
 62
     6
 10
204.134954
 20
85.295538
 11
204.270367
 21
85.354790
  0
LINE
  8
CSLAYER1
  6
CONTINUOUS
 62
     6
 10
204.270367
 20
85.354790
 11
204.405739
 21
85.414935
  0
LINE
  8
CSLAYER1
  6
CONTINUOUS
 62
     6
 10
204.405739
 20
85.414935
 11
204.540381
 21
85.475374
  0
LINE
  8
CSLAYER1
  6
CONTINUOUS
 62
     6
 10
204.540381
 20
85.475374
 11
204.673606
 21
85.535505
  0
LINE
  8
CSLAYER1
  6
CONTINUOUS
 62
     6
 10
204.673606
 20
85.535505
 11
204.804726
 21
85.594728
  0
LINE
  8
CSLAYER1
  6
CONTINUOUS
 62
     6
 10
204.804726
 20
85.594728
 11
204.933054
 21
85.652444
  0
LINE
  8
CSLAYER1
  6
CONTINUOUS
 62
     6
 10
204.933054
 20
85.652444
 11
205.057902
 21
85.708050
  0
LINE
  8
CSLAYER1
  6
CONTINUOUS
 62
     6
 10
205.057902
 20
85.708050
 11
205.180926
 21
85.763516
  0
LINE
  8
CSLAYER1
  6
CONTINUOUS
 62
     6
 10
205.180926
 20
85.763516
 11
205.308255
 21
85.822832
  0
LINE
  8
CSLAYER1
  6
CONTINUOUS
 62
     6
 10
205.308255
 20
85.822832
 11
205.438657
 21
85.885218
  0
LINE
  8
CSLAYER1
  6
CONTINUOUS
 62
     6
 10
205.438657
 20
85.885218
 11
205.570899
 21
85.949897
  0
LINE
  8
CSLAYER1
  6
CONTINUOUS
 62
     6
 10
205.570899
 20
85.949897
 11
205.703750
 21
86.016090
  0
LINE
  8
CSLAYER1
  6
CONTINUOUS
 62
     6
 10
205.703750
 20
86.016090
 11
205.835976
 21
86.083018
  0
LINE
  8
CSLAYER1
  6
CONTINUOUS
 62
     6
 10
205.835976
 20
86.083018
 11
205.966347
 21
86.149903
  0
LINE
  8
CSLAYER1
  6
CONTINUOUS
 62
     6
 10
205.966347
 20
86.149903
 11
206.093629
 21
86.215966
  0
LINE
  8
CSLAYER1
  6
CONTINUOUS
 62
     6
 10
206.093629
 20
86.215966
 11
206.216590
 21
86.280429
  0
LINE
  8
CSLAYER1
  6
CONTINUOUS
 62
     6
 10
206.216590
 20
86.280429
 11
206.333998
 21
86.342513
  0
LINE
  8
CSLAYER1
  6
CONTINUOUS
 62
     6
 10
206.333998
 20
86.342513
 11
206.444621
 21
86.401440
  0
ARC
  8
CSLAYER1
  6
CONTINUOUS
 62
     6
 10
206.089030
 20
87.112530
 40
0.795000
 50
-63.433378
 51
116.566642
  0
LINE
  8
CSLAYER1
  6
CONTINUOUS
 62
     6
 10
205.733500
 20
87.823590
 11
205.625706
 21
87.766267
  0
LINE
  8
CSLAYER1
  6
CONTINUOUS
 62
     6
 10
205.625706
 20
87.766267
 11
205.511521
 21
87.705998
  0
LINE
  8
CSLAYER1
  6
CONTINUOUS
 62
     6
 10
205.511521
 20
87.705998
 11
205.392092
 21
87.643501
  0
LINE
  8
CSLAYER1
  6
CONTINUOUS
 62
     6
 10
205.392092
 20
87.643501
 11
205.268568
 21
87.579496
  0
LINE
  8
CSLAYER1
  6
CONTINUOUS
 62
     6
 10
205.268568
 20
87.579496
 11
205.142097
 21
87.514702
  0
LINE
  8
CSLAYER1
  6
CONTINUOUS
 62
     6
 10
205.142097
 20
87.514702
 11
205.013828
 21
87.449837
  0
LINE
  8
CSLAYER1
  6
CONTINUOUS
 62
     6
 10
205.013828
 20
87.449837
 11
204.884909
 21
87.385622
  0
LINE
  8
CSLAYER1
  6
CONTINUOUS
 62
     6
 10
204.884909
 20
87.385622
 11
204.756487
 21
87.322776
  0
LINE
  8
CSLAYER1
  6
CONTINUOUS
 62
     6
 10
204.756487
 20
87.322776
 11
204.629712
 21
87.262017
  0
LINE
  8
CSLAYER1
  6
CONTINUOUS
 62
     6
 10
204.629712
 20
87.262017
 11
204.505731
 21
87.204066
  0
LINE
  8
CSLAYER1
  6
CONTINUOUS
 62
     6
 10
204.505731
 20
87.204066
 11
204.385692
 21
87.149640
  0
LINE
  8
CSLAYER1
  6
CONTINUOUS
 62
     6
 10
204.385692
 20
87.149640
 11
204.257845
 21
87.092413
  0
LINE
  8
CSLAYER1
  6
CONTINUOUS
 62
     6
 10
204.257845
 20
87.092413
 11
204.126714
 21
87.033341
  0
LINE
  8
CSLAYER1
  6
CONTINUOUS
 62
     6
 10
204.126714
 20
87.033341
 11
203.992945
 21
86.972968
  0
LINE
  8
CSLAYER1
  6
CONTINUOUS
 62
     6
 10
203.992945
 20
86.972968
 11
203.857184
 21
86.911838
  0
LINE
  8
CSLAYER1
  6
CONTINUOUS
 62
     6
 10
203.857184
 20
86.911838
 11
203.720077
 21
86.850495
  0
LINE
  8
CSLAYER1
  6
CONTINUOUS
 62
     6
 10
203.720077
 20
86.850495
 11
203.582269
 21
86.789483
  0
LINE
  8
CSLAYER1
  6
CONTINUOUS
 62
     6
 10
203.582269
 20
86.789483
 11
203.444406
 21
86.729347
  0
LINE
  8
CSLAYER1
  6
CONTINUOUS
 62
     6
 10
203.444406
 20
86.729347
 11
203.307133
 21
86.670630
  0
LINE
  8
CSLAYER1
  6
CONTINUOUS
 62
     6
 10
203.307133
 20
86.670630
 11
203.171096
 21
86.613876
  0
LINE
  8
CSLAYER1
  6
CONTINUOUS
 62
     6
 10
203.171096
 20
86.613876
 11
203.036942
 21
86.559630
  0
LINE
  8
CSLAYER1
  6
CONTINUOUS
 62
     6
 10
203.036942
 20
86.559630
 11
202.905314
 21
86.508435
  0
LINE
  8
CSLAYER1
  6
CONTINUOUS
 62
     6
 10
202.905314
 20
86.508435
 11
202.703524
 21
86.429768
  0
LINE
  8
CSLAYER1
  6
CONTINUOUS
 62
     6
 10
202.703524
 20
86.429768
 11
202.498821
 21
86.345667
  0
LINE
  8
CSLAYER1
  6
CONTINUOUS
 62
     6
 10
202.498821
 20
86.345667
 11
202.292476
 21
86.255938
  0
LINE
  8
CSLAYER1
  6
CONTINUOUS
 62
     6
 10
202.292476
 20
86.255938
 11
202.085760
 21
86.160387
  0
ARC
  8
CSLAYER1
  6
CONTINUOUS
 62
     6
 10
205.885661
 20
86.159123
 40
4.000000
 50
90.000000
 51
181.434347
  0
LINE
  8
CSLAYER1
  6
CONTINUOUS
 62
     6
 10
205.885661
 20
90.159123
 11
226.885661
 21
90.159123
  0
LINE
  8
CSLAYER1
  6
CONTINUOUS
 62
     6
 10
227.096475
 20
89.189968
 11
227.356002
 21
89.280174
  0
LINE
  8
CSLAYER1
  6
CONTINUOUS
 62
     6
 10
227.356002
 20
89.280174
 11
227.616459
 21
89.365102
  0
LINE
  8
CSLAYER1
  6
CONTINUOUS
 62
     6
 10
227.616459
 20
89.365102
 11
227.878000
 21
89.443871
  0
LINE
  8
CSLAYER1
  6
CONTINUOUS
 62
     6
 10
227.878000
 20
89.443871
 11
228.140781
 21
89.515603
  0
LINE
  8
CSLAYER1
  6
CONTINUOUS
 62
     6
 10
228.140781
 20
89.515603
 11
228.404955
 21
89.579417
  0
LINE
  8
CSLAYER1
  6
CONTINUOUS
 62
     6
 10
228.404955
 20
89.579417
 11
228.670679
 21
89.634434
  0
LINE
  8
CSLAYER1
  6
CONTINUOUS
 62
     6
 10
228.670679
 20
89.634434
 11
229.088259
 21
89.702092
  0
LINE
  8
CSLAYER1
  6
CONTINUOUS
 62
     6
 10
229.088259
 20
89.702092
 11
229.512997
 21
89.749986
  0
LINE
  8
CSLAYER1
  6
CONTINUOUS
 62
     6
 10
229.512997
 20
89.749986
 11
229.943000
 21
89.779630
  0
LINE
  8
CSLAYER1
  6
CONTINUOUS
 62
     6
 10
229.943000
 20
89.779630
 11
230.376373
 21
89.792539
  0
LINE
  8
CSLAYER1
  6
CONTINUOUS
 62
     6
 10
230.376373
 20
89.792539
 11
230.811222
 21
89.790227
  0
LINE
  8
CSLAYER1
  6
CONTINUOUS
 62
     6
 10
230.811222
 20
89.790227
 11
231.245655
 21
89.774210
  0
LINE
  8
CSLAYER1
  6
CONTINUOUS
 62
     6
 10
231.245655
 20
89.774210
 11
231.677777
 21
89.746001
  0
LINE
  8
CSLAYER1
  6
CONTINUOUS
 62
     6
 10
231.677777
 20
89.746001
 11
232.105695
 21
89.707117
  0
LINE
  8
CSLAYER1
  6
CONTINUOUS
 62
     6
 10
232.105695
 20
89.707117
 11
232.527514
 21
89.659070
  0
LINE
  8
CSLAYER1
  6
CONTINUOUS
 62
     6
 10
232.527514
 20
89.659070
 11
232.941342
 21
89.603377
  0
LINE
  8
CSLAYER1
  6
CONTINUOUS
 62
     6
 10
232.941342
 20
89.603377
 11
233.345283
 21
89.541550
  0
LINE
  8
CSLAYER1
  6
CONTINUOUS
 62
     6
 10
233.345283
 20
89.541550
 11
233.608661
 21
89.501026
  0
LINE
  8
CSLAYER1
  6
CONTINUOUS
 62
     6
 10
233.608661
 20
89.501026
 11
233.879047
 21
89.463104
  0
LINE
  8
CSLAYER1
  6
CONTINUOUS
 62
     6
 10
233.879047
 20
89.463104
 11
234.154873
 21
89.427504
  0
LINE
  8
CSLAYER1
  6
CONTINUOUS
 62
     6
 10
234.154873
 20
89.427504
 11
234.434572
 21
89.393946
  0
LINE
  8
CSLAYER1
  6
CONTINUOUS
 62
     6
 10
234.434572
 20
89.393946
 11
234.716574
 21
89.362150
  0
LINE
  8
CSLAYER1
  6
CONTINUOUS
 62
     6
 10
234.716574
 20
89.362150
 11
234.999312
 21
89.331836
  0
LINE
  8
CSLAYER1
  6
CONTINUOUS
 62
     6
 10
234.999312
 20
89.331836
 11
235.281218
 21
89.302725
  0
LINE
  8
CSLAYER1
  6
CONTINUOUS
 62
     6
 10
235.281218
 20
89.302725
 11
235.560722
 21
89.274535
  0
LINE
  8
CSLAYER1
  6
CONTINUOUS
 62
     6
 10
235.560722
 20
89.274535
 11
235.836257
 21
89.246989
  0
LINE
  8
CSLAYER1
  6
CONTINUOUS
 62
     6
 10
235.836257
 20
89.246989
 11
236.106255
 21
89.219805
  0
LINE
  8
CSLAYER1
  6
CONTINUOUS
 62
     6
 10
236.106255
 20
89.219805
 11
236.369147
 21
89.192703
  0
LINE
  8
CSLAYER1
  6
CONTINUOUS
 62
     6
 10
236.369147
 20
89.192703
 11
236.616635
 21
89.168391
  0
LINE
  8
CSLAYER1
  6
CONTINUOUS
 62
     6
 10
236.616635
 20
89.168391
 11
236.873893
 21
89.146122
  0
LINE
  8
CSLAYER1
  6
CONTINUOUS
 62
     6
 10
236.873893
 20
89.146122
 11
237.138365
 21
89.125803
  0
LINE
  8
CSLAYER1
  6
CONTINUOUS
 62
     6
 10
237.138365
 20
89.125803
 11
237.407496
 21
89.107342
  0
LINE
  8
CSLAYER1
  6
CONTINUOUS
 62
     6
 10
237.407496
 20
89.107342
 11
237.678732
 21
89.090647
  0
LINE
  8
CSLAYER1
  6
CONTINUOUS
 62
     6
 10
237.678732
 20
89.090647
 11
237.949518
 21
89.075628
  0
LINE
  8
CSLAYER1
  6
CONTINUOUS
 62
     6
 10
237.949518
 20
89.075628
 11
238.217299
 21
89.062190
  0
LINE
  8
CSLAYER1
  6
CONTINUOUS
 62
     6
 10
238.217299
 20
89.062190
 11
238.479521
 21
89.050243
  0
LINE
  8
CSLAYER1
  6
CONTINUOUS
 62
     6
 10
238.479521
 20
89.050243
 11
238.733628
 21
89.039695
  0
LINE
  8
CSLAYER1
  6
CONTINUOUS
 62
     6
 10
238.733628
 20
89.039695
 11
238.977066
 21
89.030454
  0
LINE
  8
CSLAYER1
  6
CONTINUOUS
 62
     6
 10
238.977066
 20
89.030454
 11
239.207280
 21
89.022427
  0
ARC
  8
CSLAYER1
  6
CONTINUOUS
 62
     6
 10
239.117409
 20
87.525142
 40
1.500000
 50
-93.433378
 51
86.566642
  0
LINE
  8
CSLAYER1
  6
CONTINUOUS
 62
     6
 10
239.027608
 20
86.027751
 11
238.791258
 21
86.035825
  0
LINE
  8
CSLAYER1
  6
CONTINUOUS
 62
     6
 10
238.791258
 20
86.035825
 11
238.540841
 21
86.045141
  0
LINE
  8
CSLAYER1
  6
CONTINUOUS
 62
     6
 10
238.540841
 20
86.045141
 11
238.279107
 21
86.055809
  0
LINE
  8
CSLAYER1
  6
CONTINUOUS
 62
     6
 10
238.279107
 20
86.055809
 11
238.008804
 21
86.067939
  0
LINE
  8
CSLAYER1
  6
CONTINUOUS
 62
     6
 10
238.008804
 20
86.067939
 11
237.732678
 21
86.081639
  0
LINE
  8
CSLAYER1
  6
CONTINUOUS
 62
     6
 10
237.732678
 20
86.081639
 11
237.453479
 21
86.097020
  0
LINE
  8
CSLAYER1
  6
CONTINUOUS
 62
     6
 10
237.453479
 20
86.097020
 11
237.173954
 21
86.114192
  0
LINE
  8
CSLAYER1
  6
CONTINUOUS
 62
     6
 10
237.173954
 20
86.114192
 11
236.896851
 21
86.133263
  0
LINE
  8
CSLAYER1
  6
CONTINUOUS
 62
     6
 10
236.896851
 20
86.133263
 11
236.624918
 21
86.154343
  0
LINE
  8
CSLAYER1
  6
CONTINUOUS
 62
     6
 10
236.624918
 20
86.154343
 11
236.360903
 21
86.177542
  0
LINE
  8
CSLAYER1
  6
CONTINUOUS
 62
     6
 10
236.360903
 20
86.177542
 11
236.107554
 21
86.202970
  0
LINE
  8
CSLAYER1
  6
CONTINUOUS
 62
     6
 10
236.107554
 20
86.202970
 11
235.851092
 21
86.229890
  0
LINE
  8
CSLAYER1
  6
CONTINUOUS
 62
     6
 10
235.851092
 20
86.229890
 11
235.586954
 21
86.256647
  0
LINE
  8
CSLAYER1
  6
CONTINUOUS
 62
     6
 10
235.586954
 20
86.256647
 11
235.316831
 21
86.283573
  0
LINE
  8
CSLAYER1
  6
CONTINUOUS
 62
     6
 10
235.316831
 20
86.283573
 11
235.042413
 21
86.311002
  0
LINE
  8
CSLAYER1
  6
CONTINUOUS
 62
     6
 10
235.042413
 20
86.311002
 11
234.765389
 21
86.339266
  0
LINE
  8
CSLAYER1
  6
CONTINUOUS
 62
     6
 10
234.765389
 20
86.339266
 11
234.487450
 21
86.368697
  0
LINE
  8
CSLAYER1
  6
CONTINUOUS
 62
     6
 10
234.487450
 20
86.368697
 11
234.210286
 21
86.399627
  0
LINE
  8
CSLAYER1
  6
CONTINUOUS
 62
     6
 10
234.210286
 20
86.399627
 11
233.935588
 21
86.432390
  0
LINE
  8
CSLAYER1
  6
CONTINUOUS
 62
     6
 10
233.935588
 20
86.432390
 11
233.665044
 21
86.467317
  0
LINE
  8
CSLAYER1
  6
CONTINUOUS
 62
     6
 10
233.665044
 20
86.467317
 11
233.400347
 21
86.504742
  0
LINE
  8
CSLAYER1
  6
CONTINUOUS
 62
     6
 10
233.400347
 20
86.504742
 11
233.143185
 21
86.544996
  0
LINE
  8
CSLAYER1
  6
CONTINUOUS
 62
     6
 10
233.143185
 20
86.544996
 11
232.797371
 21
86.599004
  0
LINE
  8
CSLAYER1
  6
CONTINUOUS
 62
     6
 10
232.797371
 20
86.599004
 11
232.442426
 21
86.647570
  0
LINE
  8
CSLAYER1
  6
CONTINUOUS
 62
     6
 10
232.442426
 20
86.647570
 11
232.080084
 21
86.689390
  0
LINE
  8
CSLAYER1
  6
CONTINUOUS
 62
     6
 10
232.080084
 20
86.689390
 11
231.712079
 21
86.723164
  0
LINE
  8
CSLAYER1
  6
CONTINUOUS
 62
     6
 10
231.712079
 20
86.723164
 11
231.340148
 21
86.747589
  0
LINE
  8
CSLAYER1
  6
CONTINUOUS
 62
     6
 10
231.340148
 20
86.747589
 11
230.966023
 21
86.761362
  0
LINE
  8
CSLAYER1
  6
CONTINUOUS
 62
     6
 10
230.966023
 20
86.761362
 11
230.591440
 21
86.763181
  0
LINE
  8
CSLAYER1
  6
CONTINUOUS
 62
     6
 10
230.591440
 20
86.763181
 11
230.218134
 21
86.751744
  0
LINE
  8
CSLAYER1
  6
CONTINUOUS
 62
     6
 10
230.218134
 20
86.751744
 11
229.847840
 21
86.725749
  0
LINE
  8
CSLAYER1
  6
CONTINUOUS
 62
     6
 10
229.847840
 20
86.725749
 11
229.482292
 21
86.683893
  0
LINE
  8
CSLAYER1
  6
CONTINUOUS
 62
     6
 10
229.482292
 20
86.683893
 11
229.123225
 21
86.624874
  0
LINE
  8
CSLAYER1
  6
CONTINUOUS
 62
     6
 10
229.123225
 20
86.624874
 11
228.902796
 21
86.578712
  0
LINE
  8
CSLAYER1
  6
CONTINUOUS
 62
     6
 10
228.902796
 20
86.578712
 11
228.683617
 21
86.525388
  0
LINE
  8
CSLAYER1
  6
CONTINUOUS
 62
     6
 10
228.683617
 20
86.525388
 11
228.465564
 21
86.465620
  0
LINE
  8
CSLAYER1
  6
CONTINUOUS
 62
     6
 10
228.465564
 20
86.465620
 11
228.248511
 21
86.400123
  0
LINE
  8
CSLAYER1
  6
CONTINUOUS
 62
     6
 10
228.248511
 20
86.400123
 11
228.032334
 21
86.329612
  0
LINE
  8
CSLAYER1
  6
CONTINUOUS
 62
     6
 10
228.032334
 20
86.329612
 11
227.816906
 21
86.254805
  0
LINE
  8
CSLAYER1
  6
CONTINUOUS
 62
     6
 10
227.816906
 20
86.254805
 11
227.602104
 21
86.176418
  0
LINE
  8
CSLAYER1
  6
CONTINUOUS
 62
     6
 10
227.602104
 20
86.176418
 11
227.387802
 21
86.095166
  0
LINE
  8
CSLAYER1
  6
CONTINUOUS
 62
     6
 10
227.387802
 20
86.095166
 11
227.173875
 21
86.011765
  0
LINE
  8
CSLAYER1
  6
CONTINUOUS
 62
     6
 10
227.173875
 20
86.011765
 11
226.960198
 21
85.926933
  0
LINE
  8
CSLAYER1
  6
CONTINUOUS
 62
     6
 10
226.960198
 20
85.926933
 11
226.746647
 21
85.841384
  0
ARC
  8
CSLAYER1
  6
CONTINUOUS
 62
     6
 10
225.278154
 20
86.146929
 40
1.499994
 50
-11.754089
 51
48.245911
  0
ARC
  8
CSLAYER1
  6
CONTINUOUS
 62
     6
 10
227.275951
 20
88.384950
 40
1.499994
 50
168.245911
 51
228.245911
  0
LINE
  8
CSLAYER1
  6
CONTINUOUS
 62
     6
 10
225.807358
 20
88.690552
 11
226.064562
 21
88.793954
  0
LINE
  8
CSLAYER1
  6
CONTINUOUS
 62
     6
 10
226.064562
 20
88.793954
 11
226.321920
 21
88.896476
  0
LINE
  8
CSLAYER1
  6
CONTINUOUS
 62
     6
 10
226.321920
 20
88.896476
 11
226.579589
 21
88.997239
  0
LINE
  8
CSLAYER1
  6
CONTINUOUS
 62
     6
 10
226.579589
 20
88.997239
 11
226.837722
 21
89.095363
  0
LINE
  8
CSLAYER1
  6
CONTINUOUS
 62
     6
 10
226.837722
 20
89.095363
 11
227.096475
 21
89.189968
  0
LINE
  8
CSLAYER1
  6
CONTINUOUS
 62
     6
 10
226.885661
 20
89.095363
 11
226.885661
 21
131.159123
  0
LINE
  8
CSLAYER1
  6
CONTINUOUS
 62
     6
 10
226.885661
 20
130.159108
 11
229.360087
 21
130.159108
  0
ARC
  8
CSLAYER1
  6
CONTINUOUS
 62
     6
 10
230.786052
 20
130.159108
 40
1.000000
 50
90.000003
 51
173.999998
  0
LINE
  8
CSLAYER1
  6
CONTINUOUS
 62
     6
 10
230.786052
 20
131.159108
 11
266.985210
 21
131.159108
  0
ARC
  8
CSLAYER1
  6
CONTINUOUS
 62
     6
 10
266.985210
 20
130.159108
 40
1.000000
 50
6.000003
 51
90.000016
  0
LINE
  8
CSLAYER1
  6
CONTINUOUS
 62
     6
 10
267.979777
 20
130.263600
 11
268.677409
 21
123.626149
  0
ARC
  8
CSLAYER1
  6
CONTINUOUS
 62
     6
 10
269.671916
 20
123.730641
 40
1.000000
 50
186.000026
 51
270.000001
  0
ARC
  8
CSLAYER1
  6
CONTINUOUS
 62
     6
 10
269.622295
 20
128.202931
 40
1.000000
 50
186.000026
 51
270.000001
  0
LINE
  8
CSLAYER1
  6
CONTINUOUS
 62
     6
 10
268.627727
 20
128.098378
 11
267.979777
 21
134.263600
  0
ARC
  8
CSLAYER1
  6
CONTINUOUS
 62
     6
 10
266.985210
 20
134.159108
 40
1.000000
 50
6.000003
 51
90.000016
  0
LINE
  8
CSLAYER1
  6
CONTINUOUS
 62
     6
 10
266.985210
 20
135.159108
 11
230.786052
 21
135.159108
  0
ARC
  8
CSLAYER1
  6
CONTINUOUS
 62
     6
 10
230.786052
 20
134.159108
 40
1.000000
 50
90.000003
 51
173.999998
  0
LINE
  8
CSLAYER1
  6
CONTINUOUS
 62
     6
 10
229.791545
 20
134.263600
 11
229.143535
 21
128.098378
  0
ARC
  8
CSLAYER1
  6
CONTINUOUS
 62
     6
 10
228.149028
 20
128.202931
 40
1.000000
 50
270.000001
 51
353.999989
  0
LINE
  8
CSLAYER1
  6
CONTINUOUS
 62
     6
 10
229.791545
 20
130.263600
 11
229.093913
 21
123.626149
  0
ARC
  8
CSLAYER1
  6
CONTINUOUS
 62
     6
 10
228.099345
 20
123.730641
 40
1.000000
 50
270.000001
 51
353.999989
  0
LINE
  8
CSLAYER1
  6
CONTINUOUS
 62
     6
 10
232.571635
 20
122.552296
 11
264.528728
 21
122.552296
  0
LINE
  8
CSLAYER1
  6
CONTINUOUS
 62
     6
 10
268.410625
 20
130.159108
 11
269.885661
 21
130.159108
  0
LINE
  8
CSLAYER1
  6
CONTINUOUS
 62
     6
 10
269.885661
 20
131.159123
 11
269.885661
 21
41.159123
  0
LINE
  8
CSLAYER1
  6
CONTINUOUS
 62
     6
 10
269.885661
 20
41.159123
 11
405.885631
 21
41.159123
  0
LINE
  8
CSLAYER1
  6
CONTINUOUS
 62
     6
 10
404.885631
 20
41.159123
 11
404.885631
 21
131.159123
  0
LINE
  8
CSLAYER1
  6
CONTINUOUS
 62
     6
 10
405.885631
 20
131.159123
 11
269.885661
 21
131.159123
  0
ARC
  8
CSLAYER1
  6
CONTINUOUS
 62
     6
 10
246.685649
 20
178.559117
 40
0.100000
 50
270.000001
 51
359.942691
  0
LINE
  8
CSLAYER1
  6
CONTINUOUS
 62
     6
 10
246.785625
 20
178.559117
 11
246.785625
 21
179.059117
  0
ARC
  8
CSLAYER1
  6
CONTINUOUS
 62
     6
 10
246.685649
 20
179.059117
 40
0.100000
 50
0.000010
 51
90.000016
  0
LINE
  8
CSLAYER1
  6
CONTINUOUS
 62
     6
 10
244.481578
 20
178.459141
 11
244.037700
 21
179.159123
  0
LINE
  8
CSLAYER1
  6
CONTINUOUS
 62
     6
 10
243.537700
 20
179.159123
 11
243.981578
 21
178.459141
  0
LINE
  8
CSLAYER1
  6
CONTINUOUS
 62
     6
 10
171.885661
 20
131.159123
 11
171.885661
 21
41.159123
  0
ARC
  8
CSLAYER1
  6
CONTINUOUS
 62
     6
 10
166.764971
 20
46.279839
 40
0.120690
 50
270.000001
 51
359.942691
  0
LINE
  8
CSLAYER1
  6
CONTINUOUS
 62
     6
 10
166.764971
 20
46.159141
 11
166.161522
 21
46.159141
  0
ARC
  8
CSLAYER1
  6
CONTINUOUS
 62
     6
 10
166.161522
 20
46.279839
 40
0.120690
 50
180.000005
 51
270.000001
  0
LINE
  8
CSLAYER1
  6
CONTINUOUS
 62
     6
 10
166.040861
 20
46.279839
 11
166.040861
 21
53.038444
  0
ARC
  8
CSLAYER1
  6
CONTINUOUS
 62
     6
 10
166.161522
 20
53.038444
 40
0.120690
 50
90.000003
 51
180.000005
  0
LINE
  8
CSLAYER1
  6
CONTINUOUS
 62
     6
 10
166.161522
 20
53.159141
 11
166.764971
 21
53.159141
  0
ARC
  8
CSLAYER1
  6
CONTINUOUS
 62
     6
 10
166.764971
 20
53.038444
 40
0.120690
 50
0.000000
 51
90.000003
  0
ARC
  8
CSLAYER1
  6
CONTINUOUS
 62
     6
 10
165.799467
 20
52.714694
 40
0.241380
 50
0.000000
 51
95.000152
  0
LINE
  8
CSLAYER1
  6
CONTINUOUS
 62
     6
 10
165.778399
 20
52.955149
 11
165.018268
 21
52.888650
  0
ARC
  8
CSLAYER1
  6
CONTINUOUS
 62
     6
 10
165.123459
 20
51.686336
 40
1.206899
 50
95.000111
 51
163.742611
  0
ARC
  8
CSLAYER1
  6
CONTINUOUS
 62
     6
 10
172.075357
 20
49.659141
 40
8.448294
 50
163.742994
 51
196.257016
  0
ARC
  8
CSLAYER1
  6
CONTINUOUS
 62
     6
 10
165.123459
 20
47.631946
 40
1.206899
 50
196.257399
 51
264.999892
  0
LINE
  8
CSLAYER1
  6
CONTINUOUS
 62
     6
 10
165.018268
 20
46.429633
 11
165.778399
 21
46.363133
  0
ARC
  8
CSLAYER1
  6
CONTINUOUS
 62
     6
 10
165.799467
 20
46.603589
 40
0.241380
 50
264.999865
 51
359.942691
  0
LINE
  8
CSLAYER1
  6
CONTINUOUS
 62
     6
 10
166.040861
 20
48.939912
 11
166.885669
 21
49.475609
  0
LINE
  8
CSLAYER1
  6
CONTINUOUS
 62
     6
 10
166.885669
 20
50.079059
 11
166.040861
 21
49.543361
  0
LINE
  8
CSLAYER1
  6
CONTINUOUS
 62
     6
 10
166.885661
 20
56.159123
 11
160.885661
 21
56.159123
  0
LINE
  8
CSLAYER1
  6
CONTINUOUS
 62
     6
 10
160.885661
 20
56.159123
 11
160.885661
 21
116.159123
  0
LINE
  8
CSLAYER1
  6
CONTINUOUS
 62
     6
 10
160.885661
 20
116.159123
 11
166.885661
 21
116.159123
  0
LINE
  8
CSLAYER1
  6
CONTINUOUS
 62
     6
 10
166.764971
 20
107.909141
 11
166.161522
 21
107.909141
  0
ARC
  8
CSLAYER1
  6
CONTINUOUS
 62
     6
 10
166.161522
 20
107.788444
 40
0.120690
 50
90.000003
 51
180.000005
  0
LINE
  8
CSLAYER1
  6
CONTINUOUS
 62
     6
 10
166.040861
 20
107.788444
 11
166.040861
 21
101.029839
  0
ARC
  8
CSLAYER1
  6
CONTINUOUS
 62
     6
 10
166.161522
 20
101.029839
 40
0.120690
 50
180.000005
 51
270.000001
  0
LINE
  8
CSLAYER1
  6
CONTINUOUS
 62
     6
 10
166.161522
 20
100.909141
 11
166.764971
 21
100.909141
  0
ARC
  8
CSLAYER1
  6
CONTINUOUS
 62
     6
 10
166.764971
 20
101.029839
 40
0.120690
 50
270.000001
 51
359.942691
  0
ARC
  8
CSLAYER1
  6
CONTINUOUS
 62
     6
 10
165.799467
 20
101.353589
 40
0.241380
 50
264.999865
 51
359.942691
  0
LINE
  8
CSLAYER1
  6
CONTINUOUS
 62
     6
 10
165.778399
 20
101.113133
 11
165.018268
 21
101.179633
  0
ARC
  8
CSLAYER1
  6
CONTINUOUS
 62
     6
 10
165.123459
 20
102.381946
 40
1.206899
 50
196.257399
 51
264.999892
  0
ARC
  8
CSLAYER1
  6
CONTINUOUS
 62
     6
 10
172.075357
 20
104.409141
 40
8.448294
 50
163.742994
 51
196.257016
  0
ARC
  8
CSLAYER1
  6
CONTINUOUS
 62
     6
 10
165.123459
 20
106.436336
 40
1.206899
 50
95.000111
 51
163.742611
  0
LINE
  8
CSLAYER1
  6
CONTINUOUS
 62
     6
 10
165.018268
 20
107.638650
 11
165.778399
 21
107.705149
  0
ARC
  8
CSLAYER1
  6
CONTINUOUS
 62
     6
 10
165.799467
 20
107.464694
 40
0.241380
 50
0.000000
 51
95.000152
  0
ARC
  8
CSLAYER1
  6
CONTINUOUS
 62
     6
 10
166.764971
 20
107.788444
 40
0.120690
 50
0.000000
 51
90.000003
  0
LINE
  8
CSLAYER1
  6
CONTINUOUS
 62
     6
 10
166.885669
 20
104.829059
 11
166.040861
 21
104.293361
  0
LINE
  8
CSLAYER1
  6
CONTINUOUS
 62
     6
 10
166.040861
 20
103.689912
 11
166.885669
 21
104.225609
  0
LINE
  8
CSLAYER1
  6
CONTINUOUS
 62
     6
 10
164.488741
 20
101.355429
 11
164.185649
 21
101.163243
  0
LINE
  8
CSLAYER1
  6
CONTINUOUS
 62
     6
 10
160.885661
 20
101.159123
 11
144.585661
 21
101.159123
  0
ARC
  8
CSLAYER1
  6
CONTINUOUS
 62
     6
 10
144.585661
 20
99.159123
 40
2.000000
 50
90.000000
 51
180.000000
  0
LINE
  8
CSLAYER1
  6
CONTINUOUS
 62
     6
 10
142.585661
 20
99.159123
 11
142.585661
 21
73.159123
  0
ARC
  8
CSLAYER1
  6
CONTINUOUS
 62
     6
 10
144.585661
 20
73.159123
 40
2.000000
 50
180.000000
 51
270.000000
  0
LINE
  8
CSLAYER1
  6
CONTINUOUS
 62
     6
 10
144.585661
 20
71.159123
 11
160.885661
 21
71.159123
  0
LINE
  8
CSLAYER1
  6
CONTINUOUS
 62
     6
 10
160.885661
 20
73.659123
 11
157.885661
 21
73.659123
  0
LINE
  8
CSLAYER1
  6
CONTINUOUS
 62
     6
 10
157.885661
 20
73.659123
 11
157.885661
 21
71.159123
  0
LINE
  8
CSLAYER1
  6
CONTINUOUS
 62
     6
 10
157.885661
 20
77.159123
 11
157.885661
 21
95.159123
  0
LINE
  8
CSLAYER1
  6
CONTINUOUS
 62
     6
 10
157.885661
 20
95.159123
 11
160.885661
 21
95.159123
  0
LINE
  8
CSLAYER1
  6
CONTINUOUS
 62
     6
 10
157.885661
 20
93.409123
 11
150.785661
 21
93.409123
  0
LINE
  8
CSLAYER1
  6
CONTINUOUS
 62
     6
 10
150.785661
 20
93.409123
 11
150.785661
 21
78.909123
  0
LINE
  8
CSLAYER1
  6
CONTINUOUS
 62
     6
 10
150.785661
 20
78.909123
 11
157.885661
 21
78.909123
  0
LINE
  8
CSLAYER1
  6
CONTINUOUS
 62
     6
 10
157.885661
 20
77.159123
 11
160.885661
 21
77.159123
  0
LINE
  8
CSLAYER1
  6
CONTINUOUS
 62
     6
 10
155.205661
 20
80.759123
 11
154.565661
 21
80.759123
  0
LINE
  8
CSLAYER1
  6
CONTINUOUS
 62
     6
 10
154.565661
 20
80.759123
 11
154.565661
 21
81.399123
  0
LINE
  8
CSLAYER1
  6
CONTINUOUS
 62
     6
 10
154.565661
 20
81.399123
 11
155.205661
 21
81.399123
  0
LINE
  8
CSLAYER1
  6
CONTINUOUS
 62
     6
 10
155.205661
 20
81.399123
 11
155.205661
 21
80.759123
  0
LINE
  8
CSLAYER1
  6
CONTINUOUS
 62
     6
 10
155.205661
 20
83.299123
 11
154.565661
 21
83.299123
  0
LINE
  8
CSLAYER1
  6
CONTINUOUS
 62
     6
 10
154.565661
 20
83.299123
 11
154.565661
 21
83.939123
  0
LINE
  8
CSLAYER1
  6
CONTINUOUS
 62
     6
 10
154.565661
 20
83.939123
 11
155.205661
 21
83.939123
  0
LINE
  8
CSLAYER1
  6
CONTINUOUS
 62
     6
 10
155.205661
 20
83.939123
 11
155.205661
 21
83.299123
  0
LINE
  8
CSLAYER1
  6
CONTINUOUS
 62
     6
 10
155.205661
 20
85.839123
 11
154.565661
 21
85.839123
  0
LINE
  8
CSLAYER1
  6
CONTINUOUS
 62
     6
 10
154.565661
 20
85.839123
 11
154.565661
 21
86.479123
  0
LINE
  8
CSLAYER1
  6
CONTINUOUS
 62
     6
 10
154.565661
 20
86.479123
 11
155.205661
 21
86.479123
  0
LINE
  8
CSLAYER1
  6
CONTINUOUS
 62
     6
 10
155.205661
 20
86.479123
 11
155.205661
 21
85.839123
  0
LINE
  8
CSLAYER1
  6
CONTINUOUS
 62
     6
 10
155.205661
 20
88.379123
 11
155.205661
 21
89.019123
  0
LINE
  8
CSLAYER1
  6
CONTINUOUS
 62
     6
 10
155.205661
 20
89.019123
 11
154.565661
 21
89.019123
  0
LINE
  8
CSLAYER1
  6
CONTINUOUS
 62
     6
 10
154.565661
 20
89.019123
 11
154.565661
 21
88.379123
  0
LINE
  8
CSLAYER1
  6
CONTINUOUS
 62
     6
 10
154.565661
 20
88.379123
 11
155.205661
 21
88.379123
  0
LINE
  8
CSLAYER1
  6
CONTINUOUS
 62
     6
 10
155.205661
 20
90.919123
 11
155.205661
 21
91.559123
  0
LINE
  8
CSLAYER1
  6
CONTINUOUS
 62
     6
 10
155.205661
 20
91.559123
 11
154.565661
 21
91.559123
  0
LINE
  8
CSLAYER1
  6
CONTINUOUS
 62
     6
 10
154.565661
 20
91.559123
 11
154.565661
 21
90.919123
  0
LINE
  8
CSLAYER1
  6
CONTINUOUS
 62
     6
 10
154.565661
 20
90.919123
 11
155.205661
 21
90.919123
  0
LINE
  8
CSLAYER1
  6
CONTINUOUS
 62
     6
 10
157.885661
 20
98.659123
 11
160.885661
 21
98.659123
  0
LINE
  8
CSLAYER1
  6
CONTINUOUS
 62
     6
 10
157.885661
 20
98.659123
 11
157.885661
 21
101.159123
  0
LINE
  8
CSLAYER1
  6
CONTINUOUS
 62
     6
 10
198.434789
 20
82.143418
 11
198.389796
 21
82.047479
  0
LINE
  8
CSLAYER1
  6
CONTINUOUS
 62
     6
 10
198.389796
 20
82.047479
 11
198.346793
 21
81.952803
  0
LINE
  8
CSLAYER1
  6
CONTINUOUS
 62
     6
 10
198.346793
 20
81.952803
 11
198.306072
 21
81.860386
  0
LINE
  8
CSLAYER1
  6
CONTINUOUS
 62
     6
 10
198.306072
 20
81.860386
 11
198.267924
 21
81.771222
  0
LINE
  8
CSLAYER1
  6
CONTINUOUS
 62
     6
 10
198.267924
 20
81.771222
 11
198.232558
 21
81.681905
  0
LINE
  8
CSLAYER1
  6
CONTINUOUS
 62
     6
 10
198.232558
 20
81.681905
 11
198.200089
 21
81.589032
  0
LINE
  8
CSLAYER1
  6
CONTINUOUS
 62
     6
 10
198.200089
 20
81.589032
 11
198.170456
 21
81.493100
  0
LINE
  8
CSLAYER1
  6
CONTINUOUS
 62
     6
 10
198.170456
 20
81.493100
 11
198.143598
 21
81.394603
  0
LINE
  8
CSLAYER1
  6
CONTINUOUS
 62
     6
 10
198.143598
 20
81.394603
 11
198.119454
 21
81.294036
  0
LINE
  8
CSLAYER1
  6
CONTINUOUS
 62
     6
 10
198.119454
 20
81.294036
 11
198.097964
 21
81.191897
  0
LINE
  8
CSLAYER1
  6
CONTINUOUS
 62
     6
 10
198.097964
 20
81.191897
 11
198.079066
 21
81.088679
  0
LINE
  8
CSLAYER1
  6
CONTINUOUS
 62
     6
 10
198.079066
 20
81.088679
 11
198.062699
 21
80.984879
  0
LINE
  8
CSLAYER1
  6
CONTINUOUS
 62
     6
 10
198.062699
 20
80.984879
 11
198.048803
 21
80.880992
  0
LINE
  8
CSLAYER1
  6
CONTINUOUS
 62
     6
 10
198.048803
 20
80.880992
 11
198.037316
 21
80.777514
  0
LINE
  8
CSLAYER1
  6
CONTINUOUS
 62
     6
 10
198.037316
 20
80.777514
 11
198.028178
 21
80.674939
  0
LINE
  8
CSLAYER1
  6
CONTINUOUS
 62
     6
 10
198.028178
 20
80.674939
 11
198.021241
 21
80.571224
  0
LINE
  8
CSLAYER1
  6
CONTINUOUS
 62
     6
 10
198.021241
 20
80.571224
 11
198.016524
 21
80.467494
  0
LINE
  8
CSLAYER1
  6
CONTINUOUS
 62
     6
 10
198.016524
 20
80.467494
 11
198.013804
 21
80.363752
  0
LINE
  8
CSLAYER1
  6
CONTINUOUS
 62
     6
 10
198.013804
 20
80.363752
 11
198.012861
 21
80.259998
  0
LINE
  8
CSLAYER1
  6
CONTINUOUS
 62
     6
 10
198.012861
 20
80.259998
 11
198.013471
 21
80.156234
  0
LINE
  8
CSLAYER1
  6
CONTINUOUS
 62
     6
 10
198.013471
 20
80.156234
 11
198.015413
 21
80.052461
  0
LINE
  8
CSLAYER1
  6
CONTINUOUS
 62
     6
 10
198.015413
 20
80.052461
 11
198.018465
 21
79.948682
  0
LINE
  8
CSLAYER1
  6
CONTINUOUS
 62
     6
 10
198.018465
 20
79.948682
 11
198.022405
 21
79.844896
  0
LINE
  8
CSLAYER1
  6
CONTINUOUS
 62
     6
 10
198.022405
 20
79.844896
 11
198.027011
 21
79.741106
  0
LINE
  8
CSLAYER1
  6
CONTINUOUS
 62
     6
 10
198.027011
 20
79.741106
 11
198.032061
 21
79.637314
  0
LINE
  8
CSLAYER1
  6
CONTINUOUS
 62
     6
 10
198.032061
 20
79.637314
 11
198.037333
 21
79.533520
  0
ARC
  8
CSLAYER1
  6
CONTINUOUS
 62
     6
 10
198.429287
 20
80.225196
 40
0.794999
 50
240.461270
 51
300.461270
  0
ARC
  8
CSLAYER1
  6
CONTINUOUS
 62
     6
 10
199.235346
 20
78.854662
 40
0.794999
 50
60.461270
 51
120.461270
  0
LINE
  8
CSLAYER1
  6
CONTINUOUS
 62
     6
 10
199.627299
 20
79.546307
 11
199.622271
 21
79.633953
  0
LINE
  8
CSLAYER1
  6
CONTINUOUS
 62
     6
 10
199.622271
 20
79.633953
 11
199.617460
 21
79.721594
  0
LINE
  8
CSLAYER1
  6
CONTINUOUS
 62
     6
 10
199.617460
 20
79.721594
 11
199.613080
 21
79.809227
  0
LINE
  8
CSLAYER1
  6
CONTINUOUS
 62
     6
 10
199.613080
 20
79.809227
 11
199.609350
 21
79.896846
  0
LINE
  8
CSLAYER1
  6
CONTINUOUS
 62
     6
 10
199.609350
 20
79.896846
 11
199.606483
 21
79.984448
  0
LINE
  8
CSLAYER1
  6
CONTINUOUS
 62
     6
 10
199.606483
 20
79.984448
 11
199.604698
 21
80.072028
  0
LINE
  8
CSLAYER1
  6
CONTINUOUS
 62
     6
 10
199.604698
 20
80.072028
 11
199.604209
 21
80.159581
  0
LINE
  8
CSLAYER1
  6
CONTINUOUS
 62
     6
 10
199.604209
 20
80.159581
 11
199.605234
 21
80.247104
  0
LINE
  8
CSLAYER1
  6
CONTINUOUS
 62
     6
 10
199.605234
 20
80.247104
 11
199.607988
 21
80.334591
  0
LINE
  8
CSLAYER1
  6
CONTINUOUS
 62
     6
 10
199.607988
 20
80.334591
 11
199.612687
 21
80.422038
  0
LINE
  8
CSLAYER1
  6
CONTINUOUS
 62
     6
 10
199.612687
 20
80.422038
 11
199.619548
 21
80.509442
  0
LINE
  8
CSLAYER1
  6
CONTINUOUS
 62
     6
 10
199.619548
 20
80.509442
 11
199.626343
 21
80.576560
  0
LINE
  8
CSLAYER1
  6
CONTINUOUS
 62
     6
 10
199.626343
 20
80.576560
 11
199.634513
 21
80.644243
  0
LINE
  8
CSLAYER1
  6
CONTINUOUS
 62
     6
 10
199.634513
 20
80.644243
 11
199.644100
 21
80.712182
  0
LINE
  8
CSLAYER1
  6
CONTINUOUS
 62
     6
 10
199.644100
 20
80.712182
 11
199.655144
 21
80.780071
  0
LINE
  8
CSLAYER1
  6
CONTINUOUS
 62
     6
 10
199.655144
 20
80.780071
 11
199.667688
 21
80.847601
  0
LINE
  8
CSLAYER1
  6
CONTINUOUS
 62
     6
 10
199.667688
 20
80.847601
 11
199.681771
 21
80.914466
  0
LINE
  8
CSLAYER1
  6
CONTINUOUS
 62
     6
 10
199.681771
 20
80.914466
 11
199.697434
 21
80.980358
  0
LINE
  8
CSLAYER1
  6
CONTINUOUS
 62
     6
 10
199.697434
 20
80.980358
 11
199.714719
 21
81.044968
  0
LINE
  8
CSLAYER1
  6
CONTINUOUS
 62
     6
 10
199.714719
 20
81.044968
 11
199.733667
 21
81.107990
  0
LINE
  8
CSLAYER1
  6
CONTINUOUS
 62
     6
 10
199.733667
 20
81.107990
 11
199.754318
 21
81.169116
  0
LINE
  8
CSLAYER1
  6
CONTINUOUS
 62
     6
 10
199.754318
 20
81.169116
 11
199.776713
 21
81.228039
  0
LINE
  8
CSLAYER1
  6
CONTINUOUS
 62
     6
 10
199.776713
 20
81.228039
 11
199.806856
 21
81.301174
  0
LINE
  8
CSLAYER1
  6
CONTINUOUS
 62
     6
 10
199.806856
 20
81.301174
 11
199.839391
 21
81.376948
  0
LINE
  8
CSLAYER1
  6
CONTINUOUS
 62
     6
 10
199.839391
 20
81.376948
 11
199.874043
 21
81.454516
  0
LINE
  8
CSLAYER1
  6
CONTINUOUS
 62
     6
 10
199.874043
 20
81.454516
 11
199.910537
 21
81.533034
  0
LINE
  8
CSLAYER1
  6
CONTINUOUS
 62
     6
 10
199.910537
 20
81.533034
 11
199.948596
 21
81.611660
  0
LINE
  8
CSLAYER1
  6
CONTINUOUS
 62
     6
 10
199.948596
 20
81.611660
 11
199.987944
 21
81.689549
  0
LINE
  8
CSLAYER1
  6
CONTINUOUS
 62
     6
 10
199.987944
 20
81.689549
 11
200.028306
 21
81.765857
  0
LINE
  8
CSLAYER1
  6
CONTINUOUS
 62
     6
 10
200.028306
 20
81.765857
 11
200.069406
 21
81.839740
  0
LINE
  8
CSLAYER1
  6
CONTINUOUS
 62
     6
 10
200.069406
 20
81.839740
 11
200.110969
 21
81.910354
  0
LINE
  8
CSLAYER1
  6
CONTINUOUS
 62
     6
 10
200.110969
 20
81.910354
 11
200.152718
 21
81.976857
  0
LINE
  8
CSLAYER1
  6
CONTINUOUS
 62
     6
 10
200.152718
 20
81.976857
 11
200.194377
 21
82.038403
  0
ARC
  8
CSLAYER1
  6
CONTINUOUS
 62
     6
 10
199.525652
 20
81.608537
 40
0.794999
 50
32.735346
 51
92.735346
  0
ARC
  8
CSLAYER1
  6
CONTINUOUS
 62
     6
 10
199.449773
 20
83.196723
 40
0.794999
 50
212.735346
 51
272.735346
  0
ARC
  8
CSLAYER1
  6
CONTINUOUS
 62
     6
 10
198.818977
 20
81.972727
 40
0.794999
 50
32.735346
 51
92.735346
  0
LINE
  8
CSLAYER1
  6
CONTINUOUS
 62
     6
 10
198.780986
 20
82.766827
 11
198.730222
 21
82.689892
  0
LINE
  8
CSLAYER1
  6
CONTINUOUS
 62
     6
 10
198.730222
 20
82.689892
 11
198.679408
 21
82.607259
  0
LINE
  8
CSLAYER1
  6
CONTINUOUS
 62
     6
 10
198.679408
 20
82.607259
 11
198.628835
 21
82.519921
  0
LINE
  8
CSLAYER1
  6
CONTINUOUS
 62
     6
 10
198.628835
 20
82.519921
 11
198.578795
 21
82.428873
  0
LINE
  8
CSLAYER1
  6
CONTINUOUS
 62
     6
 10
198.578795
 20
82.428873
 11
198.529580
 21
82.335110
  0
LINE
  8
CSLAYER1
  6
CONTINUOUS
 62
     6
 10
198.529580
 20
82.335110
 11
198.481481
 21
82.239627
  0
LINE
  8
CSLAYER1
  6
CONTINUOUS
 62
     6
 10
198.481481
 20
82.239627
 11
198.434789
 21
82.143418
  0
LINE
  8
CSLAYER1
  6
CONTINUOUS
 62
     6
 10
199.093124
 20
79.636836
 11
199.597453
 21
77.726391
  0
LINE
  8
CSLAYER1
  6
CONTINUOUS
 62
     6
 10
199.124736
 20
77.629651
 11
198.757499
 21
79.501110
  0
LINE
  8
CSLAYER1
  6
CONTINUOUS
 62
     6
 10
198.408863
 20
79.430459
 11
198.570109
 21
77.644208
  0
ARC
  8
CSLAYER1
  6
CONTINUOUS
 62
     6
 10
201.027470
 20
78.953505
 40
0.795000
 50
252.897147
 51
312.897147
  0
ARC
  8
CSLAYER1
  6
CONTINUOUS
 62
     6
 10
202.109758
 20
77.788707
 40
0.795000
 50
72.897147
 51
132.897147
  0
LINE
  8
CSLAYER1
  6
CONTINUOUS
 62
     6
 10
202.343547
 20
78.548535
 11
202.326918
 21
78.617690
  0
LINE
  8
CSLAYER1
  6
CONTINUOUS
 62
     6
 10
202.326918
 20
78.617690
 11
202.310322
 21
78.686869
  0
LINE
  8
CSLAYER1
  6
CONTINUOUS
 62
     6
 10
202.310322
 20
78.686869
 11
202.293795
 21
78.756095
  0
LINE
  8
CSLAYER1
  6
CONTINUOUS
 62
     6
 10
202.293795
 20
78.756095
 11
202.277371
 21
78.825393
  0
LINE
  8
CSLAYER1
  6
CONTINUOUS
 62
     6
 10
202.277371
 20
78.825393
 11
202.261084
 21
78.894786
  0
LINE
  8
CSLAYER1
  6
CONTINUOUS
 62
     6
 10
202.261084
 20
78.894786
 11
202.244969
 21
78.964297
  0
LINE
  8
CSLAYER1
  6
CONTINUOUS
 62
     6
 10
202.244969
 20
78.964297
 11
202.229059
 21
79.033951
  0
LINE
  8
CSLAYER1
  6
CONTINUOUS
 62
     6
 10
202.229059
 20
79.033951
 11
202.213389
 21
79.103771
  0
LINE
  8
CSLAYER1
  6
CONTINUOUS
 62
     6
 10
202.213389
 20
79.103771
 11
202.197994
 21
79.173780
  0
LINE
  8
CSLAYER1
  6
CONTINUOUS
 62
     6
 10
202.197994
 20
79.173780
 11
202.182906
 21
79.244004
  0
LINE
  8
CSLAYER1
  6
CONTINUOUS
 62
     6
 10
202.182906
 20
79.244004
 11
202.168162
 21
79.314465
  0
LINE
  8
CSLAYER1
  6
CONTINUOUS
 62
     6
 10
202.168162
 20
79.314465
 11
202.157221
 21
79.368197
  0
LINE
  8
CSLAYER1
  6
CONTINUOUS
 62
     6
 10
202.157221
 20
79.368197
 11
202.146566
 21
79.422521
  0
LINE
  8
CSLAYER1
  6
CONTINUOUS
 62
     6
 10
202.146566
 20
79.422521
 11
202.136425
 21
79.477233
  0
LINE
  8
CSLAYER1
  6
CONTINUOUS
 62
     6
 10
202.136425
 20
79.477233
 11
202.127022
 21
79.532133
  0
LINE
  8
CSLAYER1
  6
CONTINUOUS
 62
     6
 10
202.127022
 20
79.532133
 11
202.118586
 21
79.587019
  0
LINE
  8
CSLAYER1
  6
CONTINUOUS
 62
     6
 10
202.118586
 20
79.587019
 11
202.111340
 21
79.641689
  0
LINE
  8
CSLAYER1
  6
CONTINUOUS
 62
     6
 10
202.111340
 20
79.641689
 11
202.105513
 21
79.695941
  0
LINE
  8
CSLAYER1
  6
CONTINUOUS
 62
     6
 10
202.105513
 20
79.695941
 11
202.101329
 21
79.749573
  0
LINE
  8
CSLAYER1
  6
CONTINUOUS
 62
     6
 10
202.101329
 20
79.749573
 11
202.099015
 21
79.802384
  0
LINE
  8
CSLAYER1
  6
CONTINUOUS
 62
     6
 10
202.099015
 20
79.802384
 11
202.098798
 21
79.854172
  0
LINE
  8
CSLAYER1
  6
CONTINUOUS
 62
     6
 10
202.098798
 20
79.854172
 11
202.100902
 21
79.904736
  0
LINE
  8
CSLAYER1
  6
CONTINUOUS
 62
     6
 10
202.100902
 20
79.904736
 11
202.105174
 21
79.957006
  0
LINE
  8
CSLAYER1
  6
CONTINUOUS
 62
     6
 10
202.105174
 20
79.957006
 11
202.111090
 21
80.011323
  0
LINE
  8
CSLAYER1
  6
CONTINUOUS
 62
     6
 10
202.111090
 20
80.011323
 11
202.118560
 21
80.067129
  0
LINE
  8
CSLAYER1
  6
CONTINUOUS
 62
     6
 10
202.118560
 20
80.067129
 11
202.127495
 21
80.123868
  0
LINE
  8
CSLAYER1
  6
CONTINUOUS
 62
     6
 10
202.127495
 20
80.123868
 11
202.137806
 21
80.180982
  0
LINE
  8
CSLAYER1
  6
CONTINUOUS
 62
     6
 10
202.137806
 20
80.180982
 11
202.149403
 21
80.237915
  0
LINE
  8
CSLAYER1
  6
CONTINUOUS
 62
     6
 10
202.149403
 20
80.237915
 11
202.162197
 21
80.294108
  0
LINE
  8
CSLAYER1
  6
CONTINUOUS
 62
     6
 10
202.162197
 20
80.294108
 11
202.176098
 21
80.349005
  0
LINE
  8
CSLAYER1
  6
CONTINUOUS
 62
     6
 10
202.176098
 20
80.349005
 11
202.191018
 21
80.402049
  0
LINE
  8
CSLAYER1
  6
CONTINUOUS
 62
     6
 10
202.191018
 20
80.402049
 11
202.206865
 21
80.452682
  0
LINE
  8
CSLAYER1
  6
CONTINUOUS
 62
     6
 10
202.206865
 20
80.452682
 11
202.223552
 21
80.500348
  0
ARC
  8
CSLAYER1
  6
CONTINUOUS
 62
     6
 10
201.695361
 20
79.906122
 40
0.795000
 50
48.366208
 51
108.366208
  0
ARC
  8
CSLAYER1
  6
CONTINUOUS
 62
     6
 10
201.194369
 20
81.415130
 40
0.795000
 50
228.366208
 51
288.366208
  0
ARC
  8
CSLAYER1
  6
CONTINUOUS
 62
     6
 10
200.916693
 20
80.066438
 40
0.795000
 50
48.366208
 51
108.366208
  0
LINE
  8
CSLAYER1
  6
CONTINUOUS
 62
     6
 10
200.666179
 20
80.820965
 11
200.642918
 21
80.752921
  0
LINE
  8
CSLAYER1
  6
CONTINUOUS
 62
     6
 10
200.642918
 20
80.752921
 11
200.620832
 21
80.680750
  0
LINE
  8
CSLAYER1
  6
CONTINUOUS
 62
     6
 10
200.620832
 20
80.680750
 11
200.600027
 21
80.605247
  0
LINE
  8
CSLAYER1
  6
CONTINUOUS
 62
     6
 10
200.600027
 20
80.605247
 11
200.580609
 21
80.527209
  0
LINE
  8
CSLAYER1
  6
CONTINUOUS
 62
     6
 10
200.580609
 20
80.527209
 11
200.562685
 21
80.447431
  0
LINE
  8
CSLAYER1
  6
CONTINUOUS
 62
     6
 10
200.562685
 20
80.447431
 11
200.546358
 21
80.366709
  0
LINE
  8
CSLAYER1
  6
CONTINUOUS
 62
     6
 10
200.546358
 20
80.366709
 11
200.531737
 21
80.285841
  0
LINE
  8
CSLAYER1
  6
CONTINUOUS
 62
     6
 10
200.531737
 20
80.285841
 11
200.518925
 21
80.205622
  0
LINE
  8
CSLAYER1
  6
CONTINUOUS
 62
     6
 10
200.518925
 20
80.205622
 11
200.508030
 21
80.126848
  0
LINE
  8
CSLAYER1
  6
CONTINUOUS
 62
     6
 10
200.508030
 20
80.126848
 11
200.499157
 21
80.050315
  0
LINE
  8
CSLAYER1
  6
CONTINUOUS
 62
     6
 10
200.499157
 20
80.050315
 11
200.492412
 21
79.976819
  0
LINE
  8
CSLAYER1
  6
CONTINUOUS
 62
     6
 10
200.492412
 20
79.976819
 11
200.488342
 21
79.897673
  0
LINE
  8
CSLAYER1
  6
CONTINUOUS
 62
     6
 10
200.488342
 20
79.897673
 11
200.488151
 21
79.816352
  0
LINE
  8
CSLAYER1
  6
CONTINUOUS
 62
     6
 10
200.488151
 20
79.816352
 11
200.491461
 21
79.733217
  0
LINE
  8
CSLAYER1
  6
CONTINUOUS
 62
     6
 10
200.491461
 20
79.733217
 11
200.497892
 21
79.648630
  0
LINE
  8
CSLAYER1
  6
CONTINUOUS
 62
     6
 10
200.497892
 20
79.648630
 11
200.507065
 21
79.562951
  0
LINE
  8
CSLAYER1
  6
CONTINUOUS
 62
     6
 10
200.507065
 20
79.562951
 11
200.518601
 21
79.476541
  0
LINE
  8
CSLAYER1
  6
CONTINUOUS
 62
     6
 10
200.518601
 20
79.476541
 11
200.532122
 21
79.389761
  0
LINE
  8
CSLAYER1
  6
CONTINUOUS
 62
     6
 10
200.532122
 20
79.389761
 11
200.547247
 21
79.302971
  0
LINE
  8
CSLAYER1
  6
CONTINUOUS
 62
     6
 10
200.547247
 20
79.302971
 11
200.563597
 21
79.216533
  0
LINE
  8
CSLAYER1
  6
CONTINUOUS
 62
     6
 10
200.563597
 20
79.216533
 11
200.580795
 21
79.130807
  0
LINE
  8
CSLAYER1
  6
CONTINUOUS
 62
     6
 10
200.580795
 20
79.130807
 11
200.598460
 21
79.046155
  0
LINE
  8
CSLAYER1
  6
CONTINUOUS
 62
     6
 10
200.598460
 20
79.046155
 11
200.615207
 21
78.967851
  0
LINE
  8
CSLAYER1
  6
CONTINUOUS
 62
     6
 10
200.615207
 20
78.967851
 11
200.632239
 21
78.889777
  0
LINE
  8
CSLAYER1
  6
CONTINUOUS
 62
     6
 10
200.632239
 20
78.889777
 11
200.649529
 21
78.811909
  0
LINE
  8
CSLAYER1
  6
CONTINUOUS
 62
     6
 10
200.649529
 20
78.811909
 11
200.667048
 21
78.734225
  0
LINE
  8
CSLAYER1
  6
CONTINUOUS
 62
     6
 10
200.667048
 20
78.734225
 11
200.684767
 21
78.656701
  0
LINE
  8
CSLAYER1
  6
CONTINUOUS
 62
     6
 10
200.684767
 20
78.656701
 11
200.702657
 21
78.579315
  0
LINE
  8
CSLAYER1
  6
CONTINUOUS
 62
     6
 10
200.702657
 20
78.579315
 11
200.720690
 21
78.502044
  0
LINE
  8
CSLAYER1
  6
CONTINUOUS
 62
     6
 10
200.720690
 20
78.502044
 11
200.738838
 21
78.424864
  0
LINE
  8
CSLAYER1
  6
CONTINUOUS
 62
     6
 10
200.738838
 20
78.424864
 11
200.757071
 21
78.347753
  0
LINE
  8
CSLAYER1
  6
CONTINUOUS
 62
     6
 10
200.757071
 20
78.347753
 11
200.775362
 21
78.270688
  0
LINE
  8
CSLAYER1
  6
CONTINUOUS
 62
     6
 10
200.775362
 20
78.270688
 11
200.793681
 21
78.193646
  0
LINE
  8
CSLAYER1
  6
CONTINUOUS
 62
     6
 10
201.213560
 20
78.180591
 11
201.499980
 21
76.780987
  0
LINE
  8
CSLAYER1
  6
CONTINUOUS
 62
     6
 10
201.967692
 20
76.733838
 11
201.528292
 21
78.336089
  0
LINE
  8
CSLAYER1
  6
CONTINUOUS
 62
     6
 10
201.912864
 20
78.558940
 11
202.463298
 21
76.790936
  0
ARC
  8
CSLAYER1
  6
CONTINUOUS
 62
     6
 10
205.885661
 20
86.159123
 40
4.000000
 50
205.580408
 51
211.043528
  0
LINE
  8
CSLAYER1
  6
CONTINUOUS
 62
     6
 10
202.513377
 20
84.580121
 11
202.681964
 21
84.288055
  0
ARC
  8
CSLAYER1
  6
CONTINUOUS
 62
     6
 10
205.885661
 20
86.159100
 40
2.120000
 50
-99.735526
 51
158.085512
  0
LINE
  8
CSLAYER1
  6
CONTINUOUS
 62
     6
 10
217.899036
 20
79.147129
 11
219.320700
 21
82.218002
  0
LINE
  8
CSLAYER1
  6
CONTINUOUS
 62
     6
 10
222.724484
 20
77.529762
 11
221.872116
 21
74.972588
  0
LINE
  8
CSLAYER1
  6
CONTINUOUS
 62
     6
 10
222.591882
 20
74.454308
 11
223.385455
 21
77.486931
  0
LINE
  8
CSLAYER1
  6
CONTINUOUS
 62
     6
 10
224.224086
 20
77.488268
 11
223.455573
 21
74.080054
  0
ARC
  8
CSLAYER1
  6
CONTINUOUS
 62
     6
 10
232.885661
 20
70.159123
 40
2.000000
 50
180.000000
 51
270.000000
  0
LINE
  8
CSLAYER1
  6
CONTINUOUS
 62
     6
 10
232.885661
 20
68.159123
 11
254.885661
 21
68.159123
  0
ARC
  8
CSLAYER1
  6
CONTINUOUS
 62
     6
 10
254.885661
 20
70.159123
 40
2.000000
 50
270.000000
 51
360.000000
  0
LINE
  8
CSLAYER1
  6
CONTINUOUS
 62
     6
 10
256.885661
 20
70.159123
 11
256.885661
 21
102.159123
  0
ARC
  8
CSLAYER1
  6
CONTINUOUS
 62
     6
 10
254.885661
 20
102.159123
 40
2.000000
 50
0.000000
 51
90.000000
  0
LINE
  8
CSLAYER1
  6
CONTINUOUS
 62
     6
 10
254.885661
 20
104.159123
 11
232.885661
 21
104.159123
  0
ARC
  8
CSLAYER1
  6
CONTINUOUS
 62
     6
 10
232.885661
 20
102.159123
 40
2.000000
 50
90.000000
 51
180.000000
  0
LINE
  8
CSLAYER1
  6
CONTINUOUS
 62
     6
 10
230.885661
 20
102.159123
 11
230.885661
 21
89.787483
  0
ARC
  8
CSLAYER1
  6
CONTINUOUS
 62
     6
 10
237.885640
 20
86.159085
 40
6.750000
 50
-154.073524
 51
148.329015
  0
LINE
  8
CSLAYER1
  6
CONTINUOUS
 62
     6
 10
230.885661
 20
83.036150
 11
230.885661
 21
70.159123
  0
ARC
  8
CSLAYER1
  6
CONTINUOUS
 62
     6
 10
243.885658
 20
71.159111
 40
1.527778
 50
163.398423
 51
196.601584
  0
LINE
  8
CSLAYER1
  6
CONTINUOUS
 62
     6
 10
242.421572
 20
71.595624
 11
243.012631
 21
71.595624
  0
ARC
  8
CSLAYER1
  6
CONTINUOUS
 62
     6
 10
243.012631
 20
72.032115
 40
0.436508
 50
270.057346
 51
359.999995
  0
LINE
  8
CSLAYER1
  6
CONTINUOUS
 62
     6
 10
243.449144
 20
72.032115
 11
243.449144
 21
72.623219
  0
ARC
  8
CSLAYER1
  6
CONTINUOUS
 62
     6
 10
243.885658
 20
71.159111
 40
1.527778
 50
73.398417
 51
106.601578
  0
LINE
  8
CSLAYER1
  6
CONTINUOUS
 62
     6
 10
244.322171
 20
72.623219
 11
244.322171
 21
72.032115
  0
ARC
  8
CSLAYER1
  6
CONTINUOUS
 62
     6
 10
244.758684
 20
72.032115
 40
0.436508
 50
180.057309
 51
269.999999
  0
LINE
  8
CSLAYER1
  6
CONTINUOUS
 62
     6
 10
244.758684
 20
71.595624
 11
245.349743
 21
71.595624
  0
ARC
  8
CSLAYER1
  6
CONTINUOUS
 62
     6
 10
243.885658
 20
71.159111
 40
1.527778
 50
-16.601572
 51
16.601562
  0
LINE
  8
CSLAYER1
  6
CONTINUOUS
 62
     6
 10
245.349743
 20
70.722597
 11
244.758684
 21
70.722597
  0
ARC
  8
CSLAYER1
  6
CONTINUOUS
 62
     6
 10
244.758684
 20
70.286107
 40
0.436508
 50
89.999984
 51
179.999990
  0
LINE
  8
CSLAYER1
  6
CONTINUOUS
 62
     6
 10
244.322171
 20
70.286107
 11
244.322171
 21
69.695003
  0
ARC
  8
CSLAYER1
  6
CONTINUOUS
 62
     6
 10
243.885658
 20
71.159111
 40
1.527778
 50
253.398405
 51
286.601594
  0
LINE
  8
CSLAYER1
  6
CONTINUOUS
 62
     6
 10
243.449144
 20
69.695003
 11
243.449144
 21
70.286107
  0
ARC
  8
CSLAYER1
  6
CONTINUOUS
 62
     6
 10
243.012631
 20
70.286107
 40
0.436508
 50
-0.000005
 51
89.999984
  0
LINE
  8
CSLAYER1
  6
CONTINUOUS
 62
     6
 10
243.012631
 20
70.722597
 11
242.421572
 21
70.722597
  0
CIRCLE
  8
CSLAYER1
  6
CONTINUOUS
 62
     6
 10
243.885668
 20
71.159111
 40
2.750000
  0
ARC
  8
CSLAYER1
  6
CONTINUOUS
 62
     6
 10
237.885640
 20
86.159085
 40
4.000000
 50
-129.735526
 51
128.465835
  0
ARC
  8
CSLAYER1
  6
CONTINUOUS
 62
     6
 10
237.885640
 20
86.159085
 40
4.000000
 50
176.007555
 51
178.572301
  0
ARC
  8
CSLAYER1
  6
CONTINUOUS
 62
     6
 10
237.885640
 20
86.159085
 40
6.750000
 50
174.942367
 51
179.961149
  0
LINE
  8
CSLAYER1
  6
CONTINUOUS
 62
     6
 10
230.885690
 20
86.760418
 11
230.885633
 21
86.159065
  0
LINE
  8
CSLAYER1
  6
CONTINUOUS
 62
     6
 10
230.885661
 20
86.124140
 11
230.885661
 21
86.761752
  0
LINE
  8
CSLAYER1
  6
CONTINUOUS
 62
     6
 10
226.885661
 20
85.872916
 11
226.885661
 21
84.354228
  0
ARC
  8
CSLAYER1
  6
CONTINUOUS
 62
     6
 10
227.745593
 20
86.960373
 40
1.499994
 50
168.245911
 51
228.245911
  0
ARC
  8
CSLAYER1
  6
CONTINUOUS
 62
     6
 10
243.885658
 20
101.159135
 40
1.527778
 50
163.398416
 51
196.601577
  0
LINE
  8
CSLAYER1
  6
CONTINUOUS
 62
     6
 10
242.421572
 20
101.595649
 11
243.012631
 21
101.595649
  0
ARC
  8
CSLAYER1
  6
CONTINUOUS
 62
     6
 10
243.012631
 20
102.032139
 40
0.436508
 50
-89.999984
 51
0.000005
  0
LINE
  8
CSLAYER1
  6
CONTINUOUS
 62
     6
 10
243.449144
 20
102.032139
 11
243.449144
 21
102.623243
  0
ARC
  8
CSLAYER1
  6
CONTINUOUS
 62
     6
 10
243.885658
 20
101.159135
 40
1.527778
 50
73.398406
 51
106.601595
  0
LINE
  8
CSLAYER1
  6
CONTINUOUS
 62
     6
 10
244.322171
 20
102.623243
 11
244.322171
 21
102.032139
  0
ARC
  8
CSLAYER1
  6
CONTINUOUS
 62
     6
 10
244.758684
 20
102.032139
 40
0.436508
 50
180.000010
 51
270.000016
  0
LINE
  8
CSLAYER1
  6
CONTINUOUS
 62
     6
 10
244.758684
 20
101.595649
 11
245.349743
 21
101.595649
  0
ARC
  8
CSLAYER1
  6
CONTINUOUS
 62
     6
 10
243.885658
 20
101.159135
 40
1.527778
 50
-16.601562
 51
16.601572
  0
LINE
  8
CSLAYER1
  6
CONTINUOUS
 62
     6
 10
245.349743
 20
100.722622
 11
244.758684
 21
100.722622
  0
ARC
  8
CSLAYER1
  6
CONTINUOUS
 62
     6
 10
244.758684
 20
100.286131
 40
0.436508
 50
90.000001
 51
179.942691
  0
LINE
  8
CSLAYER1
  6
CONTINUOUS
 62
     6
 10
244.322171
 20
100.286131
 11
244.322171
 21
99.695027
  0
ARC
  8
CSLAYER1
  6
CONTINUOUS
 62
     6
 10
243.885658
 20
101.159135
 40
1.527778
 50
253.398422
 51
286.601583
  0
LINE
  8
CSLAYER1
  6
CONTINUOUS
 62
     6
 10
243.449144
 20
99.695027
 11
243.449144
 21
100.286131
  0
ARC
  8
CSLAYER1
  6
CONTINUOUS
 62
     6
 10
243.012631
 20
100.286131
 40
0.436508
 50
0.000005
 51
89.942654
  0
LINE
  8
CSLAYER1
  6
CONTINUOUS
 62
     6
 10
243.012631
 20
100.722622
 11
242.421572
 21
100.722622
  0
CIRCLE
  8
CSLAYER1
  6
CONTINUOUS
 62
     6
 10
243.885668
 20
101.159135
 40
2.750000
  0
LINE
  8
CSLAYER1
  6
CONTINUOUS
 62
     6
 10
232.571635
 20
49.765919
 11
264.528728
 21
49.765919
  0
ARC
  8
CSLAYER1
  6
CONTINUOUS
 62
     6
 10
269.671916
 20
48.587513
 40
1.000000
 50
90.000009
 51
173.999984
  0
LINE
  8
CSLAYER1
  6
CONTINUOUS
 62
     6
 10
268.677409
 20
48.692067
 11
267.979777
 21
42.054554
  0
ARC
  8
CSLAYER1
  6
CONTINUOUS
 62
     6
 10
266.985210
 20
42.159108
 40
1.000000
 50
270.000001
 51
354.000017
  0
LINE
  8
CSLAYER1
  6
CONTINUOUS
 62
     6
 10
266.985210
 20
41.159108
 11
230.786052
 21
41.159108
  0
ARC
  8
CSLAYER1
  6
CONTINUOUS
 62
     6
 10
230.786052
 20
42.159108
 40
1.000000
 50
186.000012
 51
270.000001
  0
LINE
  8
CSLAYER1
  6
CONTINUOUS
 62
     6
 10
229.791545
 20
42.054554
 11
229.093913
 21
48.692067
  0
ARC
  8
CSLAYER1
  6
CONTINUOUS
 62
     6
 10
228.099345
 20
48.587513
 40
1.000000
 50
6.000021
 51
90.000009
  0
ARC
  8
CSLAYER1
  6
CONTINUOUS
 62
     6
 10
228.149028
 20
44.115284
 40
1.000000
 50
6.000021
 51
90.000009
  0
LINE
  8
CSLAYER1
  6
CONTINUOUS
 62
     6
 10
229.143535
 20
44.219838
 11
229.791545
 21
38.054554
  0
ARC
  8
CSLAYER1
  6
CONTINUOUS
 62
     6
 10
230.786052
 20
38.159108
 40
1.000000
 50
186.000012
 51
270.000001
  0
LINE
  8
CSLAYER1
  6
CONTINUOUS
 62
     6
 10
230.786052
 20
37.159108
 11
266.985210
 21
37.159108
  0
ARC
  8
CSLAYER1
  6
CONTINUOUS
 62
     6
 10
266.985210
 20
38.159108
 40
1.000000
 50
270.000001
 51
354.000017
  0
LINE
  8
CSLAYER1
  6
CONTINUOUS
 62
     6
 10
267.979777
 20
38.054554
 11
268.627727
 21
44.219838
  0
ARC
  8
CSLAYER1
  6
CONTINUOUS
 62
     6
 10
269.622295
 20
44.115284
 40
1.000000
 50
90.000009
 51
173.999984
  0
LINE
  8
CSLAYER1
  6
CONTINUOUS
 62
     6
 10
269.885661
 20
42.159108
 11
268.410625
 21
42.159108
  0
LINE
  8
CSLAYER1
  6
CONTINUOUS
 62
     6
 10
229.360087
 20
42.159108
 11
226.885661
 21
42.159108
  0
LINE
  8
CSLAYER1
  6
CONTINUOUS
 62
     6
 10
405.885539
 20
36.159123
 11
415.885600
 21
36.159123
  0
LINE
  8
CSLAYER1
  6
CONTINUOUS
 62
     6
 10
415.885631
 20
36.159123
 11
415.885631
 21
136.159123
  0
LINE
  8
CSLAYER1
  6
CONTINUOUS
 62
     6
 10
415.885600
 20
136.159123
 11
405.885539
 21
136.159123
  0
LINE
  8
CSLAYER1
  6
CONTINUOUS
 62
     6
 10
405.885631
 20
136.159123
 11
405.885631
 21
113.220372
  0
LINE
  8
CSLAYER1
  6
CONTINUOUS
 62
     6
 10
415.885631
 20
116.159123
 11
418.885631
 21
116.159123
  0
LINE
  8
CSLAYER1
  6
CONTINUOUS
 62
     6
 10
418.885631
 20
116.159123
 11
418.885631
 21
56.159123
  0
LINE
  8
CSLAYER1
  6
CONTINUOUS
 62
     6
 10
418.885631
 20
56.159123
 11
415.885631
 21
56.159123
  0
LINE
  8
CSLAYER1
  6
CONTINUOUS
 62
     6
 10
405.885631
 20
59.097905
 11
405.885631
 21
36.159123
  0
LINE
  8
CSLAYER1
  6
CONTINUOUS
 62
     6
 10
411.885631
 20
46.159123
 11
411.885631
 21
126.159123
  0
LINE
  8
CSLAYER1
  6
CONTINUOUS
 62
     6
 10
415.885631
 20
171.159123
 11
405.885570
 21
171.159123
  0
LINE
  8
CSLAYER1
  6
CONTINUOUS
 62
     6
 10
405.885661
 20
171.159123
 11
405.885661
 21
194.097905
  0
LINE
  8
CSLAYER1
  6
CONTINUOUS
 62
     6
 10
415.885661
 20
191.159123
 11
418.885661
 21
191.159123
  0
LINE
  8
CSLAYER1
  6
CONTINUOUS
 62
     6
 10
418.885661
 20
191.159123
 11
418.885661
 21
251.159123
  0
LINE
  8
CSLAYER1
  6
CONTINUOUS
 62
     6
 10
418.885661
 20
251.159123
 11
415.885661
 21
251.159123
  0
LINE
  8
CSLAYER1
  6
CONTINUOUS
 62
     6
 10
405.885661
 20
248.220372
 11
405.885661
 21
271.159123
  0
LINE
  8
CSLAYER1
  6
CONTINUOUS
 62
     6
 10
405.885570
 20
271.159123
 11
415.885631
 21
271.159123
  0
LINE
  8
CSLAYER1
  6
CONTINUOUS
 62
     6
 10
415.885661
 20
271.159123
 11
415.885661
 21
171.159123
  0
LINE
  8
CSLAYER1
  6
CONTINUOUS
 62
     6
 10
411.885661
 20
181.159123
 11
411.885661
 21
261.159123
  0
LINE
  8
CSLAYER1
  6
CONTINUOUS
 62
     6
 10
418.885661
 20
227.159123
 11
455.885661
 21
227.159123
  0
LINE
  8
CSLAYER1
  6
CONTINUOUS
 62
     6
 10
455.885661
 20
227.159123
 11
455.885661
 21
215.159123
  0
LINE
  8
CSLAYER1
  6
CONTINUOUS
 62
     6
 10
455.885661
 20
215.159123
 11
418.885661
 21
215.159123
  0
LINE
  8
CSLAYER1
  6
CONTINUOUS
 62
     6
 10
415.885631
 20
296.159123
 11
415.885631
 21
396.159123
  0
LINE
  8
CSLAYER1
  6
CONTINUOUS
 62
     6
 10
415.885600
 20
396.159123
 11
405.885539
 21
396.159123
  0
LINE
  8
CSLAYER1
  6
CONTINUOUS
 62
     6
 10
405.885631
 20
396.159123
 11
405.885631
 21
373.220372
  0
LINE
  8
CSLAYER1
  6
CONTINUOUS
 62
     6
 10
415.885631
 20
376.159123
 11
418.885631
 21
376.159123
  0
LINE
  8
CSLAYER1
  6
CONTINUOUS
 62
     6
 10
418.885631
 20
376.159123
 11
418.885631
 21
316.159123
  0
LINE
  8
CSLAYER1
  6
CONTINUOUS
 62
     6
 10
418.885631
 20
316.159123
 11
415.885631
 21
316.159123
  0
LINE
  8
CSLAYER1
  6
CONTINUOUS
 62
     6
 10
405.885631
 20
319.097905
 11
405.885631
 21
296.159123
  0
LINE
  8
CSLAYER1
  6
CONTINUOUS
 62
     6
 10
405.885539
 20
296.159123
 11
415.885600
 21
296.159123
  0
LINE
  8
CSLAYER1
  6
CONTINUOUS
 62
     6
 10
411.885631
 20
306.159123
 11
411.885631
 21
386.159123
  0
LINE
  8
CSLAYER1
  6
CONTINUOUS
 62
     6
 10
418.885631
 20
352.159123
 11
455.885631
 21
352.159123
  0
LINE
  8
CSLAYER1
  6
CONTINUOUS
 62
     6
 10
455.885631
 20
352.159123
 11
455.885631
 21
340.159123
  0
LINE
  8
CSLAYER1
  6
CONTINUOUS
 62
     6
 10
455.885631
 20
340.159123
 11
418.885631
 21
340.159123
  0
ARC
  8
CSLAYER1
  6
CONTINUOUS
 62
     6
 10
481.474454
 20
263.659123
 40
7.500000
 50
90.000000
 51
180.000000
  0
LINE
  8
CSLAYER1
  6
CONTINUOUS
 62
     6
 10
481.474454
 20
271.159123
 11
566.474454
 21
271.159123
  0
ARC
  8
CSLAYER1
  6
CONTINUOUS
 62
     6
 10
566.474454
 20
263.659123
 40
7.500000
 50
0.000000
 51
90.000000
  0
LINE
  8
CSLAYER1
  6
CONTINUOUS
 62
     6
 10
573.974454
 20
263.659123
 11
573.974454
 21
178.659123
  0
ARC
  8
CSLAYER1
  6
CONTINUOUS
 62
     6
 10
566.474454
 20
178.659123
 40
7.500000
 50
270.000000
 51
360.000000
  0
LINE
  8
CSLAYER1
  6
CONTINUOUS
 62
     6
 10
566.474454
 20
171.159123
 11
481.474454
 21
171.159123
  0
ARC
  8
CSLAYER1
  6
CONTINUOUS
 62
     6
 10
481.474454
 20
178.659123
 40
7.500000
 50
180.000000
 51
270.000000
  0
LINE
  8
CSLAYER1
  6
CONTINUOUS
 62
     6
 10
473.974454
 20
178.659123
 11
473.974454
 21
263.659123
  0
CIRCLE
  8
CSLAYER1
  6
CONTINUOUS
 62
     6
 10
481.474454
 20
263.659123
 40
3.500000
  0
ARC
  8
CSLAYER1
  6
CONTINUOUS
 62
     6
 10
523.974448
 20
258.159146
 40
2.916667
 50
163.398416
 51
196.601577
  0
LINE
  8
CSLAYER1
  6
CONTINUOUS
 62
     6
 10
521.179376
 20
257.325803
 11
522.307761
 21
257.325803
  0
ARC
  8
CSLAYER1
  6
CONTINUOUS
 62
     6
 10
522.307761
 20
256.492503
 40
0.833333
 50
0.000005
 51
89.942654
  0
LINE
  8
CSLAYER1
  6
CONTINUOUS
 62
     6
 10
523.141104
 20
256.492503
 11
523.141104
 21
255.364031
  0
ARC
  8
CSLAYER1
  6
CONTINUOUS
 62
     6
 10
523.974448
 20
258.159146
 40
2.916667
 50
253.398422
 51
286.601583
  0
LINE
  8
CSLAYER1
  6
CONTINUOUS
 62
     6
 10
524.807791
 20
255.364031
 11
524.807791
 21
256.492503
  0
ARC
  8
CSLAYER1
  6
CONTINUOUS
 62
     6
 10
525.641135
 20
256.492503
 40
0.833333
 50
90.000001
 51
179.942691
  0
LINE
  8
CSLAYER1
  6
CONTINUOUS
 62
     6
 10
525.641135
 20
257.325803
 11
526.769520
 21
257.325803
  0
ARC
  8
CSLAYER1
  6
CONTINUOUS
 62
     6
 10
523.974448
 20
258.159146
 40
2.916667
 50
-16.601562
 51
16.601572
  0
LINE
  8
CSLAYER1
  6
CONTINUOUS
 62
     6
 10
526.769520
 20
258.992490
 11
525.641135
 21
258.992490
  0
ARC
  8
CSLAYER1
  6
CONTINUOUS
 62
     6
 10
525.641135
 20
259.825790
 40
0.833333
 50
180.000010
 51
270.000016
  0
LINE
  8
CSLAYER1
  6
CONTINUOUS
 62
     6
 10
524.807791
 20
259.825790
 11
524.807791
 21
260.954262
  0
ARC
  8
CSLAYER1
  6
CONTINUOUS
 62
     6
 10
523.974448
 20
258.159146
 40
2.916667
 50
73.398406
 51
106.601595
  0
LINE
  8
CSLAYER1
  6
CONTINUOUS
 62
     6
 10
523.141104
 20
260.954262
 11
523.141104
 21
259.825790
  0
ARC
  8
CSLAYER1
  6
CONTINUOUS
 62
     6
 10
522.307761
 20
259.825790
 40
0.833333
 50
-89.999984
 51
0.000005
  0
LINE
  8
CSLAYER1
  6
CONTINUOUS
 62
     6
 10
522.307761
 20
258.992490
 11
521.179376
 21
258.992490
  0
CIRCLE
  8
CSLAYER1
  6
CONTINUOUS
 62
     6
 10
523.974454
 20
258.159123
 40
7.500000
  0
CIRCLE
  8
CSLAYER1
  6
CONTINUOUS
 62
     6
 10
523.974467
 20
258.159145
 40
5.250000
  0
ARC
  8
CSLAYER1
  6
CONTINUOUS
 62
     6
 10
523.974454
 20
221.159123
 40
30.000000
 50
-85.368215
 51
85.368215
  0
LINE
  8
CSLAYER1
  6
CONTINUOUS
 62
     6
 10
524.807791
 20
186.954215
 11
524.807791
 21
185.825743
  0
ARC
  8
CSLAYER1
  6
CONTINUOUS
 62
     6
 10
525.641135
 20
185.825743
 40
0.833333
 50
180.057309
 51
269.999999
  0
LINE
  8
CSLAYER1
  6
CONTINUOUS
 62
     6
 10
525.641135
 20
184.992443
 11
526.769520
 21
184.992443
  0
ARC
  8
CSLAYER1
  6
CONTINUOUS
 62
     6
 10
523.974448
 20
184.159099
 40
2.916667
 50
-16.601572
 51
16.601562
  0
LINE
  8
CSLAYER1
  6
CONTINUOUS
 62
     6
 10
526.769520
 20
183.325756
 11
525.641135
 21
183.325756
  0
ARC
  8
CSLAYER1
  6
CONTINUOUS
 62
     6
 10
525.641135
 20
182.492456
 40
0.833333
 50
89.999984
 51
179.999990
  0
LINE
  8
CSLAYER1
  6
CONTINUOUS
 62
     6
 10
524.807791
 20
182.492456
 11
524.807791
 21
181.363984
  0
ARC
  8
CSLAYER1
  6
CONTINUOUS
 62
     6
 10
523.974448
 20
184.159099
 40
2.916667
 50
253.398405
 51
286.601594
  0
LINE
  8
CSLAYER1
  6
CONTINUOUS
 62
     6
 10
523.141104
 20
181.363984
 11
523.141104
 21
182.492456
  0
ARC
  8
CSLAYER1
  6
CONTINUOUS
 62
     6
 10
522.307761
 20
182.492456
 40
0.833333
 50
-0.000005
 51
89.999984
  0
LINE
  8
CSLAYER1
  6
CONTINUOUS
 62
     6
 10
522.307761
 20
183.325756
 11
521.179376
 21
183.325756
  0
ARC
  8
CSLAYER1
  6
CONTINUOUS
 62
     6
 10
523.974448
 20
184.159099
 40
2.916667
 50
163.398423
 51
196.601584
  0
LINE
  8
CSLAYER1
  6
CONTINUOUS
 62
     6
 10
521.179376
 20
184.992443
 11
522.307761
 21
184.992443
  0
ARC
  8
CSLAYER1
  6
CONTINUOUS
 62
     6
 10
522.307761
 20
185.825743
 40
0.833333
 50
270.057346
 51
359.999995
  0
LINE
  8
CSLAYER1
  6
CONTINUOUS
 62
     6
 10
523.141104
 20
185.825743
 11
523.141104
 21
186.954215
  0
ARC
  8
CSLAYER1
  6
CONTINUOUS
 62
     6
 10
523.974448
 20
184.159099
 40
2.916667
 50
73.398417
 51
106.601578
  0
CIRCLE
  8
CSLAYER1
  6
CONTINUOUS
 62
     6
 10
523.974454
 20
184.159123
 40
7.500000
  0
CIRCLE
  8
CSLAYER1
  6
CONTINUOUS
 62
     6
 10
523.974467
 20
184.159100
 40
5.250000
  0
ARC
  8
CSLAYER1
  6
CONTINUOUS
 62
     6
 10
523.974454
 20
221.159123
 40
30.000000
 50
94.631785
 51
265.368215
  0
CIRCLE
  8
CSLAYER1
  6
CONTINUOUS
 62
     6
 10
523.974454
 20
221.159123
 40
6.000000
  0
CIRCLE
  8
CSLAYER1
  6
CONTINUOUS
 62
     6
 10
523.974454
 20
221.159123
 40
16.000000
  0
CIRCLE
  8
CSLAYER1
  6
CONTINUOUS
 62
     6
 10
523.974454
 20
221.159123
 40
7.500000
  0
ARC
  8
CSLAYER1
  6
CONTINUOUS
 62
     6
 10
533.823648
 20
212.644912
 40
1.454544
 50
230.236329
 51
322.096590
  0
ARC
  8
CSLAYER1
  6
CONTINUOUS
 62
     6
 10
523.974454
 20
220.313126
 40
13.936877
 50
-37.903067
 51
217.903051
  0
ARC
  8
CSLAYER1
  6
CONTINUOUS
 62
     6
 10
514.125248
 20
212.644912
 40
1.454544
 50
217.903413
 51
309.763730
  0
ARC
  8
CSLAYER1
  6
CONTINUOUS
 62
     6
 10
517.049517
 20
209.130605
 40
3.117293
 50
-23.481547
 51
129.764151
  0
LINE
  8
CSLAYER1
  6
CONTINUOUS
 62
     6
 10
519.908659
 20
207.888515
 11
519.287491
 21
205.861027
  0
CIRCLE
  8
CSLAYER1
  6
CONTINUOUS
 62
     6
 10
517.049517
 20
209.130605
 40
1.454544
  0
LINE
  8
CSLAYER1
  6
CONTINUOUS
 62
     6
 10
528.040237
 20
207.888515
 11
528.661405
 21
205.861027
  0
ARC
  8
CSLAYER1
  6
CONTINUOUS
 62
     6
 10
530.899382
 20
209.130605
 40
3.117293
 50
50.235851
 51
203.481549
  0
CIRCLE
  8
CSLAYER1
  6
CONTINUOUS
 62
     6
 10
566.474454
 20
263.659123
 40
3.500000
  0
CIRCLE
  8
CSLAYER1
  6
CONTINUOUS
 62
     6
 10
530.899382
 20
209.130605
 40
1.454544
  0
CIRCLE
  8
CSLAYER1
  6
CONTINUOUS
 62
     6
 10
566.474454
 20
178.659123
 40
3.500000
  0
CIRCLE
  8
CSLAYER1
  6
CONTINUOUS
 62
     6
 10
481.474454
 20
178.659123
 40
3.500000
  0
LINE
  8
CSLAYER1
  6
CONTINUOUS
 62
     6
 10
455.885631
 20
92.159123
 11
418.885631
 21
92.159123
  0
LINE
  8
CSLAYER1
  6
CONTINUOUS
 62
     6
 10
418.885631
 20
80.159123
 11
455.885631
 21
80.159123
  0
LINE
  8
CSLAYER1
  6
CONTINUOUS
 62
     6
 10
455.885631
 20
80.159123
 11
455.885631
 21
92.159123
  0
ENDSEC
  0
EOF
