  0
SECTION
  2
HEADER
  9
$ACADVER
  1
AC1006
  9
$INSBASE
 10
0.000000
 20
0.000000
 30
0.0
  9
$EXTMIN
 10
0.000000
 20
0.000000
  9
$EXTMAX
 10
1189.000000
 20
841.000000
  9
$LIMMIN
 10
0.000000
 20
0.000000
  9
$LIMMAX
 10
1189.000000
 20
841.000000
  9
$VIEWCTR
 10
594.500000
 20
420.500000
  9
$VIEWSIZE
 40
841.000000
  9
$SNAPMODE
 70
     0
  9
$SNAPUNIT
 10
1.0
 20
1.0
  9
$SNAPBASE
 10
0.0
 20
0.0
  9
$SNAPANG
 50
0.0
  9
$SNAPSTYLE
 70
     0
  9
$SNAPISOPAIR
 70
     0
  9
$GRIDMODE
 70
     0
  9
$GRIDUNIT
 10
0.0
 20
0.0
  9
$ORTHOMODE
 70
     0
  9
$REGENMODE
 70
     1
  9
$FILLMODE
 70
     1
  9
$QTEXTMODE
 70
     0
  9
$DRAGMODE
 70
     2
  9
$LTSCALE
 40
15.000000
  9
$OSMODE
 70
     0
  9
$ATTMODE
 70
     1
  9
$TEXTSIZE
 40
0.2
  9
$TRACEWID
 40
0.05
  9
$TEXTSTYLE
  7
STANDARD
  9
$CLAYER
  8
CSLAYER1
  9
$CELTYPE
  6
BYLAYER
  9
$CECOLOR
 62
   256
  9
$DIMSCALE
 40
1.0
  9
$DIMASZ
 40
0.18
  9
$DIMEXO
 40
0.0625
  9
$DIMDLI
 40
0.38
  9
$DIMRND
 40
0.0
  9
$DIMDLE
 40
0.0
  9
$DIMEXE
 40
0.18
  9
$DIMTP
 40
0.0
  9
$DIMTM
 40
0.0
  9
$DIMTXT
 40
0.18
  9
$DIMCEN
 40
0.09
  9
$DIMTSZ
 40
0.0
  9
$DIMTOL
 70
     0
  9
$DIMLIM
 70
     0
  9
$DIMTIH
 70
     1
  9
$DIMTOH
 70
     1
  9
$DIMSE1
 70
     0
  9
$DIMSE2
 70
     0
  9
$DIMTAD
 70
     0
  9
$DIMZIN
 70
     0
  9
$DIMBLK
  1

  9
$LUNITS
 70
     2
  9
$LUPREC
 70
     4
  9
$AXISMODE
 70
     0
  9
$AXISUNIT
 10
0.0
 20
0.0
  9
$SKETCHINC
 40
0.1
  9
$FILLETRAD
 40
0.0
  9
$AUNITS
 70
     0
  9
$AUPREC
 70
     0
  9
$MENU
  1
ACAD
  9
$ELEVATION
 40
0.0
  9
$THICKNESS
 40
0.0
  9
$VIEWDIR
 10
0.0
 20
0.0
 30
1.0
  9
$LIMCHECK
 70
     0
  9
$BLIPMODE
 70
     1
  9
$CHAMFERA
 40
0.0
  9
$CHAMFERB
 40
0.0
  9
$FASTZOOM
 70
     1
  9
$SKPOLY
 70
     0
  9
$TDCREATE
 40
0.000000
  9
$TDUPDATE
 40
0.000000
  9
$TDINDWG
 40
0.0
  9
$TDUSRTIMER
 40
0.0
  9
$USRTIMER
 70
     1
  9
$ANGBASE
 50
0.0
  9
$ANGDIR
 70
     0
  9
$PDMODE
 70
     0
  9
$PDSIZE
 40
0.0
  9
$PLINEWID
 40
0.0
  9
$COORDS
 70
     0
  9
$USERI1
 70
     0
  9
$USERI2
 70
     0
  9
$USERI3
 70
     0
  9
$USERI4
 70
     0
  9
$USERI5
 70
     0
  9
$USERR1
 40
0.0
  9
$USERR2
 40
0.0
  9
$USERR3
 40
0.0
  9
$USERR4
 40
0.0
  9
$USERR5
 40
0.0
  0
ENDSEC
  0
SECTION
  2
TABLES
  0
TABLE
  2
LTYPE
 70
     9
  0
LTYPE
  2
CONTINUOUS
 70
    64
  3
Solid line
 72
    65
 73
     0
 40
0.0
  0
LTYPE
  2
DASHED
 70
    64
  3
__ __ __ __ __ __ __ __ __ __ __ __ __ __ __
 72
    65
 73
     2
 40
0.75
 49
0.5
 49
-0.25
  0
LTYPE
  2
HIDDEN
 70
    64
  3
_ _ _ _ _ _ _ _ _ _ _ _ _ _ _ _ _ _ _ _ _ _ _
 72
    65
 73
     2
 40
0.375
 49
0.25
 49
-0.125
  0
LTYPE
  2
DOT
 70
    64
  3
...............................................
 72
    65
 73
     2
 40
0.25
 49
0.0
 49
-0.25
  0
LTYPE
  2
DASHDOT
 70
    64
  3
__ . __ . __ . __ . __ . __ . __ . __ . __ . __
 72
    65
 73
     4
 40
1.0
 49
0.5
 49
-0.25
 49
0.0
 49
-0.25
  0
LTYPE
  2
DIVIDE
 70
    64
  3
__ . . __ . . __ . . __ . . __ . . __ . . __
 72
    65
 73
     6
 40
1.25
 49
0.5
 49
-0.25
 49
0.0
 49
-0.25
 49
0.0
 49
-0.25
  0
LTYPE
  2
CENTER
 70
    64
  3
____ _ ____ _ ____ _ ____ _ ____ _ ____ _ ____ 
 72
    65
 73
     4
 40
2.0
 49
1.25
 49
-0.25
 49
0.25
 49
-0.25
  0
LTYPE
  2
PHANTOM
 70
    64
  3
______  __  __  ______  __  __  ______  __  __ 
 72
    65
 73
     6
 40
2.5
 49
1.25
 49
-0.25
 49
0.25
 49
-0.25
 49
0.25
 49
-0.25
  0
LTYPE
  2
BORDER
 70
    64
  3
__ __ . __ __ . __ __ . __ __ . __ __ . __ __ .
 72
    65
 73
     6
 40
1.75
 49
0.5
 49
-0.25
 49
0.5
 49
-0.25
 49
0.0
 49
-0.25
  0
ENDTAB
  0
TABLE
  2
LAYER
 70
    16
  0
LAYER
  2
CSLAYER1
 70
    64
 62
     7
  6
CONTINUOUS
  0
LAYER
  2
CSLAYER2
 70
    64
 62
     7
  6
CONTINUOUS
  0
LAYER
  2
CSLAYER3
 70
    64
 62
     7
  6
CONTINUOUS
  0
LAYER
  2
CSLAYER4
 70
    64
 62
     7
  6
CONTINUOUS
  0
LAYER
  2
CSLAYER5
 70
    64
 62
     7
  6
CONTINUOUS
  0
LAYER
  2
CSLAYER6
 70
    64
 62
     7
  6
CONTINUOUS
  0
LAYER
  2
CSLAYER7
 70
    64
 62
     7
  6
CONTINUOUS
  0
LAYER
  2
CSLAYER8
 70
    64
 62
     7
  6
CONTINUOUS
  0
LAYER
  2
CSLAYER9
 70
    64
 62
     7
  6
CONTINUOUS
  0
LAYER
  2
CSLAYER10
 70
    64
 62
     7
  6
CONTINUOUS
  0
LAYER
  2
CSLAYER11
 70
    64
 62
     7
  6
CONTINUOUS
  0
LAYER
  2
CSLAYER12
 70
    64
 62
     7
  6
CONTINUOUS
  0
LAYER
  2
CSLAYER13
 70
    64
 62
     7
  6
CONTINUOUS
  0
LAYER
  2
CSLAYER14
 70
    64
 62
     7
  6
CONTINUOUS
  0
LAYER
  2
CSLAYER15
 70
    64
 62
     7
  6
CONTINUOUS
  0
LAYER
  2
CSLAYER16
 70
    64
 62
     7
  6
CONTINUOUS
  0
ENDTAB
  0
TABLE
  2
STYLE
 70
     1
  0
STYLE
  2
JX_FONT
 70
     0
 40
1.0
 41
1.0
 50
0.0
 71
     0
 42
1.0
  3
monotxt
  4
bigfont
  0
ENDTAB
  0
TABLE
  2
VIEW
 70
     0
  0
ENDTAB
  0
ENDSEC
  0
SECTION
  2
BLOCKS
  0
ENDSEC
  0
SECTION
  2
ENTITIES
  0
LINE
  8
CSLAYER1
  6
CENTER
 62
     3
 10
132.451917
 20
215.764814
 11
132.451917
 21
249.144814
  0
LINE
  8
CSLAYER1
  6
CENTER
 62
     3
 10
192.451917
 20
215.764814
 11
192.451917
 21
437.164814
  0
LINE
  8
CSLAYER1
  6
CENTER
 62
     3
 10
120.451917
 20
362.544814
 11
318.844917
 21
362.544814
  0
LINE
  8
CSLAYER1
  6
CENTER
 62
     3
 10
404.771917
 20
362.564814
 11
510.131917
 21
362.564814
  0
LINE
  8
CSLAYER1
  6
CENTER
 62
     3
 10
522.468274
 20
317.564814
 11
808.439917
 21
317.564814
  0
LINE
  8
CSLAYER1
  6
CENTER
 62
     3
 10
775.451917
 20
280.564814
 11
775.451917
 21
269.864802
  0
LINE
  8
CSLAYER1
  6
CENTER
 62
     3
 10
770.451917
 20
285.564814
 11
770.451917
 21
349.564814
  0
ARC
  8
CSLAYER1
  6
CONTINUOUS
 62
     3
 10
690.451947
 20
355.970579
 40
2.000000
 50
269.999999
 51
359.999995
  0
LINE
  8
CSLAYER1
  6
CONTINUOUS
 62
     3
 10
690.451947
 20
353.970579
 11
662.451947
 21
353.970548
  0
ARC
  8
CSLAYER1
  6
CONTINUOUS
 62
     3
 10
662.451947
 20
355.970548
 40
2.000000
 50
180.057309
 51
269.999999
  0
LINE
  8
CSLAYER1
  6
CONTINUOUS
 62
     3
 10
660.451947
 20
355.970548
 11
660.451947
 21
362.564814
  0
LINE
  8
CSLAYER1
  6
CONTINUOUS
 62
     3
 10
692.451947
 20
362.564814
 11
692.451947
 21
355.970579
  0
LINE
  8
CSLAYER1
  6
CENTER
 62
     3
 10
626.944917
 20
363.526755
 11
562.944917
 21
363.526755
  0
LINE
  8
CSLAYER1
  6
CENTER
 62
     3
 10
562.944917
 20
271.602873
 11
626.944917
 21
271.602873
  0
LINE
  8
CSLAYER1
  6
CENTER
 62
     3
 10
854.065117
 20
362.544814
 11
921.452697
 21
362.544814
  0
ARC
  8
CSLAYER1
  6
CENTER
 62
     3
 10
980.458117
 20
317.564814
 40
65.000000
 50
122.917958
 51
147.082042
  0
LINE
  8
CSLAYER1
  6
CENTER
 62
     3
 10
944.170288
 20
353.852643
 11
924.822064
 21
373.200867
  0
LINE
  8
CSLAYER1
  6
CENTER
 62
     3
 10
894.458117
 20
317.564814
 11
1066.458117
 21
317.564814
  0
ARC
  8
CSLAYER1
  6
CENTER
 62
     3
 10
980.458117
 20
317.564814
 40
65.000000
 50
32.917958
 51
57.082042
  0
LINE
  8
CSLAYER1
  6
CENTER
 62
     3
 10
1016.745946
 20
353.852643
 11
1036.094170
 21
373.200867
  0
ARC
  8
CSLAYER1
  6
CENTER
 62
     3
 10
980.458117
 20
317.564814
 40
65.000000
 50
302.917958
 51
327.082042
  0
LINE
  8
CSLAYER1
  6
CENTER
 62
     3
 10
1016.745946
 20
281.276985
 11
1036.094170
 21
261.928761
  0
LINE
  8
CSLAYER1
  6
CENTER
 62
     3
 10
1040.458117
 20
249.144814
 11
1040.458117
 21
218.064814
  0
LINE
  8
CSLAYER1
  6
CENTER
 62
     3
 10
980.458117
 20
218.064814
 11
980.458117
 21
433.544814
  0
LINE
  8
CSLAYER1
  6
CENTER
 62
     3
 10
944.170288
 20
281.276985
 11
924.822064
 21
261.928761
  0
LINE
  8
CSLAYER1
  6
CENTER
 62
     3
 10
920.458117
 20
249.144814
 11
920.458117
 21
218.064814
  0
ARC
  8
CSLAYER1
  6
CENTER
 62
     3
 10
980.458117
 20
317.564814
 40
65.000000
 50
212.917958
 51
237.082042
  0
LINE
  8
CSLAYER1
  6
CENTER
 62
     3
 10
770.451917
 20
559.618630
 11
770.451917
 21
582.225441
  0
LINE
  8
CSLAYER1
  6
CENTER
 62
     3
 10
808.439917
 20
613.618660
 11
371.451917
 21
613.618660
  0
LINE
  8
CSLAYER1
  6
CENTER
 62
     3
 10
409.951917
 20
565.118660
 11
409.951917
 21
542.118660
  0
LINE
  8
CSLAYER1
  6
CENTER
 62
     3
 10
421.451917
 20
553.618660
 11
398.451917
 21
553.618660
  0
LINE
  8
CSLAYER1
  6
CENTER
 62
     3
 10
457.451917
 20
487.225660
 11
457.451917
 21
700.325660
  0
LINE
  8
CSLAYER1
  6
CENTER
 62
     3
 10
421.451917
 20
673.618660
 11
398.451917
 21
673.618660
  0
LINE
  8
CSLAYER1
  6
CENTER
 62
     3
 10
409.951917
 20
662.118660
 11
409.951917
 21
685.118660
  0
LINE
  8
CSLAYER1
  6
CENTER
 62
     3
 10
493.451917
 20
673.618660
 11
516.451917
 21
673.618660
  0
LINE
  8
CSLAYER1
  6
CENTER
 62
     3
 10
504.951917
 20
685.118660
 11
504.951917
 21
662.118660
  0
LINE
  8
CSLAYER1
  6
CENTER
 62
     3
 10
584.451917
 20
659.580601
 11
627.751917
 21
659.580601
  0
ARC
  8
CSLAYER1
  6
CONTINUOUS
 62
     3
 10
662.451917
 20
637.118660
 40
2.000000
 50
90.000000
 51
180.000000
  0
LINE
  8
CSLAYER1
  6
CONTINUOUS
 62
     3
 10
662.451917
 20
639.118660
 11
690.451917
 21
639.118660
  0
ARC
  8
CSLAYER1
  6
CONTINUOUS
 62
     3
 10
690.451917
 20
637.118660
 40
2.000000
 50
0.000000
 51
90.000000
  0
LINE
  8
CSLAYER1
  6
CONTINUOUS
 62
     3
 10
692.451917
 20
637.118660
 11
692.451917
 21
590.118660
  0
ARC
  8
CSLAYER1
  6
CONTINUOUS
 62
     3
 10
690.451917
 20
590.118660
 40
2.000000
 50
270.000000
 51
360.000000
  0
LINE
  8
CSLAYER1
  6
CONTINUOUS
 62
     3
 10
690.451917
 20
588.118660
 11
662.451917
 21
588.118660
  0
ARC
  8
CSLAYER1
  6
CONTINUOUS
 62
     3
 10
662.451917
 20
590.118660
 40
2.000000
 50
180.000000
 51
270.000000
  0
LINE
  8
CSLAYER1
  6
CONTINUOUS
 62
     3
 10
660.451917
 20
590.118660
 11
660.451917
 21
637.118660
  0
LINE
  8
CSLAYER1
  6
CENTER
 62
     3
 10
770.451917
 20
645.011818
 11
770.451917
 21
667.618630
  0
LINE
  8
CSLAYER1
  6
CENTER
 62
     3
 10
627.751917
 20
567.646720
 11
584.451917
 21
567.646720
  0
LINE
  8
CSLAYER1
  6
CENTER
 62
     3
 10
516.451917
 20
553.618660
 11
493.451917
 21
553.618660
  0
LINE
  8
CSLAYER1
  6
CENTER
 62
     3
 10
504.951917
 20
542.118660
 11
504.951917
 21
565.118660
  0
LINE
  8
CSLAYER1
  6
CENTER
 62
     3
 10
457.451917
 20
438.564814
 11
457.451917
 21
211.924814
  0
LINE
  8
CSLAYER1
  6
CENTER
 62
     3
 10
504.951917
 20
213.664814
 11
504.951917
 21
247.824814
  0
LINE
  8
CSLAYER1
  6
CENTER
 62
     3
 10
409.951917
 20
247.824814
 11
409.951917
 21
213.964814
  0
LINE
  8
CSLAYER1
  6
CENTER
 62
     3
 10
252.451917
 20
215.764814
 11
252.451917
 21
249.144814
  0
LINE
  8
CSLAYER1
  6
CENTER
 62
     3
 10
279.044917
 20
317.564814
 11
105.744917
 21
317.564814
  0
TEXT
  8
CSLAYER1
 62
     3
 10
678.395142
 20
608.368713
 40
3.500000
 41
1.125000
  1
N P
 50
90.000000
 51
10.000000
  7
JX_FONT
 72
     5
 11
678.395142
 21
618.868713
  0
LINE
  8
CSLAYER1
  6
CENTER
 62
     3
 10
1911.548083
 20
438.564814
 11
1911.548083
 21
211.924814
  0
LINE
  8
CSLAYER1
  6
CENTER
 62
     3
 10
1858.868083
 20
362.564814
 11
1964.228083
 21
362.564814
  0
LINE
  8
CSLAYER1
  6
CENTER
 62
     3
 10
1959.048083
 20
247.824814
 11
1959.048083
 21
213.964814
  0
LINE
  8
CSLAYER1
  6
CENTER
 62
     3
 10
1864.048083
 20
247.824814
 11
1864.048083
 21
213.664814
  0
LINE
  8
CSLAYER1
  6
CENTER
 62
     3
 10
2176.548083
 20
215.764814
 11
2176.548083
 21
437.164814
  0
LINE
  8
CSLAYER1
  6
CENTER
 62
     3
 10
2089.955083
 20
317.564814
 11
2263.255083
 21
317.564814
  0
LINE
  8
CSLAYER1
  6
CENTER
 62
     3
 10
2050.155083
 20
362.544814
 11
2248.548083
 21
362.544814
  0
LINE
  8
CSLAYER1
  6
CENTER
 62
     3
 10
2236.548083
 20
249.144814
 11
2236.548083
 21
211.244814
  0
LINE
  8
CSLAYER1
  6
CENTER
 62
     3
 10
2116.548083
 20
249.144814
 11
2116.548083
 21
211.244814
  0
LINE
  8
CSLAYER1
  6
CENTER
 62
     3
 10
1742.055083
 20
363.526755
 11
1806.055083
 21
363.526755
  0
LINE
  8
CSLAYER1
  6
CENTER
 62
     3
 10
1742.055083
 20
271.602873
 11
1806.055083
 21
271.602873
  0
LINE
  8
CSLAYER1
  6
CENTER
 62
     3
 10
1560.560083
 20
317.564814
 11
1846.531726
 21
317.564814
  0
LINE
  8
CSLAYER1
  6
CENTER
 62
     3
 10
1388.541883
 20
218.064814
 11
1388.541883
 21
433.544814
  0
LINE
  8
CSLAYER1
  6
CENTER
 62
     3
 10
1302.541883
 20
317.564814
 11
1474.541883
 21
317.564814
  0
LINE
  8
CSLAYER1
  6
CENTER
 62
     3
 10
1598.548083
 20
349.564814
 11
1598.548083
 21
285.564814
  0
LINE
  8
CSLAYER1
  6
CENTER
 62
     3
 10
1593.548083
 20
280.564814
 11
1593.548083
 21
269.864802
  0
ARC
  8
CSLAYER1
  6
CENTER
 62
     3
 10
1388.541883
 20
317.564814
 40
65.000000
 50
32.917958
 51
57.082042
  0
LINE
  8
CSLAYER1
  6
CENTER
 62
     3
 10
1424.829712
 20
353.852643
 11
1444.177936
 21
373.200867
  0
ARC
  8
CSLAYER1
  6
CENTER
 62
     3
 10
1388.541883
 20
317.564814
 40
65.000000
 50
122.917958
 51
147.082042
  0
LINE
  8
CSLAYER1
  6
CENTER
 62
     3
 10
1352.254054
 20
353.852643
 11
1332.905830
 21
373.200867
  0
ARC
  8
CSLAYER1
  6
CENTER
 62
     3
 10
1388.541883
 20
317.564814
 40
65.000000
 50
302.917958
 51
327.082042
  0
LINE
  8
CSLAYER1
  6
CENTER
 62
     3
 10
1424.829712
 20
281.276985
 11
1444.177936
 21
261.928761
  0
ARC
  8
CSLAYER1
  6
CENTER
 62
     3
 10
1388.541883
 20
317.564814
 40
65.000000
 50
212.917958
 51
237.082042
  0
LINE
  8
CSLAYER1
  6
CENTER
 62
     3
 10
1352.254054
 20
281.276985
 11
1332.905830
 21
261.928761
  0
LINE
  8
CSLAYER1
  6
CENTER
 62
     3
 10
1514.934883
 20
362.544814
 11
1447.547303
 21
362.544814
  0
LINE
  8
CSLAYER1
  6
CENTER
 62
     3
 10
1448.541883
 20
249.144814
 11
1448.541883
 21
211.244814
  0
LINE
  8
CSLAYER1
  6
CENTER
 62
     3
 10
1328.541883
 20
249.144814
 11
1328.541883
 21
211.244814
  0
LINE
  8
CSLAYER1
  6
CENTER
 62
     3
 10
1598.548083
 20
559.618630
 11
1598.548083
 21
582.225441
  0
LINE
  8
CSLAYER1
  6
CENTER
 62
     3
 10
1560.560083
 20
613.618660
 11
1997.548083
 21
613.618660
  0
ARC
  8
CSLAYER1
  6
CONTINUOUS
 62
     3
 10
1706.548083
 20
590.118660
 40
2.000000
 50
270.000000
 51
360.000000
  0
LINE
  8
CSLAYER1
  6
CONTINUOUS
 62
     3
 10
1708.548083
 20
590.118660
 11
1708.548083
 21
637.118660
  0
ARC
  8
CSLAYER1
  6
CONTINUOUS
 62
     3
 10
1706.548083
 20
637.118660
 40
2.000000
 50
0.000000
 51
90.000000
  0
LINE
  8
CSLAYER1
  6
CONTINUOUS
 62
     3
 10
1706.548083
 20
639.118660
 11
1678.548083
 21
639.118660
  0
ARC
  8
CSLAYER1
  6
CONTINUOUS
 62
     3
 10
1678.548083
 20
637.118660
 40
2.000000
 50
90.000000
 51
180.000000
  0
LINE
  8
CSLAYER1
  6
CONTINUOUS
 62
     3
 10
1676.548083
 20
637.118660
 11
1676.548083
 21
590.118660
  0
ARC
  8
CSLAYER1
  6
CONTINUOUS
 62
     3
 10
1678.548083
 20
590.118660
 40
2.000000
 50
180.000000
 51
270.000000
  0
LINE
  8
CSLAYER1
  6
CONTINUOUS
 62
     3
 10
1678.548083
 20
588.118660
 11
1706.548083
 21
588.118660
  0
LINE
  8
CSLAYER1
  6
CENTER
 62
     3
 10
1598.548083
 20
645.011818
 11
1598.548083
 21
667.618630
  0
TEXT
  8
CSLAYER1
 62
     3
 10
1690.604858
 20
618.868713
 40
3.500000
 41
1.125000
  1
N P
 50
-90.000000
 51
10.000000
  7
JX_FONT
 72
     5
 11
1690.604858
 21
608.368713
  0
LINE
  8
CSLAYER1
  6
CENTER
 62
     3
 10
1784.548083
 20
659.580601
 11
1741.248083
 21
659.580601
  0
LINE
  8
CSLAYER1
  6
CENTER
 62
     3
 10
1741.248083
 20
567.646720
 11
1784.548083
 21
567.646720
  0
LINE
  8
CSLAYER1
  6
CONTINUOUS
 62
     3
 10
1708.548053
 20
362.564814
 11
1708.548053
 21
355.970548
  0
ARC
  8
CSLAYER1
  6
CONTINUOUS
 62
     3
 10
1706.548053
 20
355.970548
 40
2.000000
 50
270.000001
 51
359.942691
  0
LINE
  8
CSLAYER1
  6
CONTINUOUS
 62
     3
 10
1706.548053
 20
353.970548
 11
1678.548053
 21
353.970579
  0
ARC
  8
CSLAYER1
  6
CONTINUOUS
 62
     3
 10
1678.548053
 20
355.970579
 40
2.000000
 50
180.000005
 51
270.000001
  0
LINE
  8
CSLAYER1
  6
CONTINUOUS
 62
     3
 10
1676.548053
 20
355.970579
 11
1676.548053
 21
362.564814
  0
LINE
  8
CSLAYER1
  6
CENTER
 62
     3
 10
1911.548083
 20
487.225660
 11
1911.548083
 21
700.325660
  0
LINE
  8
CSLAYER1
  6
CENTER
 62
     3
 10
1959.048083
 20
662.118660
 11
1959.048083
 21
685.118660
  0
LINE
  8
CSLAYER1
  6
CENTER
 62
     3
 10
1864.048083
 20
662.118660
 11
1864.048083
 21
685.118660
  0
LINE
  8
CSLAYER1
  6
CENTER
 62
     3
 10
1970.548083
 20
673.618660
 11
1947.548083
 21
673.618660
  0
LINE
  8
CSLAYER1
  6
CENTER
 62
     3
 10
1875.548083
 20
673.618660
 11
1852.548083
 21
673.618660
  0
LINE
  8
CSLAYER1
  6
CENTER
 62
     3
 10
1959.048083
 20
565.118660
 11
1959.048083
 21
542.118660
  0
LINE
  8
CSLAYER1
  6
CENTER
 62
     3
 10
1864.048083
 20
565.118660
 11
1864.048083
 21
542.118660
  0
LINE
  8
CSLAYER1
  6
CENTER
 62
     3
 10
1970.548083
 20
553.618660
 11
1947.548083
 21
553.618660
  0
LINE
  8
CSLAYER1
  6
CENTER
 62
     3
 10
1875.548083
 20
553.618660
 11
1852.548083
 21
553.618660
  0
LINE
  8
CSLAYER1
  6
CONTINUOUS
 62
     6
 10
117.451917
 20
222.564814
 11
162.451917
 21
222.564814
  0
LINE
  8
CSLAYER1
  6
CONTINUOUS
 62
     6
 10
162.451917
 20
222.564814
 11
163.951917
 21
224.064814
  0
LINE
  8
CSLAYER1
  6
CONTINUOUS
 62
     6
 10
163.951917
 20
224.064814
 11
220.951917
 21
224.064814
  0
LINE
  8
CSLAYER1
  6
CONTINUOUS
 62
     6
 10
220.951917
 20
224.064814
 11
222.451917
 21
222.564814
  0
LINE
  8
CSLAYER1
  6
CONTINUOUS
 62
     6
 10
222.451917
 20
222.564814
 11
267.451917
 21
222.564814
  0
LINE
  8
CSLAYER1
  6
CONTINUOUS
 62
     6
 10
267.451917
 20
222.564814
 11
267.451917
 21
238.444814
  0
ARC
  8
CSLAYER1
  6
CONTINUOUS
 62
     6
 10
264.951917
 20
238.444814
 40
2.500000
 50
0.000000
 51
80.540000
  0
LINE
  8
CSLAYER1
  6
CONTINUOUS
 62
     6
 10
265.371917
 20
240.904814
 11
239.951917
 21
245.144814
  0
ARC
  8
CSLAYER1
  6
CONTINUOUS
 62
     6
 10
240.451917
 20
248.104814
 40
3.000000
 50
180.000000
 51
260.540000
  0
ARC
  8
CSLAYER1
  6
CONTINUOUS
 62
     6
 10
192.451917
 20
317.564814
 40
80.000000
 50
-55.770000
 51
21.260000
  0
LINE
  8
CSLAYER1
  6
CONTINUOUS
 62
     6
 10
257.451917
 20
346.544814
 11
312.451917
 21
346.544814
  0
LINE
  8
CSLAYER1
  6
CONTINUOUS
 62
     6
 10
312.451917
 20
346.544814
 11
312.451917
 21
378.544814
  0
LINE
  8
CSLAYER1
  6
CONTINUOUS
 62
     6
 10
312.451917
 20
378.544814
 11
257.451917
 21
378.544814
  0
LINE
  8
CSLAYER1
  6
CONTINUOUS
 62
     6
 10
257.451917
 20
380.044814
 11
257.451917
 21
345.044814
  0
LINE
  8
CSLAYER1
  6
CONTINUOUS
 62
     6
 10
257.451917
 20
345.044814
 11
254.451917
 21
345.044814
  0
ARC
  8
CSLAYER1
  6
CONTINUOUS
 62
     6
 10
192.451917
 20
317.564814
 40
64.000000
 50
-30.750000
 51
14.370000
  0
ARC
  8
CSLAYER1
  6
CONTINUOUS
 62
     6
 10
256.411917
 20
280.324814
 40
10.000000
 50
149.800000
 51
153.580000
  0
ARC
  8
CSLAYER1
  6
CONTINUOUS
 62
     6
 10
192.451917
 20
317.564814
 40
63.500000
 50
-29.980000
 51
12.480000
  0
ARC
  8
CSLAYER1
  6
CONTINUOUS
 62
     6
 10
258.531917
 20
328.584814
 40
3.000000
 50
189.480000
 51
219.080000
  0
ARC
  8
CSLAYER1
  6
CONTINUOUS
 62
     6
 10
244.951917
 20
317.564814
 40
14.500000
 50
-39.070000
 51
39.080000
  0
ARC
  8
CSLAYER1
  6
CONTINUOUS
 62
     6
 10
258.531917
 20
306.524814
 40
3.000000
 50
140.930000
 51
170.530000
  0
ARC
  8
CSLAYER1
  6
CONTINUOUS
 62
     6
 10
251.451917
 20
318.504814
 40
4.000000
 50
106.390000
 51
180.000000
  0
LINE
  8
CSLAYER1
  6
CONTINUOUS
 62
     6
 10
250.331917
 20
322.344814
 11
250.871917
 21
322.504814
  0
ARC
  8
CSLAYER1
  6
CONTINUOUS
 62
     6
 10
249.451917
 20
327.304814
 40
5.000000
 50
286.390000
 51
360.000000
  0
LINE
  8
CSLAYER1
  6
CONTINUOUS
 62
     6
 10
254.451917
 20
327.304814
 11
254.451917
 21
397.804814
  0
ARC
  8
CSLAYER1
  6
CONTINUOUS
 62
     6
 10
249.451917
 20
397.804814
 40
5.000000
 50
0.000000
 51
73.620000
  0
LINE
  8
CSLAYER1
  6
CONTINUOUS
 62
     6
 10
250.871917
 20
402.604814
 11
241.051917
 21
405.504814
  0
ARC
  8
CSLAYER1
  6
CONTINUOUS
 62
     6
 10
242.451917
 20
410.304814
 40
5.000000
 50
180.000000
 51
253.620000
  0
LINE
  8
CSLAYER1
  6
CONTINUOUS
 62
     6
 10
234.871917
 20
395.044814
 11
150.191917
 21
395.044814
  0
LINE
  8
CSLAYER1
  6
CONTINUOUS
 62
     6
 10
143.871917
 20
405.504814
 11
134.051917
 21
402.604814
  0
ARC
  8
CSLAYER1
  6
CONTINUOUS
 62
     6
 10
135.451917
 20
397.804814
 40
5.000000
 50
106.390000
 51
180.000000
  0
LINE
  8
CSLAYER1
  6
CONTINUOUS
 62
     6
 10
130.451917
 20
397.804814
 11
130.451917
 21
327.304814
  0
ARC
  8
CSLAYER1
  6
CONTINUOUS
 62
     6
 10
135.451917
 20
327.304814
 40
5.000000
 50
180.000000
 51
253.620000
  0
LINE
  8
CSLAYER1
  6
CONTINUOUS
 62
     6
 10
134.051917
 20
322.504814
 11
134.591917
 21
322.344814
  0
ARC
  8
CSLAYER1
  6
CONTINUOUS
 62
     6
 10
133.451917
 20
318.504814
 40
4.000000
 50
0.000000
 51
73.620000
  0
ARC
  8
CSLAYER1
  6
CONTINUOUS
 62
     6
 10
126.371917
 20
328.584814
 40
3.000000
 50
320.930000
 51
350.530000
  0
ARC
  8
CSLAYER1
  6
CONTINUOUS
 62
     6
 10
139.951917
 20
317.564814
 40
14.500000
 50
140.930000
 51
219.080000
  0
ARC
  8
CSLAYER1
  6
CONTINUOUS
 62
     6
 10
126.371917
 20
306.524814
 40
3.000000
 50
9.480000
 51
39.080000
  0
ARC
  8
CSLAYER1
  6
CONTINUOUS
 62
     6
 10
192.451917
 20
317.564814
 40
63.500000
 50
167.530000
 51
209.990000
  0
ARC
  8
CSLAYER1
  6
CONTINUOUS
 62
     6
 10
192.451917
 20
317.564814
 40
64.000000
 50
165.640000
 51
210.760000
  0
ARC
  8
CSLAYER1
  6
CONTINUOUS
 62
     6
 10
128.491917
 20
280.324814
 40
10.000000
 50
26.440000
 51
30.210000
  0
LINE
  8
CSLAYER1
  6
CONTINUOUS
 62
     6
 10
137.451917
 20
278.304814
 11
137.451917
 21
366.464814
  0
ARC
  8
CSLAYER1
  6
CONTINUOUS
 62
     6
 10
192.451917
 20
317.564814
 40
80.000000
 50
140.805033
 51
235.780000
  0
ARC
  8
CSLAYER1
  6
CONTINUOUS
 62
     6
 10
144.451917
 20
248.104814
 40
3.000000
 50
279.470000
 51
360.000000
  0
LINE
  8
CSLAYER1
  6
CONTINUOUS
 62
     6
 10
144.951917
 20
245.144814
 11
119.551917
 21
240.904814
  0
ARC
  8
CSLAYER1
  6
CONTINUOUS
 62
     6
 10
119.951917
 20
238.444814
 40
2.500000
 50
99.470000
 51
180.000000
  0
LINE
  8
CSLAYER1
  6
CONTINUOUS
 62
     6
 10
117.451917
 20
238.444814
 11
117.451917
 21
222.564814
  0
LINE
  8
CSLAYER1
  6
DOT
 62
     6
 10
125.951917
 20
222.564814
 11
125.951917
 21
240.564814
  0
LINE
  8
CSLAYER1
  6
CONTINUOUS
 62
     6
 10
119.951917
 20
240.564814
 11
143.451917
 21
240.564814
  0
ARC
  8
CSLAYER1
  6
CONTINUOUS
 62
     6
 10
143.451917
 20
244.564814
 40
4.000000
 50
270.000000
 51
360.000000
  0
LINE
  8
CSLAYER1
  6
DOT
 62
     6
 10
138.951917
 20
240.564814
 11
138.951917
 21
222.564814
  0
LINE
  8
CSLAYER1
  6
CONTINUOUS
 62
     6
 10
147.451917
 20
222.564814
 11
147.451917
 21
423.824814
  0
ARC
  8
CSLAYER1
  6
CONTINUOUS
 62
     6
 10
150.451917
 20
423.824814
 40
3.000000
 50
91.000000
 51
180.000000
  0
LINE
  8
CSLAYER1
  6
CONTINUOUS
 62
     6
 10
150.411917
 20
426.824814
 11
192.451917
 21
427.544814
  0
LINE
  8
CSLAYER1
  6
CONTINUOUS
 62
     6
 10
192.451917
 20
427.544814
 11
234.511917
 21
426.824814
  0
ARC
  8
CSLAYER1
  6
CONTINUOUS
 62
     6
 10
234.451917
 20
423.824814
 40
3.000000
 50
0.000000
 51
89.000000
  0
LINE
  8
CSLAYER1
  6
CONTINUOUS
 62
     6
 10
237.451917
 20
423.824814
 11
237.451917
 21
222.564814
  0
LINE
  8
CSLAYER1
  6
DOT
 62
     6
 10
245.951917
 20
222.564814
 11
245.951917
 21
240.564814
  0
LINE
  8
CSLAYER1
  6
CONTINUOUS
 62
     6
 10
241.451917
 20
240.564814
 11
264.951917
 21
240.564814
  0
ARC
  8
CSLAYER1
  6
CONTINUOUS
 62
     6
 10
264.951917
 20
238.064814
 40
2.500000
 50
0.000000
 51
90.000000
  0
LINE
  8
CSLAYER1
  6
DOT
 62
     6
 10
258.951917
 20
240.564814
 11
258.951917
 21
222.564814
  0
ARC
  8
CSLAYER1
  6
CONTINUOUS
 62
     6
 10
241.451917
 20
244.544814
 40
4.000000
 50
180.000000
 51
270.000000
  0
ARC
  8
CSLAYER1
  6
CONTINUOUS
 62
     6
 10
238.411917
 20
271.584814
 40
10.000000
 50
-95.520000
 51
25.900000
  0
ARC
  8
CSLAYER1
  6
CONTINUOUS
 62
     6
 10
256.411917
 20
280.324814
 40
10.000000
 50
202.070000
 51
205.900000
  0
LINE
  8
CSLAYER1
  6
CONTINUOUS
 62
     6
 10
247.451917
 20
278.304814
 11
247.451917
 21
366.464814
  0
LINE
  8
CSLAYER1
  6
CONTINUOUS
 62
     6
 10
254.451917
 20
380.044814
 11
257.451917
 21
380.044814
  0
ARC
  8
CSLAYER1
  6
CONTINUOUS
 62
     6
 10
267.451917
 20
362.544814
 40
5.000000
 50
90.000000
 51
270.000000
  0
LINE
  8
CSLAYER1
  6
CONTINUOUS
 62
     6
 10
267.451917
 20
357.544814
 11
312.451917
 21
357.544814
  0
LINE
  8
CSLAYER1
  6
CONTINUOUS
 62
     6
 10
312.451917
 20
367.544814
 11
267.451917
 21
367.544814
  0
ARC
  8
CSLAYER1
  6
CONTINUOUS
 62
     6
 10
242.451917
 20
278.304814
 40
5.000000
 50
286.180000
 51
360.000000
  0
LINE
  8
CSLAYER1
  6
CONTINUOUS
 62
     6
 10
243.851917
 20
273.504814
 11
241.051917
 21
272.704814
  0
ARC
  8
CSLAYER1
  6
CONTINUOUS
 62
     6
 10
242.451917
 20
267.904814
 40
5.000000
 50
106.180000
 51
180.000000
  0
ARC
  8
CSLAYER1
  6
CONTINUOUS
 62
     6
 10
142.451917
 20
267.904814
 40
5.000000
 50
0.000000
 51
73.830000
  0
LINE
  8
CSLAYER1
  6
CONTINUOUS
 62
     6
 10
143.851917
 20
272.704814
 11
141.051917
 21
273.504814
  0
ARC
  8
CSLAYER1
  6
CONTINUOUS
 62
     6
 10
142.451917
 20
278.304814
 40
5.000000
 50
180.000000
 51
253.830000
  0
ARC
  8
CSLAYER1
  6
CONTINUOUS
 62
     6
 10
128.491917
 20
280.324814
 40
10.000000
 50
334.110000
 51
337.930000
  0
ARC
  8
CSLAYER1
  6
CONTINUOUS
 62
     6
 10
146.491917
 20
271.584814
 40
10.000000
 50
154.110000
 51
275.530000
  0
ARC
  8
CSLAYER1
  6
CONTINUOUS
 62
     6
 10
119.951917
 20
238.064814
 40
2.500000
 50
90.000000
 51
180.000000
  0
ARC
  8
CSLAYER1
  6
CONTINUOUS
 62
     6
 10
192.451917
 20
317.564814
 40
64.000000
 50
134.680000
 51
135.330000
  0
ARC
  8
CSLAYER1
  6
CONTINUOUS
 62
     6
 10
142.451917
 20
410.304814
 40
5.000000
 50
286.390000
 51
360.000000
  0
LINE
  8
CSLAYER1
  6
CONTINUOUS
 62
     6
 10
381.451917
 20
390.884814
 11
381.451917
 21
222.564814
  0
LINE
  8
CSLAYER1
  6
CONTINUOUS
 62
     6
 10
381.451917
 20
222.564814
 11
533.451917
 21
222.564814
  0
LINE
  8
CSLAYER1
  6
CONTINUOUS
 62
     6
 10
533.451917
 20
222.564814
 11
533.451917
 21
390.884814
  0
ARC
  8
CSLAYER1
  6
CONTINUOUS
 62
     6
 10
525.451917
 20
390.884814
 40
8.000000
 50
0.000000
 51
55.340000
  0
LINE
  8
CSLAYER1
  6
CONTINUOUS
 62
     6
 10
530.011917
 20
397.464814
 11
488.511917
 21
426.164814
  0
ARC
  8
CSLAYER1
  6
CONTINUOUS
 62
     6
 10
483.951917
 20
419.564814
 40
8.000000
 50
55.340000
 51
90.000000
  0
LINE
  8
CSLAYER1
  6
CONTINUOUS
 62
     6
 10
483.951917
 20
427.564814
 11
430.951917
 21
427.564814
  0
ARC
  8
CSLAYER1
  6
CONTINUOUS
 62
     6
 10
430.951917
 20
419.564814
 40
8.000000
 50
90.000000
 51
124.670000
  0
LINE
  8
CSLAYER1
  6
CONTINUOUS
 62
     6
 10
426.391917
 20
426.164814
 11
384.911917
 21
397.464814
  0
ARC
  8
CSLAYER1
  6
CONTINUOUS
 62
     6
 10
389.451917
 20
390.884814
 40
8.000000
 50
124.670000
 51
180.000000
  0
LINE
  8
CSLAYER1
  6
CONTINUOUS
 62
     6
 10
414.491917
 20
372.124814
 11
400.811917
 21
310.484814
  0
ARC
  8
CSLAYER1
  6
CONTINUOUS
 62
     6
 10
431.951917
 20
303.584814
 40
31.880000
 50
167.480000
 51
270.000000
  0
LINE
  8
CSLAYER1
  6
CONTINUOUS
 62
     6
 10
431.951917
 20
271.684814
 11
482.951917
 21
271.684814
  0
ARC
  8
CSLAYER1
  6
CONTINUOUS
 62
     6
 10
482.951917
 20
303.584814
 40
31.880000
 50
-90.000000
 51
12.530000
  0
LINE
  8
CSLAYER1
  6
CONTINUOUS
 62
     6
 10
514.091917
 20
310.484814
 11
500.411917
 21
372.124814
  0
ARC
  8
CSLAYER1
  6
CONTINUOUS
 62
     6
 10
457.451917
 20
362.564814
 40
44.000000
 50
12.530000
 51
167.480000
  0
LINE
  8
CSLAYER1
  6
CONTINUOUS
 62
     6
 10
417.331917
 20
371.484814
 11
403.651917
 21
309.864814
  0
ARC
  8
CSLAYER1
  6
CONTINUOUS
 62
     6
 10
431.951917
 20
303.584814
 40
29.000000
 50
167.480000
 51
270.000000
  0
LINE
  8
CSLAYER1
  6
CONTINUOUS
 62
     6
 10
431.951917
 20
274.584814
 11
482.951917
 21
274.584814
  0
ARC
  8
CSLAYER1
  6
CONTINUOUS
 62
     6
 10
482.951917
 20
303.584814
 40
29.000000
 50
-90.000000
 51
12.530000
  0
LINE
  8
CSLAYER1
  6
CONTINUOUS
 62
     6
 10
511.271917
 20
309.864814
 11
497.571917
 21
371.484814
  0
ARC
  8
CSLAYER1
  6
CONTINUOUS
 62
     6
 10
457.451917
 20
362.564814
 40
41.080000
 50
-192.520000
 51
12.530000
  0
LINE
  8
CSLAYER1
  6
CONTINUOUS
 62
     6
 10
438.451917
 20
367.584814
 11
438.451917
 21
357.584814
  0
LINE
  8
CSLAYER1
  6
CONTINUOUS
 62
     6
 10
438.451917
 20
357.584814
 11
446.451917
 21
357.584814
  0
LINE
  8
CSLAYER1
  6
CONTINUOUS
 62
     6
 10
446.451917
 20
357.584814
 11
446.451917
 21
367.584814
  0
LINE
  8
CSLAYER1
  6
CONTINUOUS
 62
     6
 10
446.451917
 20
367.584814
 11
438.451917
 21
367.584814
  0
ARC
  8
CSLAYER1
  6
CONTINUOUS
 62
     6
 10
457.451917
 20
362.564814
 40
16.000000
 50
-161.790000
 51
161.800000
  0
CIRCLE
  8
CSLAYER1
  6
CONTINUOUS
 62
     6
 10
457.451917
 20
362.564814
 40
39.000000
  0
ARC
  8
CSLAYER1
  6
CONTINUOUS
 62
     6
 10
353.751917
 20
317.564814
 40
185.200000
 50
-13.990000
 51
14.000000
  0
LINE
  8
CSLAYER1
  6
CONTINUOUS
 62
     6
 10
538.451917
 20
254.064814
 11
545.451917
 21
254.064814
  0
LINE
  8
CSLAYER1
  6
CONTINUOUS
 62
     6
 10
545.451917
 20
253.564814
 11
545.451917
 21
381.544814
  0
LINE
  8
CSLAYER1
  6
CONTINUOUS
 62
     6
 10
545.451917
 20
381.544814
 11
590.531917
 21
382.724814
  0
ARC
  8
CSLAYER1
  6
CONTINUOUS
 62
     6
 10
590.451917
 20
385.724814
 40
3.000000
 50
271.500000
 51
360.000000
  0
ARC
  8
CSLAYER1
  6
CONTINUOUS
 62
     6
 10
588.451917
 20
389.684814
 40
5.000000
 50
271.500000
 51
360.000000
  0
LINE
  8
CSLAYER1
  6
CONTINUOUS
 62
     6
 10
588.591917
 20
384.684814
 11
585.411917
 21
384.604814
  0
ARC
  8
CSLAYER1
  6
CONTINUOUS
 62
     6
 10
585.451917
 20
382.604814
 40
2.000000
 50
91.500000
 51
151.580000
  0
ARC
  8
CSLAYER1
  6
CONTINUOUS
 62
     6
 10
581.931917
 20
384.504814
 40
2.000000
 50
271.500000
 51
331.580000
  0
LINE
  8
CSLAYER1
  6
CONTINUOUS
 62
     6
 10
573.831917
 20
373.644814
 11
593.451917
 21
374.164814
  0
ARC
  8
CSLAYER1
  6
CONTINUOUS
 62
     6
 10
573.951917
 20
368.644814
 40
5.000000
 50
91.510000
 51
180.000000
  0
LINE
  8
CSLAYER1
  6
CONTINUOUS
 62
     6
 10
568.951917
 20
368.644814
 11
568.951917
 21
358.384814
  0
ARC
  8
CSLAYER1
  6
CONTINUOUS
 62
     6
 10
573.951917
 20
358.384814
 40
5.000000
 50
180.000000
 51
268.500000
  0
LINE
  8
CSLAYER1
  6
CONTINUOUS
 62
     6
 10
573.831917
 20
353.384814
 11
593.451917
 21
352.864814
  0
LINE
  8
CSLAYER1
  6
CONTINUOUS
 62
     6
 10
593.451917
 20
325.564814
 11
585.451917
 21
325.564814
  0
ARC
  8
CSLAYER1
  6
CONTINUOUS
 62
     6
 10
585.451917
 20
323.564814
 40
2.000000
 50
90.000000
 51
180.000000
  0
LINE
  8
CSLAYER1
  6
CONTINUOUS
 62
     6
 10
583.451917
 20
323.564814
 11
583.451917
 21
311.564814
  0
ARC
  8
CSLAYER1
  6
CONTINUOUS
 62
     6
 10
585.451917
 20
311.564814
 40
2.000000
 50
180.000000
 51
270.000000
  0
LINE
  8
CSLAYER1
  6
CONTINUOUS
 62
     6
 10
585.451917
 20
309.564814
 11
593.451917
 21
309.564814
  0
LINE
  8
CSLAYER1
  6
CONTINUOUS
 62
     6
 10
593.451917
 20
282.244814
 11
573.831917
 21
281.724814
  0
ARC
  8
CSLAYER1
  6
CONTINUOUS
 62
     6
 10
573.951917
 20
276.724814
 40
5.000000
 50
91.500000
 51
180.000000
  0
LINE
  8
CSLAYER1
  6
CONTINUOUS
 62
     6
 10
568.951917
 20
276.724814
 11
568.951917
 21
266.464814
  0
ARC
  8
CSLAYER1
  6
CONTINUOUS
 62
     6
 10
573.951917
 20
266.464814
 40
5.000000
 50
180.000000
 51
268.500000
  0
LINE
  8
CSLAYER1
  6
CONTINUOUS
 62
     6
 10
573.831917
 20
261.464814
 11
593.451917
 21
260.944814
  0
LINE
  8
CSLAYER1
  6
CONTINUOUS
 62
     6
 10
590.531917
 20
252.384814
 11
545.451917
 21
253.564814
  0
ARC
  8
CSLAYER1
  6
CONTINUOUS
 62
     6
 10
538.451917
 20
249.044814
 40
5.000000
 50
90.000000
 51
180.000000
  0
LINE
  8
CSLAYER1
  6
CONTINUOUS
 62
     6
 10
533.451917
 20
240.564814
 11
381.451917
 21
240.564814
  0
LINE
  8
CSLAYER1
  6
CONTINUOUS
 62
     6
 10
395.451917
 20
238.484814
 11
395.451917
 21
222.564814
  0
LINE
  8
CSLAYER1
  6
DOT
 62
     6
 10
403.451917
 20
222.564814
 11
403.451917
 21
240.564814
  0
LINE
  8
CSLAYER1
  6
DOT
 62
     6
 10
416.451917
 20
240.564814
 11
416.451917
 21
222.564814
  0
ARC
  8
CSLAYER1
  6
CONTINUOUS
 62
     6
 10
425.391917
 20
245.564814
 40
5.000000
 50
270.000000
 51
315.000000
  0
LINE
  8
CSLAYER1
  6
CONTINUOUS
 62
     6
 10
428.911917
 20
242.024814
 11
431.571917
 21
244.684814
  0
ARC
  8
CSLAYER1
  6
CONTINUOUS
 62
     6
 10
433.691917
 20
242.564814
 40
3.000000
 50
90.000000
 51
135.000000
  0
LINE
  8
CSLAYER1
  6
CONTINUOUS
 62
     6
 10
433.691917
 20
245.564814
 11
481.211917
 21
245.564814
  0
ARC
  8
CSLAYER1
  6
CONTINUOUS
 62
     6
 10
481.211917
 20
242.564814
 40
3.000000
 50
45.000000
 51
90.000000
  0
LINE
  8
CSLAYER1
  6
CONTINUOUS
 62
     6
 10
483.331917
 20
244.684814
 11
485.991917
 21
242.024814
  0
ARC
  8
CSLAYER1
  6
CONTINUOUS
 62
     6
 10
489.531917
 20
245.564814
 40
5.000000
 50
225.000000
 51
270.000000
  0
ARC
  8
CSLAYER1
  6
CONTINUOUS
 62
     6
 10
483.451917
 20
241.564814
 40
1.000000
 50
180.000000
 51
270.000000
  0
LINE
  8
CSLAYER1
  6
CONTINUOUS
 62
     6
 10
482.451917
 20
241.564814
 11
482.451917
 21
244.624814
  0
LINE
  8
CSLAYER1
  6
DOT
 62
     6
 10
498.451917
 20
240.564814
 11
498.451917
 21
222.564814
  0
LINE
  8
CSLAYER1
  6
DOT
 62
     6
 10
511.451917
 20
222.564814
 11
511.451917
 21
240.564814
  0
LINE
  8
CSLAYER1
  6
CONTINUOUS
 62
     6
 10
519.451917
 20
238.484814
 11
519.451917
 21
222.564814
  0
ARC
  8
CSLAYER1
  6
CONTINUOUS
 62
     6
 10
581.931917
 20
250.604814
 40
2.000000
 50
28.430000
 51
88.510000
  0
ARC
  8
CSLAYER1
  6
CONTINUOUS
 62
     6
 10
585.451917
 20
252.504814
 40
2.000000
 50
208.430000
 51
268.510000
  0
LINE
  8
CSLAYER1
  6
CONTINUOUS
 62
     6
 10
585.411917
 20
250.504814
 11
588.591917
 21
250.424814
  0
ARC
  8
CSLAYER1
  6
CONTINUOUS
 62
     6
 10
588.451917
 20
245.424814
 40
5.000000
 50
0.000000
 51
88.510000
  0
ARC
  8
CSLAYER1
  6
CONTINUOUS
 62
     6
 10
590.451917
 20
249.384814
 40
3.000000
 50
0.000000
 51
88.510000
  0
LINE
  8
CSLAYER1
  6
CONTINUOUS
 62
     6
 10
593.451917
 20
240.424814
 11
593.451917
 21
394.424814
  0
ARC
  8
CSLAYER1
  6
CONTINUOUS
 62
     6
 10
596.451917
 20
394.424814
 40
3.000000
 50
91.510000
 51
180.000000
  0
LINE
  8
CSLAYER1
  6
CONTINUOUS
 62
     6
 10
596.371917
 20
397.424814
 11
601.451917
 21
397.544814
  0
LINE
  8
CSLAYER1
  6
CONTINUOUS
 62
     6
 10
601.451917
 20
397.544814
 11
601.451917
 21
237.564814
  0
LINE
  8
CSLAYER1
  6
CONTINUOUS
 62
     6
 10
601.451917
 20
237.564814
 11
614.451917
 21
237.564814
  0
LINE
  8
CSLAYER1
  6
CONTINUOUS
 62
     6
 10
614.451917
 20
237.564814
 11
614.451917
 21
397.564814
  0
LINE
  8
CSLAYER1
  6
CONTINUOUS
 62
     6
 10
614.451917
 20
397.564814
 11
601.451917
 21
397.564814
  0
LINE
  8
CSLAYER1
  6
CONTINUOUS
 62
     6
 10
614.451917
 20
371.226755
 11
616.451917
 21
371.226755
  0
LINE
  8
CSLAYER1
  6
CONTINUOUS
 62
     6
 10
616.451917
 20
371.226755
 11
616.451917
 21
355.826755
  0
LINE
  8
CSLAYER1
  6
CONTINUOUS
 62
     6
 10
616.451917
 20
355.826755
 11
614.451917
 21
355.826755
  0
LINE
  8
CSLAYER1
  6
CONTINUOUS
 62
     6
 10
616.451917
 20
356.021201
 11
621.249140
 21
356.021201
  0
LINE
  8
CSLAYER1
  6
CONTINUOUS
 62
     6
 10
621.249140
 20
356.021201
 11
621.751917
 21
357.221755
  0
LINE
  8
CSLAYER1
  6
CONTINUOUS
 62
     6
 10
621.751917
 20
357.221755
 11
621.751917
 21
369.831755
  0
LINE
  8
CSLAYER1
  6
CONTINUOUS
 62
     6
 10
621.751917
 20
369.831755
 11
621.249140
 21
371.032308
  0
LINE
  8
CSLAYER1
  6
CONTINUOUS
 62
     6
 10
621.249140
 20
371.032308
 11
616.451917
 21
371.032308
  0
LINE
  8
CSLAYER1
  6
CONTINUOUS
 62
     6
 10
616.451917
 20
367.279532
 11
621.249140
 21
367.279532
  0
ARC
  8
CSLAYER1
  6
CONTINUOUS
 62
     6
 10
617.999140
 20
369.155920
 40
3.752777
 50
-30.000000
 51
15.446648
  0
ARC
  8
CSLAYER1
  6
CONTINUOUS
 62
     6
 10
607.494975
 20
363.526755
 40
14.256942
 50
-15.261480
 51
15.261480
  0
ARC
  8
CSLAYER1
  6
CONTINUOUS
 62
     6
 10
617.999140
 20
357.897590
 40
3.752777
 50
-15.446648
 51
30.000000
  0
LINE
  8
CSLAYER1
  6
CONTINUOUS
 62
     6
 10
621.249140
 20
359.773978
 11
616.451917
 21
359.773978
  0
LINE
  8
CSLAYER1
  6
CONTINUOUS
 62
     6
 10
616.451917
 20
362.910755
 11
614.451917
 21
362.294755
  0
LINE
  8
CSLAYER1
  6
CONTINUOUS
 62
     6
 10
614.451917
 20
364.142755
 11
616.451917
 21
364.758755
  0
LINE
  8
CSLAYER1
  6
CONTINUOUS
 62
     6
 10
621.751917
 20
362.564814
 11
749.451917
 21
362.564814
  0
LINE
  8
CSLAYER1
  6
CONTINUOUS
 62
     6
 10
749.451917
 20
362.564814
 11
749.451917
 21
272.564814
  0
LINE
  8
CSLAYER1
  6
CONTINUOUS
 62
     6
 10
749.451917
 20
272.564814
 11
621.751917
 21
272.564814
  0
LINE
  8
CSLAYER1
  6
CONTINUOUS
 62
     6
 10
621.249140
 20
275.355650
 11
616.451917
 21
275.355650
  0
LINE
  8
CSLAYER1
  6
CONTINUOUS
 62
     6
 10
616.451917
 20
272.834873
 11
614.451917
 21
272.218873
  0
LINE
  8
CSLAYER1
  6
CONTINUOUS
 62
     6
 10
614.451917
 20
270.370873
 11
616.451917
 21
270.986873
  0
LINE
  8
CSLAYER1
  6
CONTINUOUS
 62
     6
 10
616.451917
 20
267.850096
 11
621.249140
 21
267.850096
  0
ARC
  8
CSLAYER1
  6
CONTINUOUS
 62
     6
 10
607.494975
 20
271.602873
 40
14.256942
 50
-15.261480
 51
15.261480
  0
ARC
  8
CSLAYER1
  6
CONTINUOUS
 62
     6
 10
617.999140
 20
277.232038
 40
3.752777
 50
-30.000000
 51
15.446648
  0
LINE
  8
CSLAYER1
  6
CONTINUOUS
 62
     6
 10
621.751917
 20
277.907873
 11
621.751917
 21
265.297873
  0
LINE
  8
CSLAYER1
  6
CONTINUOUS
 62
     6
 10
621.751917
 20
265.297873
 11
621.249140
 21
264.097320
  0
LINE
  8
CSLAYER1
  6
CONTINUOUS
 62
     6
 10
621.249140
 20
264.097320
 11
616.451917
 21
264.097320
  0
LINE
  8
CSLAYER1
  6
CONTINUOUS
 62
     6
 10
616.451917
 20
263.902873
 11
616.451917
 21
279.302873
  0
LINE
  8
CSLAYER1
  6
CONTINUOUS
 62
     6
 10
616.451917
 20
279.302873
 11
614.451917
 21
279.302873
  0
LINE
  8
CSLAYER1
  6
CONTINUOUS
 62
     6
 10
616.451917
 20
279.108427
 11
621.249140
 21
279.108427
  0
LINE
  8
CSLAYER1
  6
CONTINUOUS
 62
     6
 10
621.249140
 20
279.108427
 11
621.751917
 21
277.907873
  0
ARC
  8
CSLAYER1
  6
CONTINUOUS
 62
     6
 10
617.999140
 20
265.973708
 40
3.752777
 50
-15.446648
 51
30.000000
  0
LINE
  8
CSLAYER1
  6
CONTINUOUS
 62
     6
 10
616.451917
 20
263.902873
 11
614.451917
 21
263.902873
  0
LINE
  8
CSLAYER1
  6
CONTINUOUS
 62
     6
 10
601.451917
 20
237.564814
 11
596.371917
 21
237.684814
  0
ARC
  8
CSLAYER1
  6
CONTINUOUS
 62
     6
 10
596.451917
 20
240.684814
 40
3.000000
 50
188.320000
 51
268.500000
  0
ARC
  8
CSLAYER1
  6
CONTINUOUS
 62
     6
 10
591.511917
 20
239.964814
 40
2.000000
 50
8.320000
 51
13.170000
  0
LINE
  8
CSLAYER1
  6
CONTINUOUS
 62
     6
 10
545.451917
 20
381.044814
 11
538.451917
 21
381.044814
  0
ARC
  8
CSLAYER1
  6
CONTINUOUS
 62
     6
 10
538.451917
 20
386.044814
 40
5.000000
 50
180.000000
 51
270.000000
  0
LINE
  8
CSLAYER1
  6
CONTINUOUS
 62
     6
 10
432.451917
 20
244.624814
 11
432.451917
 21
241.564814
  0
ARC
  8
CSLAYER1
  6
CONTINUOUS
 62
     6
 10
431.451917
 20
241.564814
 40
1.000000
 50
270.000000
 51
360.000000
  0
LINE
  8
CSLAYER1
  6
CONTINUOUS
 62
     6
 10
438.451917
 20
493.618660
 11
438.451917
 21
543.618660
  0
LINE
  8
CSLAYER1
  6
CONTINUOUS
 62
     6
 10
438.451917
 20
543.618660
 11
441.451917
 21
543.618660
  0
LINE
  8
CSLAYER1
  6
DASHED
 62
     6
 10
441.451917
 20
543.618660
 11
446.451917
 21
543.618660
  0
LINE
  8
CSLAYER1
  6
DASHED
 62
     6
 10
446.451917
 20
543.618660
 11
446.451917
 21
493.618660
  0
LINE
  8
CSLAYER1
  6
CONTINUOUS
 62
     6
 10
441.451917
 20
493.618660
 11
441.451917
 21
551.618660
  0
LINE
  8
CSLAYER1
  6
CONTINUOUS
 62
     6
 10
432.451917
 20
551.618660
 11
432.451917
 21
541.618660
  0
LINE
  8
CSLAYER1
  6
CONTINUOUS
 62
     6
 10
438.451917
 20
538.618660
 11
397.094656
 21
538.618660
  0
ARC
  8
CSLAYER1
  6
CONTINUOUS
 62
     6
 10
397.094656
 20
541.118660
 40
2.500000
 50
203.382509
 51
270.000000
  0
LINE
  8
CSLAYER1
  6
CONTINUOUS
 62
     6
 10
394.799967
 20
540.126491
 11
381.698290
 21
570.428057
  0
ARC
  8
CSLAYER1
  6
CONTINUOUS
 62
     6
 10
384.451917
 20
571.618660
 40
3.000000
 50
180.000000
 51
270.000000
  0
LINE
  8
CSLAYER1
  6
CONTINUOUS
 62
     6
 10
384.451917
 20
568.618660
 11
530.451917
 21
568.618660
  0
ARC
  8
CSLAYER1
  6
CONTINUOUS
 62
     6
 10
530.451917
 20
571.618660
 40
3.000000
 50
270.000000
 51
360.000000
  0
LINE
  8
CSLAYER1
  6
CONTINUOUS
 62
     6
 10
533.205544
 20
570.428057
 11
520.103867
 21
540.126491
  0
ARC
  8
CSLAYER1
  6
CONTINUOUS
 62
     6
 10
517.809178
 20
541.118660
 40
2.500000
 50
270.000000
 51
336.617491
  0
LINE
  8
CSLAYER1
  6
CONTINUOUS
 62
     6
 10
517.809178
 20
538.618660
 11
473.451917
 21
538.618660
  0
LINE
  8
CSLAYER1
  6
CONTINUOUS
 62
     6
 10
482.451917
 20
541.618660
 11
482.451917
 21
551.618660
  0
LINE
  8
CSLAYER1
  6
CONTINUOUS
 62
     6
 10
473.451917
 20
551.618660
 11
473.451917
 21
493.618660
  0
LINE
  8
CSLAYER1
  6
CONTINUOUS
 62
     6
 10
473.451917
 20
493.618660
 11
438.451917
 21
493.618660
  0
LINE
  8
CSLAYER1
  6
CONTINUOUS
 62
     6
 10
422.211917
 20
551.618660
 11
492.711917
 21
551.618660
  0
ARC
  8
CSLAYER1
  6
CONTINUOUS
 62
     6
 10
492.711917
 20
556.618660
 40
5.000000
 50
270.000000
 51
343.610000
  0
LINE
  8
CSLAYER1
  6
CONTINUOUS
 62
     6
 10
497.511917
 20
555.218660
 11
500.411917
 21
565.038660
  0
ARC
  8
CSLAYER1
  6
CONTINUOUS
 62
     6
 10
505.211917
 20
563.618660
 40
5.000000
 50
90.000000
 51
163.610000
  0
LINE
  8
CSLAYER1
  6
CONTINUOUS
 62
     6
 10
512.710230
 20
565.018660
 11
511.910230
 21
562.218660
  0
ARC
  8
CSLAYER1
  6
CONTINUOUS
 62
     6
 10
507.110230
 20
563.618660
 40
5.000000
 50
270.000000
 51
343.820000
  0
LINE
  8
CSLAYER1
  6
CONTINUOUS
 62
     6
 10
507.110230
 20
558.618660
 11
502.252883
 21
558.618660
  0
ARC
  8
CSLAYER1
  6
CONTINUOUS
 62
     6
 10
502.252883
 20
553.618660
 40
5.000000
 50
90.000000
 51
163.547303
  0
ARC
  8
CSLAYER1
  6
CONTINUOUS
 62
     6
 10
504.951917
 20
553.618660
 40
6.500000
 50
-225.633385
 51
54.261617
  0
ARC
  8
CSLAYER1
  6
CONTINUOUS
 62
     6
 10
517.510230
 20
563.618660
 40
5.000000
 50
90.000000
 51
163.820000
  0
LINE
  8
CSLAYER1
  6
CONTINUOUS
 62
     6
 10
533.451917
 20
555.118660
 11
533.451917
 21
672.098660
  0
ARC
  8
CSLAYER1
  6
CONTINUOUS
 62
     6
 10
538.451917
 20
672.098660
 40
5.000000
 50
90.000000
 51
180.000000
  0
LINE
  8
CSLAYER1
  6
CONTINUOUS
 62
     6
 10
538.451917
 20
677.098660
 11
545.451917
 21
677.098660
  0
LINE
  8
CSLAYER1
  6
CONTINUOUS
 62
     6
 10
545.451917
 20
677.598660
 11
545.451917
 21
549.618660
  0
LINE
  8
CSLAYER1
  6
CONTINUOUS
 62
     6
 10
545.451917
 20
549.618660
 11
590.531917
 21
548.438660
  0
ARC
  8
CSLAYER1
  6
CONTINUOUS
 62
     6
 10
590.451917
 20
545.438660
 40
3.000000
 50
0.000000
 51
88.510000
  0
ARC
  8
CSLAYER1
  6
CONTINUOUS
 62
     6
 10
588.451917
 20
541.478660
 40
5.000000
 50
0.000000
 51
88.510000
  0
LINE
  8
CSLAYER1
  6
CONTINUOUS
 62
     6
 10
588.591917
 20
546.478660
 11
585.411917
 21
546.558660
  0
ARC
  8
CSLAYER1
  6
CONTINUOUS
 62
     6
 10
585.451917
 20
548.558660
 40
2.000000
 50
208.430000
 51
268.510000
  0
ARC
  8
CSLAYER1
  6
CONTINUOUS
 62
     6
 10
581.931917
 20
546.658660
 40
2.000000
 50
28.430000
 51
88.510000
  0
LINE
  8
CSLAYER1
  6
CONTINUOUS
 62
     6
 10
573.831917
 20
557.518660
 11
593.451917
 21
556.998660
  0
ARC
  8
CSLAYER1
  6
CONTINUOUS
 62
     6
 10
573.951917
 20
562.518660
 40
5.000000
 50
180.000000
 51
268.500000
  0
LINE
  8
CSLAYER1
  6
CONTINUOUS
 62
     6
 10
568.951917
 20
562.518660
 11
568.951917
 21
572.778660
  0
ARC
  8
CSLAYER1
  6
CONTINUOUS
 62
     6
 10
573.951917
 20
572.778660
 40
5.000000
 50
91.500000
 51
180.000000
  0
LINE
  8
CSLAYER1
  6
CONTINUOUS
 62
     6
 10
573.831917
 20
577.778660
 11
593.451917
 21
578.298660
  0
LINE
  8
CSLAYER1
  6
CONTINUOUS
 62
     6
 10
593.451917
 20
605.618660
 11
585.451917
 21
605.618660
  0
ARC
  8
CSLAYER1
  6
CONTINUOUS
 62
     6
 10
585.451917
 20
607.618660
 40
2.000000
 50
180.000000
 51
270.000000
  0
LINE
  8
CSLAYER1
  6
CONTINUOUS
 62
     6
 10
583.451917
 20
607.618660
 11
583.451917
 21
619.618660
  0
ARC
  8
CSLAYER1
  6
CONTINUOUS
 62
     6
 10
585.451917
 20
619.618660
 40
2.000000
 50
90.000000
 51
180.000000
  0
LINE
  8
CSLAYER1
  6
CONTINUOUS
 62
     6
 10
585.451917
 20
621.618660
 11
593.451917
 21
621.618660
  0
LINE
  8
CSLAYER1
  6
CONTINUOUS
 62
     6
 10
593.451917
 20
536.758660
 11
593.451917
 21
690.478660
  0
ARC
  8
CSLAYER1
  6
CONTINUOUS
 62
     6
 10
596.451917
 20
690.478660
 40
3.000000
 50
91.500000
 51
180.000000
  0
LINE
  8
CSLAYER1
  6
CONTINUOUS
 62
     6
 10
596.371917
 20
693.478660
 11
601.451917
 21
693.618660
  0
LINE
  8
CSLAYER1
  6
CONTINUOUS
 62
     6
 10
601.451917
 20
693.618660
 11
601.451917
 21
533.618660
  0
LINE
  8
CSLAYER1
  6
CONTINUOUS
 62
     6
 10
601.451917
 20
533.618660
 11
596.371917
 21
533.758660
  0
ARC
  8
CSLAYER1
  6
CONTINUOUS
 62
     6
 10
596.451917
 20
536.758660
 40
3.000000
 50
180.000000
 51
268.500000
  0
ARC
  8
CSLAYER1
  6
CONTINUOUS
 62
     6
 10
591.511917
 20
536.018660
 40
2.000000
 50
8.320000
 51
13.170000
  0
LINE
  8
CSLAYER1
  6
CONTINUOUS
 62
     6
 10
545.451917
 20
550.118660
 11
538.451917
 21
550.118660
  0
ARC
  8
CSLAYER1
  6
CONTINUOUS
 62
     6
 10
538.451917
 20
555.118660
 40
5.000000
 50
180.000000
 51
270.000000
  0
LINE
  8
CSLAYER1
  6
CONTINUOUS
 62
     6
 10
486.247774
 20
573.618660
 11
486.247774
 21
653.618660
  0
LINE
  8
CSLAYER1
  6
CONTINUOUS
 62
     6
 10
500.411917
 20
662.198660
 11
497.511917
 21
672.018660
  0
ARC
  8
CSLAYER1
  6
CONTINUOUS
 62
     6
 10
492.711917
 20
670.618660
 40
5.000000
 50
16.390000
 51
90.000000
  0
LINE
  8
CSLAYER1
  6
CONTINUOUS
 62
     6
 10
492.711917
 20
675.618660
 11
422.211917
 21
675.618660
  0
ARC
  8
CSLAYER1
  6
CONTINUOUS
 62
     6
 10
422.191917
 20
670.618660
 40
5.000000
 50
90.000000
 51
163.610000
  0
LINE
  8
CSLAYER1
  6
CONTINUOUS
 62
     6
 10
417.391917
 20
672.018660
 11
414.491917
 21
662.198660
  0
ARC
  8
CSLAYER1
  6
CONTINUOUS
 62
     6
 10
409.691917
 20
663.618660
 40
5.000000
 50
270.000000
 51
343.610000
  0
LINE
  8
CSLAYER1
  6
CONTINUOUS
 62
     6
 10
402.193604
 20
662.218660
 11
402.993604
 21
665.018660
  0
ARC
  8
CSLAYER1
  6
CONTINUOUS
 62
     6
 10
407.793604
 20
663.618660
 40
5.000000
 50
90.000000
 51
163.820000
  0
LINE
  8
CSLAYER1
  6
CONTINUOUS
 62
     6
 10
407.793604
 20
668.618660
 11
412.650951
 21
668.618660
  0
ARC
  8
CSLAYER1
  6
CONTINUOUS
 62
     6
 10
412.650951
 20
673.618660
 40
5.000000
 50
270.000000
 51
343.547303
  0
ARC
  8
CSLAYER1
  6
CONTINUOUS
 62
     6
 10
409.951917
 20
673.618660
 40
6.500000
 50
-45.633385
 51
234.261617
  0
ARC
  8
CSLAYER1
  6
CONTINUOUS
 62
     6
 10
397.393604
 20
663.618660
 40
5.000000
 50
270.000000
 51
343.820000
  0
LINE
  8
CSLAYER1
  6
CONTINUOUS
 62
     6
 10
384.451917
 20
658.618660
 11
530.451917
 21
658.618660
  0
ARC
  8
CSLAYER1
  6
CONTINUOUS
 62
     6
 10
530.451917
 20
655.618660
 40
3.000000
 50
0.000000
 51
90.000000
  0
LINE
  8
CSLAYER1
  6
CONTINUOUS
 62
     6
 10
533.205544
 20
656.809263
 11
520.103867
 21
687.110829
  0
ARC
  8
CSLAYER1
  6
CONTINUOUS
 62
     6
 10
517.809178
 20
686.118660
 40
2.500000
 50
23.382509
 51
90.000000
  0
LINE
  8
CSLAYER1
  6
CONTINUOUS
 62
     6
 10
517.809178
 20
688.618660
 11
397.094656
 21
688.618660
  0
ARC
  8
CSLAYER1
  6
CONTINUOUS
 62
     6
 10
397.094656
 20
686.118660
 40
2.500000
 50
90.000000
 51
156.617491
  0
LINE
  8
CSLAYER1
  6
CONTINUOUS
 62
     6
 10
394.799967
 20
687.110829
 11
381.698290
 21
656.809263
  0
LINE
  8
CSLAYER1
  6
CONTINUOUS
 62
     6
 10
381.451917
 20
655.618660
 11
381.451917
 21
571.618660
  0
ARC
  8
CSLAYER1
  6
CONTINUOUS
 62
     6
 10
397.393604
 20
563.618660
 40
5.000000
 50
16.180000
 51
90.000000
  0
LINE
  8
CSLAYER1
  6
CONTINUOUS
 62
     6
 10
402.193604
 20
565.018660
 11
402.993604
 21
562.218660
  0
ARC
  8
CSLAYER1
  6
CONTINUOUS
 62
     6
 10
407.793604
 20
563.618660
 40
5.000000
 50
196.180000
 51
270.000000
  0
LINE
  8
CSLAYER1
  6
CONTINUOUS
 62
     6
 10
407.793604
 20
558.618660
 11
412.650951
 21
558.618660
  0
ARC
  8
CSLAYER1
  6
CONTINUOUS
 62
     6
 10
412.650951
 20
553.618660
 40
5.000000
 50
16.452697
 51
90.000000
  0
ARC
  8
CSLAYER1
  6
CONTINUOUS
 62
     6
 10
422.191917
 20
556.618660
 40
5.000000
 50
196.390000
 51
270.000000
  0
LINE
  8
CSLAYER1
  6
CONTINUOUS
 62
     6
 10
417.391917
 20
555.218660
 11
414.491917
 21
565.038660
  0
ARC
  8
CSLAYER1
  6
CONTINUOUS
 62
     6
 10
409.691917
 20
563.618660
 40
5.000000
 50
16.390000
 51
90.000000
  0
ARC
  8
CSLAYER1
  6
CONTINUOUS
 62
     6
 10
409.951917
 20
553.618660
 40
6.500000
 50
-234.261617
 51
45.633385
  0
LINE
  8
CSLAYER1
  6
CONTINUOUS
 62
     6
 10
428.656060
 20
573.618660
 11
428.656060
 21
653.618660
  0
LINE
  8
CSLAYER1
  6
CONTINUOUS
 62
     6
 10
432.451917
 20
675.618660
 11
432.451917
 21
685.618660
  0
LINE
  8
CSLAYER1
  6
CONTINUOUS
 62
     6
 10
482.451917
 20
685.618660
 11
482.451917
 21
675.618660
  0
ARC
  8
CSLAYER1
  6
CONTINUOUS
 62
     6
 10
502.252883
 20
673.618660
 40
5.000000
 50
196.452697
 51
270.000000
  0
LINE
  8
CSLAYER1
  6
CONTINUOUS
 62
     6
 10
502.252883
 20
668.618660
 11
507.110230
 21
668.618660
  0
ARC
  8
CSLAYER1
  6
CONTINUOUS
 62
     6
 10
507.110230
 20
663.618660
 40
5.000000
 50
16.180000
 51
90.000000
  0
LINE
  8
CSLAYER1
  6
CONTINUOUS
 62
     6
 10
511.910230
 20
665.018660
 11
512.710230
 21
662.218660
  0
ARC
  8
CSLAYER1
  6
CONTINUOUS
 62
     6
 10
517.510230
 20
663.618660
 40
5.000000
 50
196.180000
 51
270.000000
  0
ARC
  8
CSLAYER1
  6
CONTINUOUS
 62
     6
 10
505.211917
 20
663.618660
 40
5.000000
 50
196.390000
 51
270.000000
  0
ARC
  8
CSLAYER1
  6
CONTINUOUS
 62
     6
 10
504.951917
 20
673.618660
 40
6.500000
 50
-54.261617
 51
225.633385
  0
LINE
  8
CSLAYER1
  6
CONTINUOUS
 62
     6
 10
545.451917
 20
677.598660
 11
590.531917
 21
678.778660
  0
ARC
  8
CSLAYER1
  6
CONTINUOUS
 62
     6
 10
590.451917
 20
681.778660
 40
3.000000
 50
271.500000
 51
360.000000
  0
ARC
  8
CSLAYER1
  6
CONTINUOUS
 62
     6
 10
588.451917
 20
685.738660
 40
5.000000
 50
271.500000
 51
360.000000
  0
LINE
  8
CSLAYER1
  6
CONTINUOUS
 62
     6
 10
588.591917
 20
680.738660
 11
585.411917
 21
680.658660
  0
ARC
  8
CSLAYER1
  6
CONTINUOUS
 62
     6
 10
585.451917
 20
678.658660
 40
2.000000
 50
91.500000
 51
151.580000
  0
ARC
  8
CSLAYER1
  6
CONTINUOUS
 62
     6
 10
581.931917
 20
680.558660
 40
2.000000
 50
271.500000
 51
331.580000
  0
LINE
  8
CSLAYER1
  6
CONTINUOUS
 62
     6
 10
573.831917
 20
669.698660
 11
593.451917
 21
670.218660
  0
ARC
  8
CSLAYER1
  6
CONTINUOUS
 62
     6
 10
573.951917
 20
664.698660
 40
5.000000
 50
91.510000
 51
180.000000
  0
LINE
  8
CSLAYER1
  6
CONTINUOUS
 62
     6
 10
568.951917
 20
664.698660
 11
568.951917
 21
654.438660
  0
ARC
  8
CSLAYER1
  6
CONTINUOUS
 62
     6
 10
573.951917
 20
654.438660
 40
5.000000
 50
180.000000
 51
268.500000
  0
LINE
  8
CSLAYER1
  6
CONTINUOUS
 62
     6
 10
573.831917
 20
649.438660
 11
593.451917
 21
648.918660
  0
ARC
  8
CSLAYER1
  6
CONTINUOUS
 62
     6
 10
384.451917
 20
655.618660
 40
3.000000
 50
90.000000
 51
180.000000
  0
LINE
  8
CSLAYER1
  6
CONTINUOUS
 62
     6
 10
601.451917
 20
693.618660
 11
614.451917
 21
693.618660
  0
LINE
  8
CSLAYER1
  6
CONTINUOUS
 62
     6
 10
614.451917
 20
693.618660
 11
614.451917
 21
533.618660
  0
LINE
  8
CSLAYER1
  6
CONTINUOUS
 62
     6
 10
614.451917
 20
533.618660
 11
601.451917
 21
533.618660
  0
LINE
  8
CSLAYER1
  6
CONTINUOUS
 62
     6
 10
614.451917
 20
559.946720
 11
616.451917
 21
559.946720
  0
LINE
  8
CSLAYER1
  6
CONTINUOUS
 62
     6
 10
616.451917
 20
559.946720
 11
616.451917
 21
575.346720
  0
LINE
  8
CSLAYER1
  6
CONTINUOUS
 62
     6
 10
616.451917
 20
575.346720
 11
614.451917
 21
575.346720
  0
LINE
  8
CSLAYER1
  6
CONTINUOUS
 62
     6
 10
616.451917
 20
574.146720
 11
621.751917
 21
574.146720
  0
LINE
  8
CSLAYER1
  6
CONTINUOUS
 62
     6
 10
621.751917
 20
574.146720
 11
621.751917
 21
561.146720
  0
LINE
  8
CSLAYER1
  6
CONTINUOUS
 62
     6
 10
621.751917
 20
561.146720
 11
616.451917
 21
561.146720
  0
ARC
  8
CSLAYER1
  6
CONTINUOUS
 62
     6
 10
610.996363
 20
564.396720
 40
10.755553
 50
-17.587954
 51
17.587954
  0
ARC
  8
CSLAYER1
  6
CONTINUOUS
 62
     6
 10
610.996363
 20
570.896720
 40
10.755553
 50
-17.587954
 51
17.587954
  0
LINE
  8
CSLAYER1
  6
CONTINUOUS
 62
     6
 10
621.751917
 20
568.618660
 11
749.451917
 21
568.618660
  0
LINE
  8
CSLAYER1
  6
CONTINUOUS
 62
     6
 10
749.451917
 20
568.618660
 11
749.451917
 21
658.618660
  0
LINE
  8
CSLAYER1
  6
CONTINUOUS
 62
     6
 10
749.451917
 20
658.618660
 11
621.751917
 21
658.618660
  0
ARC
  8
CSLAYER1
  6
CONTINUOUS
 62
     6
 10
610.996363
 20
662.830601
 40
10.755553
 50
-17.587954
 51
17.587954
  0
LINE
  8
CSLAYER1
  6
CONTINUOUS
 62
     6
 10
621.751917
 20
666.080601
 11
621.751917
 21
653.080601
  0
LINE
  8
CSLAYER1
  6
CONTINUOUS
 62
     6
 10
621.751917
 20
653.080601
 11
616.451917
 21
653.080601
  0
LINE
  8
CSLAYER1
  6
CONTINUOUS
 62
     6
 10
616.451917
 20
651.880601
 11
616.451917
 21
667.280601
  0
LINE
  8
CSLAYER1
  6
CONTINUOUS
 62
     6
 10
616.451917
 20
667.280601
 11
614.451917
 21
667.280601
  0
LINE
  8
CSLAYER1
  6
CONTINUOUS
 62
     6
 10
616.451917
 20
666.080601
 11
621.751917
 21
666.080601
  0
ARC
  8
CSLAYER1
  6
CONTINUOUS
 62
     6
 10
610.996363
 20
656.330601
 40
10.755553
 50
-17.587954
 51
17.587954
  0
LINE
  8
CSLAYER1
  6
CONTINUOUS
 62
     6
 10
616.451917
 20
651.880601
 11
614.451917
 21
651.880601
  0
LINE
  8
CSLAYER1
  6
CONTINUOUS
 62
     6
 10
614.451917
 20
658.348601
 11
616.451917
 21
658.964601
  0
LINE
  8
CSLAYER1
  6
CONTINUOUS
 62
     6
 10
616.451917
 20
659.580601
 11
621.249140
 21
659.580601
  0
LINE
  8
CSLAYER1
  6
CONTINUOUS
 62
     6
 10
616.451917
 20
660.812601
 11
614.451917
 21
660.196601
  0
LINE
  8
CSLAYER1
  6
CONTINUOUS
 62
     6
 10
749.451917
 20
657.618630
 11
750.926954
 21
657.618630
  0
LINE
  8
CSLAYER1
  6
CONTINUOUS
 62
     6
 10
751.357801
 20
657.723122
 11
750.660169
 21
651.085671
  0
ARC
  8
CSLAYER1
  6
CONTINUOUS
 62
     6
 10
749.665662
 20
651.190163
 40
1.000000
 50
269.999999
 51
353.999974
  0
ARC
  8
CSLAYER1
  6
CONTINUOUS
 62
     6
 10
749.715284
 20
655.662453
 40
1.000000
 50
269.999999
 51
353.999974
  0
LINE
  8
CSLAYER1
  6
CONTINUOUS
 62
     6
 10
750.709852
 20
655.557900
 11
751.357801
 21
661.723122
  0
ARC
  8
CSLAYER1
  6
CONTINUOUS
 62
     6
 10
752.352369
 20
661.618630
 40
1.000000
 50
89.999984
 51
173.999997
  0
LINE
  8
CSLAYER1
  6
CONTINUOUS
 62
     6
 10
752.352369
 20
662.618630
 11
788.551526
 21
662.618630
  0
ARC
  8
CSLAYER1
  6
CONTINUOUS
 62
     6
 10
788.551526
 20
661.618630
 40
1.000000
 50
6.000002
 51
89.999997
  0
LINE
  8
CSLAYER1
  6
CONTINUOUS
 62
     6
 10
789.546033
 20
661.723122
 11
790.194043
 21
655.557900
  0
ARC
  8
CSLAYER1
  6
CONTINUOUS
 62
     6
 10
791.188550
 20
655.662453
 40
1.000000
 50
186.000011
 51
269.999999
  0
LINE
  8
CSLAYER1
  6
CONTINUOUS
 62
     6
 10
789.977491
 20
657.618630
 11
801.451917
 21
657.618630
  0
LINE
  8
CSLAYER1
  6
CONTINUOUS
 62
     6
 10
801.451917
 20
657.618630
 11
802.451917
 21
656.618630
  0
LINE
  8
CSLAYER1
  6
CONTINUOUS
 62
     6
 10
802.451917
 20
656.618630
 11
802.451917
 21
570.618630
  0
LINE
  8
CSLAYER1
  6
CONTINUOUS
 62
     6
 10
802.451917
 20
570.618630
 11
801.451917
 21
569.618630
  0
LINE
  8
CSLAYER1
  6
CONTINUOUS
 62
     6
 10
801.451917
 20
569.618630
 11
789.977491
 21
569.618630
  0
ARC
  8
CSLAYER1
  6
CONTINUOUS
 62
     6
 10
788.551526
 20
569.618630
 40
1.000000
 50
269.999999
 51
353.999988
  0
LINE
  8
CSLAYER1
  6
CONTINUOUS
 62
     6
 10
788.551526
 20
568.618630
 11
752.352369
 21
568.618630
  0
ARC
  8
CSLAYER1
  6
CONTINUOUS
 62
     6
 10
752.352369
 20
569.618630
 40
1.000000
 50
185.999983
 51
269.999999
  0
LINE
  8
CSLAYER1
  6
CONTINUOUS
 62
     6
 10
751.357801
 20
569.514076
 11
750.660169
 21
576.151589
  0
ARC
  8
CSLAYER1
  6
CONTINUOUS
 62
     6
 10
749.665662
 20
576.047035
 40
1.000000
 50
6.000016
 51
89.999991
  0
ARC
  8
CSLAYER1
  6
CONTINUOUS
 62
     6
 10
749.715284
 20
571.574806
 40
1.000000
 50
6.000016
 51
89.999991
  0
LINE
  8
CSLAYER1
  6
CONTINUOUS
 62
     6
 10
750.709852
 20
571.679360
 11
751.357801
 21
565.514076
  0
ARC
  8
CSLAYER1
  6
CONTINUOUS
 62
     6
 10
752.352369
 20
565.618630
 40
1.000000
 50
185.999983
 51
269.999999
  0
LINE
  8
CSLAYER1
  6
CONTINUOUS
 62
     6
 10
752.352369
 20
564.618630
 11
788.551526
 21
564.618630
  0
ARC
  8
CSLAYER1
  6
CONTINUOUS
 62
     6
 10
788.551526
 20
565.618630
 40
1.000000
 50
269.999999
 51
353.999988
  0
LINE
  8
CSLAYER1
  6
CONTINUOUS
 62
     6
 10
789.546033
 20
565.514076
 11
790.194043
 21
571.679360
  0
ARC
  8
CSLAYER1
  6
CONTINUOUS
 62
     6
 10
791.188550
 20
571.574806
 40
1.000000
 50
89.999991
 51
173.999979
  0
LINE
  8
CSLAYER1
  6
CONTINUOUS
 62
     6
 10
789.546033
 20
569.514076
 11
790.243665
 21
576.151589
  0
ARC
  8
CSLAYER1
  6
CONTINUOUS
 62
     6
 10
791.238233
 20
576.047035
 40
1.000000
 50
89.999991
 51
173.999979
  0
LINE
  8
CSLAYER1
  6
CONTINUOUS
 62
     6
 10
786.765943
 20
577.225441
 11
754.808851
 21
577.225441
  0
LINE
  8
CSLAYER1
  6
CONTINUOUS
 62
     6
 10
750.926954
 20
569.618630
 11
749.451917
 21
569.618630
  0
LINE
  8
CSLAYER1
  6
CONTINUOUS
 62
     6
 10
801.451917
 20
569.618630
 11
801.451917
 21
657.618630
  0
ARC
  8
CSLAYER1
  6
CONTINUOUS
 62
     6
 10
788.551526
 20
657.618630
 40
1.000000
 50
6.000002
 51
89.999997
  0
LINE
  8
CSLAYER1
  6
CONTINUOUS
 62
     6
 10
788.551526
 20
658.618630
 11
752.352369
 21
658.618630
  0
ARC
  8
CSLAYER1
  6
CONTINUOUS
 62
     6
 10
752.352369
 20
657.618630
 40
1.000000
 50
89.999984
 51
173.999997
  0
LINE
  8
CSLAYER1
  6
CONTINUOUS
 62
     6
 10
754.808851
 20
650.011818
 11
786.765943
 21
650.011818
  0
LINE
  8
CSLAYER1
  6
CONTINUOUS
 62
     6
 10
790.243665
 20
651.085671
 11
789.546033
 21
657.723122
  0
ARC
  8
CSLAYER1
  6
CONTINUOUS
 62
     6
 10
791.238233
 20
651.190163
 40
1.000000
 50
186.000011
 51
269.999999
  0
LINE
  8
CSLAYER1
  6
CONTINUOUS
 62
     6
 10
621.249140
 20
567.646720
 11
616.451917
 21
567.646720
  0
LINE
  8
CSLAYER1
  6
CONTINUOUS
 62
     6
 10
616.451917
 20
567.030720
 11
614.451917
 21
566.414720
  0
LINE
  8
CSLAYER1
  6
CONTINUOUS
 62
     6
 10
614.451917
 20
568.262720
 11
616.451917
 21
568.878720
  0
LINE
  8
CSLAYER1
  6
CONTINUOUS
 62
     6
 10
749.451917
 20
361.453272
 11
801.451917
 21
361.453272
  0
LINE
  8
CSLAYER1
  6
CONTINUOUS
 62
     6
 10
801.451917
 20
361.453272
 11
802.451917
 21
360.453272
  0
LINE
  8
CSLAYER1
  6
CONTINUOUS
 62
     6
 10
802.451917
 20
360.453272
 11
802.451917
 21
274.564814
  0
LINE
  8
CSLAYER1
  6
CONTINUOUS
 62
     6
 10
802.451917
 20
274.564814
 11
801.451917
 21
273.564814
  0
LINE
  8
CSLAYER1
  6
CONTINUOUS
 62
     6
 10
801.451917
 20
273.564814
 11
801.451917
 21
361.453272
  0
ARC
  8
CSLAYER1
  6
CONTINUOUS
 62
     6
 10
788.451917
 20
342.564814
 40
1.000000
 50
-0.000005
 51
89.999984
  0
LINE
  8
CSLAYER1
  6
CONTINUOUS
 62
     6
 10
789.451917
 20
342.564814
 11
789.451917
 21
341.564814
  0
ARC
  8
CSLAYER1
  6
CONTINUOUS
 62
     6
 10
788.451917
 20
341.564814
 40
1.000000
 50
269.999999
 51
359.999981
  0
LINE
  8
CSLAYER1
  6
CONTINUOUS
 62
     6
 10
788.451917
 20
340.564814
 11
752.451917
 21
340.564814
  0
ARC
  8
CSLAYER1
  6
CONTINUOUS
 62
     6
 10
752.451917
 20
341.564814
 40
1.000000
 50
180.057309
 51
269.999999
  0
LINE
  8
CSLAYER1
  6
CONTINUOUS
 62
     6
 10
751.451917
 20
341.564814
 11
751.451917
 21
342.564814
  0
ARC
  8
CSLAYER1
  6
CONTINUOUS
 62
     6
 10
752.451917
 20
342.564814
 40
1.000000
 50
89.999997
 51
180.000000
  0
LINE
  8
CSLAYER1
  6
CONTINUOUS
 62
     6
 10
752.451917
 20
343.564814
 11
788.451917
 21
343.564814
  0
LINE
  8
CSLAYER1
  6
CONTINUOUS
 62
     6
 10
788.451917
 20
336.564814
 11
752.451917
 21
336.564814
  0
ARC
  8
CSLAYER1
  6
CONTINUOUS
 62
     6
 10
752.451917
 20
335.564814
 40
1.000000
 50
89.999997
 51
180.000000
  0
LINE
  8
CSLAYER1
  6
CONTINUOUS
 62
     6
 10
751.451917
 20
335.564814
 11
751.451917
 21
334.564814
  0
ARC
  8
CSLAYER1
  6
CONTINUOUS
 62
     6
 10
752.451917
 20
334.564814
 40
1.000000
 50
180.057309
 51
269.999999
  0
LINE
  8
CSLAYER1
  6
CONTINUOUS
 62
     6
 10
752.451917
 20
333.564814
 11
757.223157
 21
333.564814
  0
ARC
  8
CSLAYER1
  6
CONTINUOUS
 62
     6
 10
757.223157
 20
332.564814
 40
1.000000
 50
-48.590367
 51
89.999997
  0
ARC
  8
CSLAYER1
  6
CONTINUOUS
 62
     6
 10
770.451917
 20
317.564814
 40
19.000000
 50
131.409614
 51
228.590366
  0
ARC
  8
CSLAYER1
  6
CONTINUOUS
 62
     6
 10
757.223157
 20
302.564814
 40
1.000000
 50
-90.000001
 51
48.590357
  0
LINE
  8
CSLAYER1
  6
CONTINUOUS
 62
     6
 10
757.223157
 20
301.564814
 11
752.451917
 21
301.564814
  0
ARC
  8
CSLAYER1
  6
CONTINUOUS
 62
     6
 10
752.451917
 20
300.564814
 40
1.000000
 50
90.000001
 51
179.942691
  0
LINE
  8
CSLAYER1
  6
CONTINUOUS
 62
     6
 10
751.451917
 20
300.564814
 11
751.451917
 21
299.564814
  0
ARC
  8
CSLAYER1
  6
CONTINUOUS
 62
     6
 10
752.451917
 20
299.564814
 40
1.000000
 50
180.000000
 51
270.000003
  0
LINE
  8
CSLAYER1
  6
CONTINUOUS
 62
     6
 10
752.451917
 20
298.564814
 11
788.451917
 21
298.564814
  0
ARC
  8
CSLAYER1
  6
CONTINUOUS
 62
     6
 10
788.451917
 20
299.564814
 40
1.000000
 50
-89.999984
 51
0.000005
  0
LINE
  8
CSLAYER1
  6
CONTINUOUS
 62
     6
 10
789.451917
 20
299.564814
 11
789.451917
 21
300.564814
  0
ARC
  8
CSLAYER1
  6
CONTINUOUS
 62
     6
 10
788.451917
 20
300.564814
 40
1.000000
 50
0.000019
 51
90.000001
  0
LINE
  8
CSLAYER1
  6
CONTINUOUS
 62
     6
 10
788.451917
 20
301.564814
 11
783.680677
 21
301.564814
  0
ARC
  8
CSLAYER1
  6
CONTINUOUS
 62
     6
 10
783.680677
 20
302.564814
 40
1.000000
 50
131.409614
 51
269.999999
  0
ARC
  8
CSLAYER1
  6
CONTINUOUS
 62
     6
 10
770.451917
 20
317.564814
 40
19.000000
 50
-48.590367
 51
48.590343
  0
ARC
  8
CSLAYER1
  6
CONTINUOUS
 62
     6
 10
783.680677
 20
332.564814
 40
1.000000
 50
89.999981
 51
228.590366
  0
LINE
  8
CSLAYER1
  6
CONTINUOUS
 62
     6
 10
783.680677
 20
333.564814
 11
788.451917
 21
333.564814
  0
ARC
  8
CSLAYER1
  6
CONTINUOUS
 62
     6
 10
788.451917
 20
334.564814
 40
1.000000
 50
269.999999
 51
359.999981
  0
LINE
  8
CSLAYER1
  6
CONTINUOUS
 62
     6
 10
789.451917
 20
334.564814
 11
789.451917
 21
335.564814
  0
ARC
  8
CSLAYER1
  6
CONTINUOUS
 62
     6
 10
788.451917
 20
335.564814
 40
1.000000
 50
-0.000005
 51
89.999984
  0
LINE
  8
CSLAYER1
  6
CONTINUOUS
 62
     6
 10
776.451917
 20
318.464808
 11
764.451917
 21
318.464808
  0
LINE
  8
CSLAYER1
  6
CONTINUOUS
 62
     6
 10
764.451917
 20
318.464808
 11
764.451917
 21
316.664820
  0
LINE
  8
CSLAYER1
  6
CONTINUOUS
 62
     6
 10
764.451917
 20
316.664820
 11
776.451917
 21
316.664820
  0
LINE
  8
CSLAYER1
  6
CONTINUOUS
 62
     6
 10
776.451917
 20
316.664820
 11
776.451917
 21
318.464808
  0
CIRCLE
  8
CSLAYER1
  6
CONTINUOUS
 62
     6
 10
770.451917
 20
317.564814
 40
12.000000
  0
CIRCLE
  8
CSLAYER1
  6
CONTINUOUS
 62
     6
 10
770.451917
 20
317.564814
 40
15.000000
  0
CIRCLE
  8
CSLAYER1
  6
CONTINUOUS
 62
     6
 10
770.451917
 20
317.564814
 40
16.000000
  0
ARC
  8
CSLAYER1
  6
CONTINUOUS
 62
     6
 10
788.451917
 20
293.564814
 40
1.000000
 50
0.000019
 51
90.000001
  0
LINE
  8
CSLAYER1
  6
CONTINUOUS
 62
     6
 10
789.451917
 20
293.564814
 11
789.451917
 21
292.564814
  0
ARC
  8
CSLAYER1
  6
CONTINUOUS
 62
     6
 10
788.451917
 20
292.564814
 40
1.000000
 50
-89.999984
 51
0.000005
  0
LINE
  8
CSLAYER1
  6
CONTINUOUS
 62
     6
 10
788.451917
 20
291.564814
 11
752.451917
 21
291.564814
  0
ARC
  8
CSLAYER1
  6
CONTINUOUS
 62
     6
 10
752.451917
 20
292.564814
 40
1.000000
 50
180.000000
 51
270.000003
  0
LINE
  8
CSLAYER1
  6
CONTINUOUS
 62
     6
 10
751.451917
 20
292.564814
 11
751.451917
 21
293.564814
  0
ARC
  8
CSLAYER1
  6
CONTINUOUS
 62
     6
 10
752.451917
 20
293.564814
 40
1.000000
 50
90.000001
 51
179.942691
  0
LINE
  8
CSLAYER1
  6
CONTINUOUS
 62
     6
 10
752.451917
 20
294.564814
 11
788.451917
 21
294.564814
  0
LINE
  8
CSLAYER1
  6
CONTINUOUS
 62
     6
 10
788.451917
 20
277.564814
 11
788.451917
 21
273.564814
  0
LINE
  8
CSLAYER1
  6
CONTINUOUS
 62
     6
 10
788.451917
 20
273.564814
 11
801.451917
 21
273.564814
  0
LINE
  8
CSLAYER1
  6
CONTINUOUS
 62
     6
 10
792.568078
 20
264.560997
 11
792.738973
 21
264.393986
  0
LINE
  8
CSLAYER1
  6
CONTINUOUS
 62
     6
 10
792.738973
 20
264.393986
 11
792.911976
 21
264.225870
  0
LINE
  8
CSLAYER1
  6
CONTINUOUS
 62
     6
 10
792.911976
 20
264.225870
 11
793.085311
 21
264.058975
  0
LINE
  8
CSLAYER1
  6
CONTINUOUS
 62
     6
 10
793.085311
 20
264.058975
 11
793.257203
 21
263.895626
  0
LINE
  8
CSLAYER1
  6
CONTINUOUS
 62
     6
 10
793.257203
 20
263.895626
 11
793.425876
 21
263.738147
  0
LINE
  8
CSLAYER1
  6
CONTINUOUS
 62
     6
 10
793.425876
 20
263.738147
 11
793.589553
 21
263.588862
  0
LINE
  8
CSLAYER1
  6
CONTINUOUS
 62
     6
 10
793.589553
 20
263.588862
 11
793.746459
 21
263.450098
  0
LINE
  8
CSLAYER1
  6
CONTINUOUS
 62
     6
 10
793.746459
 20
263.450098
 11
793.887690
 21
263.327301
  0
LINE
  8
CSLAYER1
  6
CONTINUOUS
 62
     6
 10
793.887690
 20
263.327301
 11
794.033873
 21
263.199415
  0
LINE
  8
CSLAYER1
  6
CONTINUOUS
 62
     6
 10
794.033873
 20
263.199415
 11
794.183866
 21
263.066908
  0
LINE
  8
CSLAYER1
  6
CONTINUOUS
 62
     6
 10
794.183866
 20
263.066908
 11
794.336528
 21
262.930249
  0
LINE
  8
CSLAYER1
  6
CONTINUOUS
 62
     6
 10
794.336528
 20
262.930249
 11
794.490715
 21
262.789904
  0
LINE
  8
CSLAYER1
  6
CONTINUOUS
 62
     6
 10
794.490715
 20
262.789904
 11
794.645285
 21
262.646341
  0
LINE
  8
CSLAYER1
  6
CONTINUOUS
 62
     6
 10
794.645285
 20
262.646341
 11
794.799096
 21
262.500029
  0
LINE
  8
CSLAYER1
  6
CONTINUOUS
 62
     6
 10
794.799096
 20
262.500029
 11
794.951007
 21
262.351434
  0
LINE
  8
CSLAYER1
  6
CONTINUOUS
 62
     6
 10
794.951007
 20
262.351434
 11
795.099874
 21
262.201024
  0
LINE
  8
CSLAYER1
  6
CONTINUOUS
 62
     6
 10
795.099874
 20
262.201024
 11
795.244556
 21
262.049268
  0
LINE
  8
CSLAYER1
  6
CONTINUOUS
 62
     6
 10
795.244556
 20
262.049268
 11
795.383910
 21
261.896632
  0
LINE
  8
CSLAYER1
  6
CONTINUOUS
 62
     6
 10
795.383910
 20
261.896632
 11
795.439434
 21
261.833688
  0
LINE
  8
CSLAYER1
  6
CONTINUOUS
 62
     6
 10
795.439434
 20
261.833688
 11
795.494362
 21
261.770188
  0
LINE
  8
CSLAYER1
  6
CONTINUOUS
 62
     6
 10
795.494362
 20
261.770188
 11
795.548753
 21
261.706186
  0
LINE
  8
CSLAYER1
  6
CONTINUOUS
 62
     6
 10
795.548753
 20
261.706186
 11
795.602666
 21
261.641740
  0
LINE
  8
CSLAYER1
  6
CONTINUOUS
 62
     6
 10
795.602666
 20
261.641740
 11
795.656162
 21
261.576904
  0
LINE
  8
CSLAYER1
  6
CONTINUOUS
 62
     6
 10
795.656162
 20
261.576904
 11
795.709300
 21
261.511734
  0
LINE
  8
CSLAYER1
  6
CONTINUOUS
 62
     6
 10
795.709300
 20
261.511734
 11
795.762140
 21
261.446286
  0
LINE
  8
CSLAYER1
  6
CONTINUOUS
 62
     6
 10
795.762140
 20
261.446286
 11
795.814741
 21
261.380616
  0
LINE
  8
CSLAYER1
  6
CONTINUOUS
 62
     6
 10
795.814741
 20
261.380616
 11
795.867163
 21
261.314778
  0
LINE
  8
CSLAYER1
  6
CONTINUOUS
 62
     6
 10
795.867163
 20
261.314778
 11
795.919466
 21
261.248830
  0
LINE
  8
CSLAYER1
  6
CONTINUOUS
 62
     6
 10
795.919466
 20
261.248830
 11
796.048021
 21
261.086412
  0
LINE
  8
CSLAYER1
  6
CONTINUOUS
 62
     6
 10
796.048021
 20
261.086412
 11
796.019283
 21
261.039557
  0
LINE
  8
CSLAYER1
  6
CONTINUOUS
 62
     6
 10
796.019283
 20
261.039557
 11
795.978691
 21
260.979676
  0
LINE
  8
CSLAYER1
  6
CONTINUOUS
 62
     6
 10
795.978691
 20
260.979676
 11
795.934409
 21
260.919808
  0
LINE
  8
CSLAYER1
  6
CONTINUOUS
 62
     6
 10
795.934409
 20
260.919808
 11
795.886958
 21
260.860535
  0
LINE
  8
CSLAYER1
  6
CONTINUOUS
 62
     6
 10
795.886958
 20
260.860535
 11
795.836859
 21
260.802437
  0
LINE
  8
CSLAYER1
  6
CONTINUOUS
 62
     6
 10
795.836859
 20
260.802437
 11
795.784635
 21
260.746097
  0
LINE
  8
CSLAYER1
  6
CONTINUOUS
 62
     6
 10
795.784635
 20
260.746097
 11
795.730806
 21
260.692093
  0
LINE
  8
CSLAYER1
  6
CONTINUOUS
 62
     6
 10
795.730806
 20
260.692093
 11
795.675896
 21
260.641008
  0
LINE
  8
CSLAYER1
  6
CONTINUOUS
 62
     6
 10
795.675896
 20
260.641008
 11
795.620425
 21
260.593422
  0
LINE
  8
CSLAYER1
  6
CONTINUOUS
 62
     6
 10
795.620425
 20
260.593422
 11
795.564914
 21
260.549917
  0
LINE
  8
CSLAYER1
  6
CONTINUOUS
 62
     6
 10
795.564914
 20
260.549917
 11
795.509887
 21
260.511072
  0
LINE
  8
CSLAYER1
  6
CONTINUOUS
 62
     6
 10
795.509887
 20
260.511072
 11
795.453401
 21
260.476778
  0
LINE
  8
CSLAYER1
  6
CONTINUOUS
 62
     6
 10
795.453401
 20
260.476778
 11
795.392799
 21
260.445811
  0
LINE
  8
CSLAYER1
  6
CONTINUOUS
 62
     6
 10
795.392799
 20
260.445811
 11
795.328638
 21
260.417822
  0
LINE
  8
CSLAYER1
  6
CONTINUOUS
 62
     6
 10
795.328638
 20
260.417822
 11
795.261476
 21
260.392461
  0
LINE
  8
CSLAYER1
  6
CONTINUOUS
 62
     6
 10
795.261476
 20
260.392461
 11
795.191870
 21
260.369379
  0
LINE
  8
CSLAYER1
  6
CONTINUOUS
 62
     6
 10
795.191870
 20
260.369379
 11
795.120376
 21
260.348225
  0
LINE
  8
CSLAYER1
  6
CONTINUOUS
 62
     6
 10
795.120376
 20
260.348225
 11
795.047551
 21
260.328651
  0
LINE
  8
CSLAYER1
  6
CONTINUOUS
 62
     6
 10
795.047551
 20
260.328651
 11
794.973953
 21
260.310306
  0
LINE
  8
CSLAYER1
  6
CONTINUOUS
 62
     6
 10
794.973953
 20
260.310306
 11
794.900138
 21
260.292840
  0
LINE
  8
CSLAYER1
  6
CONTINUOUS
 62
     6
 10
794.900138
 20
260.292840
 11
794.826664
 21
260.275905
  0
LINE
  8
CSLAYER1
  6
CONTINUOUS
 62
     6
 10
794.826664
 20
260.275905
 11
794.754088
 21
260.259150
  0
LINE
  8
CSLAYER1
  6
CONTINUOUS
 62
     6
 10
794.754088
 20
260.259150
 11
794.679864
 21
260.241550
  0
LINE
  8
CSLAYER1
  6
CONTINUOUS
 62
     6
 10
794.679864
 20
260.241550
 11
794.606128
 21
260.223525
  0
LINE
  8
CSLAYER1
  6
CONTINUOUS
 62
     6
 10
794.606128
 20
260.223525
 11
794.532832
 21
260.205119
  0
LINE
  8
CSLAYER1
  6
CONTINUOUS
 62
     6
 10
794.532832
 20
260.205119
 11
794.459926
 21
260.186374
  0
LINE
  8
CSLAYER1
  6
CONTINUOUS
 62
     6
 10
794.459926
 20
260.186374
 11
794.387362
 21
260.167331
  0
LINE
  8
CSLAYER1
  6
CONTINUOUS
 62
     6
 10
794.387362
 20
260.167331
 11
794.315091
 21
260.148035
  0
LINE
  8
CSLAYER1
  6
CONTINUOUS
 62
     6
 10
794.315091
 20
260.148035
 11
794.243064
 21
260.128526
  0
LINE
  8
CSLAYER1
  6
CONTINUOUS
 62
     6
 10
794.243064
 20
260.128526
 11
794.171232
 21
260.108848
  0
LINE
  8
CSLAYER1
  6
CONTINUOUS
 62
     6
 10
794.171232
 20
260.108848
 11
794.099547
 21
260.089042
  0
LINE
  8
CSLAYER1
  6
CONTINUOUS
 62
     6
 10
794.099547
 20
260.089042
 11
794.027959
 21
260.069152
  0
LINE
  8
CSLAYER1
  6
CONTINUOUS
 62
     6
 10
794.027959
 20
260.069152
 11
793.947340
 21
260.046689
  0
LINE
  8
CSLAYER1
  6
CONTINUOUS
 62
     6
 10
793.947340
 20
260.046689
 11
793.820084
 21
260.218839
  0
LINE
  8
CSLAYER1
  6
CONTINUOUS
 62
     6
 10
793.820084
 20
260.218839
 11
793.725304
 21
260.346002
  0
LINE
  8
CSLAYER1
  6
CONTINUOUS
 62
     6
 10
793.725304
 20
260.346002
 11
793.629653
 21
260.472233
  0
LINE
  8
CSLAYER1
  6
CONTINUOUS
 62
     6
 10
793.629653
 20
260.472233
 11
793.532694
 21
260.597069
  0
LINE
  8
CSLAYER1
  6
CONTINUOUS
 62
     6
 10
793.532694
 20
260.597069
 11
793.433992
 21
260.720044
  0
LINE
  8
CSLAYER1
  6
CONTINUOUS
 62
     6
 10
793.433992
 20
260.720044
 11
793.333111
 21
260.840692
  0
LINE
  8
CSLAYER1
  6
CONTINUOUS
 62
     6
 10
793.333111
 20
260.840692
 11
793.229614
 21
260.958549
  0
LINE
  8
CSLAYER1
  6
CONTINUOUS
 62
     6
 10
793.229614
 20
260.958549
 11
793.123067
 21
261.073149
  0
LINE
  8
CSLAYER1
  6
CONTINUOUS
 62
     6
 10
793.123067
 20
261.073149
 11
793.013033
 21
261.184027
  0
LINE
  8
CSLAYER1
  6
CONTINUOUS
 62
     6
 10
793.013033
 20
261.184027
 11
792.899076
 21
261.290718
  0
LINE
  8
CSLAYER1
  6
CONTINUOUS
 62
     6
 10
792.899076
 20
261.290718
 11
792.780761
 21
261.392756
  0
LINE
  8
CSLAYER1
  6
CONTINUOUS
 62
     6
 10
792.780761
 20
261.392756
 11
792.629336
 21
261.511794
  0
LINE
  8
CSLAYER1
  6
CONTINUOUS
 62
     6
 10
792.629336
 20
261.511794
 11
792.471096
 21
261.626306
  0
LINE
  8
CSLAYER1
  6
CONTINUOUS
 62
     6
 10
792.471096
 20
261.626306
 11
792.307976
 21
261.737246
  0
LINE
  8
CSLAYER1
  6
CONTINUOUS
 62
     6
 10
792.307976
 20
261.737246
 11
792.141907
 21
261.845565
  0
LINE
  8
CSLAYER1
  6
CONTINUOUS
 62
     6
 10
792.141907
 20
261.845565
 11
791.974826
 21
261.952214
  0
LINE
  8
CSLAYER1
  6
CONTINUOUS
 62
     6
 10
791.974826
 20
261.952214
 11
791.808665
 21
262.058147
  0
LINE
  8
CSLAYER1
  6
CONTINUOUS
 62
     6
 10
791.808665
 20
262.058147
 11
791.645358
 21
262.164314
  0
LINE
  8
CSLAYER1
  6
CONTINUOUS
 62
     6
 10
791.645358
 20
262.164314
 11
791.486840
 21
262.271669
  0
LINE
  8
CSLAYER1
  6
CONTINUOUS
 62
     6
 10
791.486840
 20
262.271669
 11
791.335044
 21
262.381163
  0
LINE
  8
CSLAYER1
  6
CONTINUOUS
 62
     6
 10
791.335044
 20
262.381163
 11
791.191905
 21
262.493749
  0
LINE
  8
CSLAYER1
  6
CONTINUOUS
 62
     6
 10
791.191905
 20
262.493749
 11
791.059356
 21
262.610377
  0
LINE
  8
CSLAYER1
  6
CONTINUOUS
 62
     6
 10
791.059356
 20
262.610377
 11
790.956351
 21
262.713392
  0
LINE
  8
CSLAYER1
  6
CONTINUOUS
 62
     6
 10
790.956351
 20
262.713392
 11
790.854687
 21
262.826828
  0
LINE
  8
CSLAYER1
  6
CONTINUOUS
 62
     6
 10
790.854687
 20
262.826828
 11
790.754933
 21
262.948995
  0
LINE
  8
CSLAYER1
  6
CONTINUOUS
 62
     6
 10
790.754933
 20
262.948995
 11
790.657654
 21
263.078204
  0
LINE
  8
CSLAYER1
  6
CONTINUOUS
 62
     6
 10
790.657654
 20
263.078204
 11
790.563420
 21
263.212764
  0
LINE
  8
CSLAYER1
  6
CONTINUOUS
 62
     6
 10
790.563420
 20
263.212764
 11
790.472795
 21
263.350986
  0
LINE
  8
CSLAYER1
  6
CONTINUOUS
 62
     6
 10
790.472795
 20
263.350986
 11
790.386349
 21
263.491179
  0
LINE
  8
CSLAYER1
  6
CONTINUOUS
 62
     6
 10
790.386349
 20
263.491179
 11
790.304648
 21
263.631653
  0
LINE
  8
CSLAYER1
  6
CONTINUOUS
 62
     6
 10
790.304648
 20
263.631653
 11
790.228259
 21
263.770720
  0
LINE
  8
CSLAYER1
  6
CONTINUOUS
 62
     6
 10
790.228259
 20
263.770720
 11
790.157750
 21
263.906688
  0
LINE
  8
CSLAYER1
  6
CONTINUOUS
 62
     6
 10
790.157750
 20
263.906688
 11
790.052490
 21
264.122228
  0
ARC
  8
CSLAYER1
  6
CONTINUOUS
 62
     6
 10
790.978601
 20
263.566150
 40
1.080690
 50
89.054803
 51
149.054803
  0
ARC
  8
CSLAYER1
  6
CONTINUOUS
 62
     6
 10
791.014255
 20
265.727236
 40
1.080690
 50
269.054803
 51
329.054803
  0
ARC
  8
CSLAYER1
  6
CONTINUOUS
 62
     6
 10
791.923292
 20
264.090983
 40
1.080690
 50
89.054803
 51
149.054803
  0
LINE
  8
CSLAYER1
  6
CONTINUOUS
 62
     6
 10
791.941100
 20
265.171503
 11
792.085802
 21
265.032157
  0
LINE
  8
CSLAYER1
  6
CONTINUOUS
 62
     6
 10
792.085802
 20
265.032157
 11
792.239717
 21
264.882407
  0
LINE
  8
CSLAYER1
  6
CONTINUOUS
 62
     6
 10
792.239717
 20
264.882407
 11
792.401068
 21
264.724579
  0
LINE
  8
CSLAYER1
  6
CONTINUOUS
 62
     6
 10
792.401068
 20
264.724579
 11
792.568078
 21
264.560997
  0
ARC
  8
CSLAYER1
  6
CONTINUOUS
 62
     6
 10
789.467159
 20
266.575351
 40
1.095863
 50
276.431024
 51
336.431024
  0
ARC
  8
CSLAYER1
  6
CONTINUOUS
 62
     6
 10
788.585458
 20
265.924568
 40
1.095863
 50
276.431024
 51
336.431024
  0
ARC
  8
CSLAYER1
  6
CONTINUOUS
 62
     6
 10
789.712648
 20
264.397417
 40
1.095863
 50
96.431024
 51
156.431024
  0
LINE
  8
CSLAYER1
  6
CONTINUOUS
 62
     6
 10
790.218475
 20
266.317138
 11
790.471587
 21
266.137171
  0
LINE
  8
CSLAYER1
  6
CONTINUOUS
 62
     6
 10
790.218475
 20
266.317138
 11
789.965614
 21
266.497458
  0
LINE
  8
CSLAYER1
  6
CONTINUOUS
 62
     6
 10
789.965614
 20
266.497458
 11
789.713254
 21
266.678484
  0
LINE
  8
CSLAYER1
  6
CONTINUOUS
 62
     6
 10
789.713254
 20
266.678484
 11
789.461646
 21
266.860568
  0
LINE
  8
CSLAYER1
  6
CONTINUOUS
 62
     6
 10
789.461646
 20
266.860568
 11
789.211041
 21
267.044063
  0
LINE
  8
CSLAYER1
  6
CONTINUOUS
 62
     6
 10
789.211041
 20
267.044063
 11
788.961688
 21
267.229322
  0
LINE
  8
CSLAYER1
  6
CONTINUOUS
 62
     6
 10
788.961688
 20
267.229322
 11
788.713839
 21
267.416697
  0
LINE
  8
CSLAYER1
  6
CONTINUOUS
 62
     6
 10
788.713839
 20
267.416697
 11
788.467744
 21
267.606542
  0
LINE
  8
CSLAYER1
  6
CONTINUOUS
 62
     6
 10
788.467744
 20
267.606542
 11
788.223654
 21
267.799210
  0
LINE
  8
CSLAYER1
  6
CONTINUOUS
 62
     6
 10
788.223654
 20
267.799210
 11
787.981820
 21
267.995052
  0
LINE
  8
CSLAYER1
  6
CONTINUOUS
 62
     6
 10
787.981820
 20
267.995052
 11
787.742492
 21
268.194422
  0
LINE
  8
CSLAYER1
  6
CONTINUOUS
 62
     6
 10
787.742492
 20
268.194422
 11
787.585227
 21
268.328719
  0
LINE
  8
CSLAYER1
  6
CONTINUOUS
 62
     6
 10
787.585227
 20
268.328719
 11
787.428178
 21
268.465743
  0
LINE
  8
CSLAYER1
  6
CONTINUOUS
 62
     6
 10
787.428178
 20
268.465743
 11
787.272087
 21
268.605303
  0
LINE
  8
CSLAYER1
  6
CONTINUOUS
 62
     6
 10
787.272087
 20
268.605303
 11
787.117697
 21
268.747205
  0
LINE
  8
CSLAYER1
  6
CONTINUOUS
 62
     6
 10
787.117697
 20
268.747205
 11
786.965753
 21
268.891258
  0
LINE
  8
CSLAYER1
  6
CONTINUOUS
 62
     6
 10
786.965753
 20
268.891258
 11
786.816996
 21
269.037268
  0
LINE
  8
CSLAYER1
  6
CONTINUOUS
 62
     6
 10
786.816996
 20
269.037268
 11
786.672170
 21
269.185043
  0
LINE
  8
CSLAYER1
  6
CONTINUOUS
 62
     6
 10
786.672170
 20
269.185043
 11
786.532017
 21
269.334390
  0
LINE
  8
CSLAYER1
  6
CONTINUOUS
 62
     6
 10
786.532017
 20
269.334390
 11
786.397281
 21
269.485118
  0
LINE
  8
CSLAYER1
  6
CONTINUOUS
 62
     6
 10
786.397281
 20
269.485118
 11
786.268706
 21
269.637033
  0
LINE
  8
CSLAYER1
  6
CONTINUOUS
 62
     6
 10
786.268706
 20
269.637033
 11
786.147033
 21
269.789942
  0
LINE
  8
CSLAYER1
  6
CONTINUOUS
 62
     6
 10
786.147033
 20
269.789942
 11
786.032578
 21
269.941268
  0
LINE
  8
CSLAYER1
  6
CONTINUOUS
 62
     6
 10
786.032578
 20
269.941268
 11
785.917277
 21
270.098522
  0
LINE
  8
CSLAYER1
  6
CONTINUOUS
 62
     6
 10
785.917277
 20
270.098522
 11
785.801664
 21
270.260580
  0
LINE
  8
CSLAYER1
  6
CONTINUOUS
 62
     6
 10
785.801664
 20
270.260580
 11
785.686271
 21
270.426320
  0
LINE
  8
CSLAYER1
  6
CONTINUOUS
 62
     6
 10
785.686271
 20
270.426320
 11
785.571631
 21
270.594619
  0
LINE
  8
CSLAYER1
  6
CONTINUOUS
 62
     6
 10
785.571631
 20
270.594619
 11
785.458277
 21
270.764355
  0
LINE
  8
CSLAYER1
  6
CONTINUOUS
 62
     6
 10
785.458277
 20
270.764355
 11
785.346742
 21
270.934406
  0
LINE
  8
CSLAYER1
  6
CONTINUOUS
 62
     6
 10
785.346742
 20
270.934406
 11
785.237557
 21
271.103648
  0
LINE
  8
CSLAYER1
  6
CONTINUOUS
 62
     6
 10
785.237557
 20
271.103648
 11
785.131258
 21
271.270960
  0
LINE
  8
CSLAYER1
  6
CONTINUOUS
 62
     6
 10
785.131258
 20
271.270960
 11
785.028375
 21
271.435219
  0
LINE
  8
CSLAYER1
  6
CONTINUOUS
 62
     6
 10
785.028375
 20
271.435219
 11
784.929442
 21
271.595301
  0
LINE
  8
CSLAYER1
  6
CONTINUOUS
 62
     6
 10
784.929442
 20
271.595301
 11
784.842968
 21
271.733527
  0
LINE
  8
CSLAYER1
  6
CONTINUOUS
 62
     6
 10
784.842968
 20
271.733527
 11
784.751016
 21
271.875985
  0
LINE
  8
CSLAYER1
  6
CONTINUOUS
 62
     6
 10
784.751016
 20
271.875985
 11
784.654816
 21
272.021465
  0
LINE
  8
CSLAYER1
  6
CONTINUOUS
 62
     6
 10
784.654816
 20
272.021465
 11
784.555597
 21
272.168755
  0
LINE
  8
CSLAYER1
  6
CONTINUOUS
 62
     6
 10
784.555597
 20
272.168755
 11
784.454589
 21
272.316645
  0
LINE
  8
CSLAYER1
  6
CONTINUOUS
 62
     6
 10
784.454589
 20
272.316645
 11
784.353021
 21
272.463924
  0
LINE
  8
CSLAYER1
  6
CONTINUOUS
 62
     6
 10
784.353021
 20
272.463924
 11
784.252123
 21
272.609380
  0
LINE
  8
CSLAYER1
  6
CONTINUOUS
 62
     6
 10
784.252123
 20
272.609380
 11
784.153124
 21
272.751804
  0
LINE
  8
CSLAYER1
  6
CONTINUOUS
 62
     6
 10
784.153124
 20
272.751804
 11
784.057255
 21
272.889984
  0
LINE
  8
CSLAYER1
  6
CONTINUOUS
 62
     6
 10
784.057255
 20
272.889984
 11
783.936713
 21
273.064814
  0
ARC
  8
CSLAYER1
  6
CONTINUOUS
 62
     6
 10
786.201917
 20
275.064814
 40
2.000000
 50
270.000000
 51
360.000000
  0
LINE
  8
CSLAYER1
  6
CONTINUOUS
 62
     6
 10
788.201917
 20
275.064814
 11
788.201917
 21
275.564814
  0
LINE
  8
CSLAYER1
  6
CONTINUOUS
 62
     6
 10
788.451917
 20
275.564814
 11
762.451917
 21
275.564814
  0
LINE
  8
CSLAYER1
  6
CONTINUOUS
 62
     6
 10
762.451917
 20
277.564814
 11
788.451917
 21
277.564814
  0
LINE
  8
CSLAYER1
  6
CONTINUOUS
 62
     6
 10
786.201917
 20
273.064814
 11
777.113292
 21
273.064814
  0
ARC
  8
CSLAYER1
  6
CONTINUOUS
 62
     6
 10
775.451917
 20
279.864802
 40
7.000000
 50
253.742974
 51
286.256997
  0
ARC
  8
CSLAYER1
  6
CONTINUOUS
 62
     6
 10
773.772260
 20
274.104731
 40
1.000000
 50
185.000098
 51
253.742592
  0
LINE
  8
CSLAYER1
  6
CONTINUOUS
 62
     6
 10
772.776075
 20
274.017573
 11
772.720960
 21
274.647395
  0
ARC
  8
CSLAYER1
  6
CONTINUOUS
 62
     6
 10
772.920179
 20
274.664820
 40
0.200000
 50
89.999981
 51
185.000126
  0
LINE
  8
CSLAYER1
  6
CONTINUOUS
 62
     6
 10
772.651929
 20
274.864832
 11
775.451917
 21
274.864802
  0
LINE
  8
CSLAYER1
  6
CONTINUOUS
 62
     6
 10
775.451917
 20
274.864802
 11
778.251905
 21
274.864802
  0
ARC
  8
CSLAYER1
  6
CONTINUOUS
 62
     6
 10
778.251905
 20
274.964808
 40
0.100000
 50
269.999999
 51
359.999995
  0
LINE
  8
CSLAYER1
  6
CONTINUOUS
 62
     6
 10
778.351941
 20
274.964808
 11
778.351941
 21
275.464808
  0
ARC
  8
CSLAYER1
  6
CONTINUOUS
 62
     6
 10
778.251905
 20
275.464808
 40
0.100000
 50
-0.000005
 51
89.999997
  0
ARC
  8
CSLAYER1
  6
CONTINUOUS
 62
     6
 10
777.983655
 20
274.664820
 40
0.200000
 50
-5.000154
 51
89.999997
  0
LINE
  8
CSLAYER1
  6
CONTINUOUS
 62
     6
 10
778.182904
 20
274.647395
 11
778.127820
 21
274.017573
  0
ARC
  8
CSLAYER1
  6
CONTINUOUS
 62
     6
 10
777.131604
 20
274.104731
 40
1.000000
 50
286.257380
 51
354.999887
  0
LINE
  8
CSLAYER1
  6
CONTINUOUS
 62
     6
 10
779.023294
 20
273.064814
 11
779.188412
 21
272.046770
  0
LINE
  8
CSLAYER1
  6
CONTINUOUS
 62
     6
 10
779.188412
 20
272.046770
 11
779.246547
 21
271.724343
  0
LINE
  8
CSLAYER1
  6
CONTINUOUS
 62
     6
 10
779.246547
 20
271.724343
 11
779.311400
 21
271.392534
  0
LINE
  8
CSLAYER1
  6
CONTINUOUS
 62
     6
 10
779.311400
 20
271.392534
 11
779.381776
 21
271.054737
  0
LINE
  8
CSLAYER1
  6
CONTINUOUS
 62
     6
 10
779.381776
 20
271.054737
 11
779.456479
 21
270.714350
  0
LINE
  8
CSLAYER1
  6
CONTINUOUS
 62
     6
 10
779.456479
 20
270.714350
 11
779.534315
 21
270.374766
  0
LINE
  8
CSLAYER1
  6
CONTINUOUS
 62
     6
 10
779.534315
 20
270.374766
 11
779.614089
 21
270.039380
  0
LINE
  8
CSLAYER1
  6
CONTINUOUS
 62
     6
 10
779.614089
 20
270.039380
 11
779.694605
 21
269.711589
  0
LINE
  8
CSLAYER1
  6
CONTINUOUS
 62
     6
 10
779.694605
 20
269.711589
 11
779.774670
 21
269.394788
  0
LINE
  8
CSLAYER1
  6
CONTINUOUS
 62
     6
 10
779.774670
 20
269.394788
 11
779.853087
 21
269.092371
  0
LINE
  8
CSLAYER1
  6
CONTINUOUS
 62
     6
 10
779.853087
 20
269.092371
 11
779.936459
 21
268.792621
  0
LINE
  8
CSLAYER1
  6
CONTINUOUS
 62
     6
 10
779.936459
 20
268.792621
 11
780.030372
 21
268.487097
  0
LINE
  8
CSLAYER1
  6
CONTINUOUS
 62
     6
 10
780.030372
 20
268.487097
 11
780.133958
 21
268.177058
  0
LINE
  8
CSLAYER1
  6
CONTINUOUS
 62
     6
 10
780.133958
 20
268.177058
 11
780.246346
 21
267.863762
  0
LINE
  8
CSLAYER1
  6
CONTINUOUS
 62
     6
 10
780.246346
 20
267.863762
 11
780.366668
 21
267.548471
  0
LINE
  8
CSLAYER1
  6
CONTINUOUS
 62
     6
 10
780.366668
 20
267.548471
 11
780.494055
 21
267.232443
  0
LINE
  8
CSLAYER1
  6
CONTINUOUS
 62
     6
 10
780.494055
 20
267.232443
 11
780.627637
 21
266.916937
  0
LINE
  8
CSLAYER1
  6
CONTINUOUS
 62
     6
 10
780.627637
 20
266.916937
 11
780.766546
 21
266.603213
  0
LINE
  8
CSLAYER1
  6
CONTINUOUS
 62
     6
 10
780.766546
 20
266.603213
 11
780.909913
 21
266.292531
  0
LINE
  8
CSLAYER1
  6
CONTINUOUS
 62
     6
 10
780.909913
 20
266.292531
 11
781.056868
 21
265.986149
  0
LINE
  8
CSLAYER1
  6
CONTINUOUS
 62
     6
 10
781.056868
 20
265.986149
 11
781.206542
 21
265.685328
  0
LINE
  8
CSLAYER1
  6
CONTINUOUS
 62
     6
 10
781.206542
 20
265.685328
 11
781.333886
 21
265.437708
  0
LINE
  8
CSLAYER1
  6
CONTINUOUS
 62
     6
 10
781.333886
 20
265.437708
 11
781.464038
 21
265.191674
  0
LINE
  8
CSLAYER1
  6
CONTINUOUS
 62
     6
 10
781.464038
 20
265.191674
 11
781.596717
 21
264.947068
  0
LINE
  8
CSLAYER1
  6
CONTINUOUS
 62
     6
 10
781.596717
 20
264.947068
 11
781.731642
 21
264.703731
  0
LINE
  8
CSLAYER1
  6
CONTINUOUS
 62
     6
 10
781.731642
 20
264.703731
 11
781.868532
 21
264.461504
  0
LINE
  8
CSLAYER1
  6
CONTINUOUS
 62
     6
 10
781.868532
 20
264.461504
 11
782.007107
 21
264.220229
  0
LINE
  8
CSLAYER1
  6
CONTINUOUS
 62
     6
 10
782.007107
 20
264.220229
 11
782.147085
 21
263.979747
  0
LINE
  8
CSLAYER1
  6
CONTINUOUS
 62
     6
 10
782.147085
 20
263.979747
 11
782.288187
 21
263.739900
  0
LINE
  8
CSLAYER1
  6
CONTINUOUS
 62
     6
 10
782.288187
 20
263.739900
 11
782.430131
 21
263.500528
  0
LINE
  8
CSLAYER1
  6
CONTINUOUS
 62
     6
 10
782.430131
 20
263.500528
 11
782.572636
 21
263.261474
  0
LINE
  8
CSLAYER1
  6
CONTINUOUS
 62
     6
 10
782.572636
 20
263.261474
 11
782.715422
 21
263.022578
  0
ARC
  8
CSLAYER1
  6
CONTINUOUS
 62
     6
 10
783.749793
 20
262.414222
 40
1.200008
 50
89.538514
 51
149.538514
  0
ARC
  8
CSLAYER1
  6
CONTINUOUS
 62
     6
 10
783.769124
 20
264.814160
 40
1.200008
 50
269.538514
 51
329.538514
  0
LINE
  8
CSLAYER1
  6
CONTINUOUS
 62
     6
 10
784.803527
 20
264.205805
 11
784.668245
 21
264.431727
  0
LINE
  8
CSLAYER1
  6
CONTINUOUS
 62
     6
 10
784.668245
 20
264.431727
 11
784.533239
 21
264.657803
  0
LINE
  8
CSLAYER1
  6
CONTINUOUS
 62
     6
 10
784.533239
 20
264.657803
 11
784.398782
 21
264.884189
  0
LINE
  8
CSLAYER1
  6
CONTINUOUS
 62
     6
 10
784.398782
 20
264.884189
 11
784.265152
 21
265.111039
  0
LINE
  8
CSLAYER1
  6
CONTINUOUS
 62
     6
 10
784.265152
 20
265.111039
 11
784.132622
 21
265.338507
  0
LINE
  8
CSLAYER1
  6
CONTINUOUS
 62
     6
 10
784.132622
 20
265.338507
 11
784.001469
 21
265.566749
  0
LINE
  8
CSLAYER1
  6
CONTINUOUS
 62
     6
 10
784.001469
 20
265.566749
 11
783.871967
 21
265.795919
  0
LINE
  8
CSLAYER1
  6
CONTINUOUS
 62
     6
 10
783.871967
 20
265.795919
 11
783.744391
 21
266.026171
  0
LINE
  8
CSLAYER1
  6
CONTINUOUS
 62
     6
 10
783.744391
 20
266.026171
 11
783.619017
 21
266.257661
  0
LINE
  8
CSLAYER1
  6
CONTINUOUS
 62
     6
 10
783.619017
 20
266.257661
 11
783.496120
 21
266.490542
  0
LINE
  8
CSLAYER1
  6
CONTINUOUS
 62
     6
 10
783.496120
 20
266.490542
 11
783.375975
 21
266.724970
  0
LINE
  8
CSLAYER1
  6
CONTINUOUS
 62
     6
 10
783.375975
 20
266.724970
 11
783.241734
 21
266.995776
  0
LINE
  8
CSLAYER1
  6
CONTINUOUS
 62
     6
 10
783.241734
 20
266.995776
 11
783.109871
 21
267.271541
  0
LINE
  8
CSLAYER1
  6
CONTINUOUS
 62
     6
 10
783.109871
 20
267.271541
 11
782.981163
 21
267.551134
  0
LINE
  8
CSLAYER1
  6
CONTINUOUS
 62
     6
 10
782.981163
 20
267.551134
 11
782.856389
 21
267.833424
  0
LINE
  8
CSLAYER1
  6
CONTINUOUS
 62
     6
 10
782.856389
 20
267.833424
 11
782.736326
 21
268.117280
  0
LINE
  8
CSLAYER1
  6
CONTINUOUS
 62
     6
 10
782.736326
 20
268.117280
 11
782.621751
 21
268.401570
  0
LINE
  8
CSLAYER1
  6
CONTINUOUS
 62
     6
 10
782.621751
 20
268.401570
 11
782.513442
 21
268.685163
  0
LINE
  8
CSLAYER1
  6
CONTINUOUS
 62
     6
 10
782.513442
 20
268.685163
 11
782.412177
 21
268.966928
  0
LINE
  8
CSLAYER1
  6
CONTINUOUS
 62
     6
 10
782.412177
 20
268.966928
 11
782.318732
 21
269.245734
  0
LINE
  8
CSLAYER1
  6
CONTINUOUS
 62
     6
 10
782.318732
 20
269.245734
 11
782.233886
 21
269.520449
  0
LINE
  8
CSLAYER1
  6
CONTINUOUS
 62
     6
 10
782.233886
 20
269.520449
 11
782.158416
 21
269.789942
  0
LINE
  8
CSLAYER1
  6
CONTINUOUS
 62
     6
 10
782.158416
 20
269.789942
 11
782.083876
 21
270.075381
  0
LINE
  8
CSLAYER1
  6
CONTINUOUS
 62
     6
 10
782.083876
 20
270.075381
 11
782.007868
 21
270.374560
  0
LINE
  8
CSLAYER1
  6
CONTINUOUS
 62
     6
 10
782.007868
 20
270.374560
 11
781.931524
 21
270.684225
  0
LINE
  8
CSLAYER1
  6
CONTINUOUS
 62
     6
 10
781.931524
 20
270.684225
 11
781.855978
 21
271.001125
  0
LINE
  8
CSLAYER1
  6
CONTINUOUS
 62
     6
 10
781.855978
 20
271.001125
 11
781.782362
 21
271.322007
  0
LINE
  8
CSLAYER1
  6
CONTINUOUS
 62
     6
 10
781.782362
 20
271.322007
 11
781.711810
 21
271.643618
  0
LINE
  8
CSLAYER1
  6
CONTINUOUS
 62
     6
 10
781.711810
 20
271.643618
 11
781.645453
 21
271.962706
  0
LINE
  8
CSLAYER1
  6
CONTINUOUS
 62
     6
 10
781.645453
 20
271.962706
 11
781.584424
 21
272.276017
  0
LINE
  8
CSLAYER1
  6
CONTINUOUS
 62
     6
 10
781.584424
 20
272.276017
 11
781.529858
 21
272.580300
  0
LINE
  8
CSLAYER1
  6
CONTINUOUS
 62
     6
 10
781.529858
 20
272.580300
 11
781.451917
 21
273.064814
  0
LINE
  8
CSLAYER1
  6
CONTINUOUS
 62
     6
 10
781.580317
 20
272.298920
 11
781.628564
 21
272.211086
  0
LINE
  8
CSLAYER1
  6
CONTINUOUS
 62
     6
 10
781.628564
 20
272.211086
 11
781.738451
 21
272.019277
  0
LINE
  8
CSLAYER1
  6
CONTINUOUS
 62
     6
 10
781.738451
 20
272.019277
 11
781.856705
 21
271.819790
  0
LINE
  8
CSLAYER1
  6
CONTINUOUS
 62
     6
 10
781.856705
 20
271.819790
 11
781.981743
 21
271.614810
  0
LINE
  8
CSLAYER1
  6
CONTINUOUS
 62
     6
 10
781.981743
 20
271.614810
 11
782.111985
 21
271.406525
  0
LINE
  8
CSLAYER1
  6
CONTINUOUS
 62
     6
 10
782.111985
 20
271.406525
 11
782.245847
 21
271.197119
  0
LINE
  8
CSLAYER1
  6
CONTINUOUS
 62
     6
 10
782.245847
 20
271.197119
 11
782.381749
 21
270.988779
  0
LINE
  8
CSLAYER1
  6
CONTINUOUS
 62
     6
 10
782.381749
 20
270.988779
 11
782.518110
 21
270.783692
  0
LINE
  8
CSLAYER1
  6
CONTINUOUS
 62
     6
 10
782.518110
 20
270.783692
 11
782.653346
 21
270.584042
  0
LINE
  8
CSLAYER1
  6
CONTINUOUS
 62
     6
 10
782.653346
 20
270.584042
 11
782.785877
 21
270.392017
  0
LINE
  8
CSLAYER1
  6
CONTINUOUS
 62
     6
 10
782.785877
 20
270.392017
 11
782.914122
 21
270.209803
  0
LINE
  8
CSLAYER1
  6
CONTINUOUS
 62
     6
 10
782.914122
 20
270.209803
 11
783.019202
 21
270.065624
  0
LINE
  8
CSLAYER1
  6
CONTINUOUS
 62
     6
 10
783.019202
 20
270.065624
 11
783.131093
 21
269.918574
  0
LINE
  8
CSLAYER1
  6
CONTINUOUS
 62
     6
 10
783.131093
 20
269.918574
 11
783.248661
 21
269.769552
  0
LINE
  8
CSLAYER1
  6
CONTINUOUS
 62
     6
 10
783.248661
 20
269.769552
 11
783.370775
 21
269.619458
  0
LINE
  8
CSLAYER1
  6
CONTINUOUS
 62
     6
 10
783.370775
 20
269.619458
 11
783.496301
 21
269.469190
  0
LINE
  8
CSLAYER1
  6
CONTINUOUS
 62
     6
 10
783.496301
 20
269.469190
 11
783.624106
 21
269.319647
  0
LINE
  8
CSLAYER1
  6
CONTINUOUS
 62
     6
 10
783.624106
 20
269.319647
 11
783.753059
 21
269.171729
  0
LINE
  8
CSLAYER1
  6
CONTINUOUS
 62
     6
 10
783.753059
 20
269.171729
 11
783.882026
 21
269.026334
  0
LINE
  8
CSLAYER1
  6
CONTINUOUS
 62
     6
 10
783.882026
 20
269.026334
 11
784.009875
 21
268.884362
  0
LINE
  8
CSLAYER1
  6
CONTINUOUS
 62
     6
 10
784.009875
 20
268.884362
 11
784.135474
 21
268.746712
  0
LINE
  8
CSLAYER1
  6
CONTINUOUS
 62
     6
 10
784.135474
 20
268.746712
 11
784.257689
 21
268.614283
  0
LINE
  8
CSLAYER1
  6
CONTINUOUS
 62
     6
 10
784.257689
 20
268.614283
 11
784.402665
 21
268.462123
  0
LINE
  8
CSLAYER1
  6
CONTINUOUS
 62
     6
 10
784.402665
 20
268.462123
 11
784.555840
 21
268.308172
  0
LINE
  8
CSLAYER1
  6
CONTINUOUS
 62
     6
 10
784.555840
 20
268.308172
 11
784.715249
 21
268.152739
  0
LINE
  8
CSLAYER1
  6
CONTINUOUS
 62
     6
 10
784.715249
 20
268.152739
 11
784.878926
 21
267.996131
  0
LINE
  8
CSLAYER1
  6
CONTINUOUS
 62
     6
 10
784.878926
 20
267.996131
 11
785.044906
 21
267.838657
  0
LINE
  8
CSLAYER1
  6
CONTINUOUS
 62
     6
 10
785.044906
 20
267.838657
 11
785.211224
 21
267.680626
  0
LINE
  8
CSLAYER1
  6
CONTINUOUS
 62
     6
 10
785.211224
 20
267.680626
 11
785.375914
 21
267.522346
  0
LINE
  8
CSLAYER1
  6
CONTINUOUS
 62
     6
 10
785.375914
 20
267.522346
 11
785.537011
 21
267.364126
  0
LINE
  8
CSLAYER1
  6
CONTINUOUS
 62
     6
 10
785.537011
 20
267.364126
 11
785.692550
 21
267.206274
  0
LINE
  8
CSLAYER1
  6
CONTINUOUS
 62
     6
 10
785.692550
 20
267.206274
 11
785.840566
 21
267.049098
  0
LINE
  8
CSLAYER1
  6
CONTINUOUS
 62
     6
 10
785.840566
 20
267.049098
 11
785.979094
 21
266.892908
  0
LINE
  8
CSLAYER1
  6
CONTINUOUS
 62
     6
 10
785.979094
 20
266.892908
 11
786.105009
 21
266.746326
  0
LINE
  8
CSLAYER1
  6
CONTINUOUS
 62
     6
 10
786.105009
 20
266.746326
 11
786.235818
 21
266.596148
  0
LINE
  8
CSLAYER1
  6
CONTINUOUS
 62
     6
 10
786.235818
 20
266.596148
 11
786.371421
 21
266.443928
  0
LINE
  8
CSLAYER1
  6
CONTINUOUS
 62
     6
 10
786.371421
 20
266.443928
 11
786.511714
 21
266.291223
  0
LINE
  8
CSLAYER1
  6
CONTINUOUS
 62
     6
 10
786.511714
 20
266.291223
 11
786.656597
 21
266.139590
  0
LINE
  8
CSLAYER1
  6
CONTINUOUS
 62
     6
 10
786.656597
 20
266.139590
 11
786.805968
 21
265.990583
  0
LINE
  8
CSLAYER1
  6
CONTINUOUS
 62
     6
 10
786.805968
 20
265.990583
 11
786.959724
 21
265.845759
  0
LINE
  8
CSLAYER1
  6
CONTINUOUS
 62
     6
 10
786.959724
 20
265.845759
 11
787.117765
 21
265.706674
  0
LINE
  8
CSLAYER1
  6
CONTINUOUS
 62
     6
 10
787.117765
 20
265.706674
 11
787.279989
 21
265.574884
  0
LINE
  8
CSLAYER1
  6
CONTINUOUS
 62
     6
 10
787.279989
 20
265.574884
 11
787.446293
 21
265.451944
  0
LINE
  8
CSLAYER1
  6
CONTINUOUS
 62
     6
 10
787.446293
 20
265.451944
 11
787.616576
 21
265.339411
  0
LINE
  8
CSLAYER1
  6
CONTINUOUS
 62
     6
 10
787.616576
 20
265.339411
 11
787.709310
 21
265.283985
  0
LINE
  8
CSLAYER1
  6
CONTINUOUS
 62
     6
 10
787.709310
 20
265.283985
 11
787.803902
 21
265.231308
  0
LINE
  8
CSLAYER1
  6
CONTINUOUS
 62
     6
 10
787.803902
 20
265.231308
 11
787.900167
 21
265.181107
  0
LINE
  8
CSLAYER1
  6
CONTINUOUS
 62
     6
 10
787.900167
 20
265.181107
 11
787.997918
 21
265.133106
  0
LINE
  8
CSLAYER1
  6
CONTINUOUS
 62
     6
 10
787.997918
 20
265.133106
 11
788.096970
 21
265.087029
  0
LINE
  8
CSLAYER1
  6
CONTINUOUS
 62
     6
 10
788.096970
 20
265.087029
 11
788.197136
 21
265.042603
  0
LINE
  8
CSLAYER1
  6
CONTINUOUS
 62
     6
 10
788.197136
 20
265.042603
 11
788.298232
 21
264.999552
  0
LINE
  8
CSLAYER1
  6
CONTINUOUS
 62
     6
 10
788.298232
 20
264.999552
 11
788.400071
 21
264.957600
  0
LINE
  8
CSLAYER1
  6
CONTINUOUS
 62
     6
 10
788.400071
 20
264.957600
 11
788.502468
 21
264.916474
  0
LINE
  8
CSLAYER1
  6
CONTINUOUS
 62
     6
 10
788.502468
 20
264.916474
 11
788.605236
 21
264.875897
  0
LINE
  8
CSLAYER1
  6
CONTINUOUS
 62
     6
 10
788.605236
 20
264.875897
 11
788.708190
 21
264.835596
  0
LINE
  8
CSLAYER1
  6
CONTINUOUS
 62
     6
 10
785.809425
 20
262.514964
 11
785.944227
 21
262.349652
  0
LINE
  8
CSLAYER1
  6
CONTINUOUS
 62
     6
 10
785.944227
 20
262.349652
 11
786.082784
 21
262.178000
  0
LINE
  8
CSLAYER1
  6
CONTINUOUS
 62
     6
 10
786.082784
 20
262.178000
 11
786.223059
 21
262.001578
  0
LINE
  8
CSLAYER1
  6
CONTINUOUS
 62
     6
 10
786.223059
 20
262.001578
 11
786.363017
 21
261.821960
  0
LINE
  8
CSLAYER1
  6
CONTINUOUS
 62
     6
 10
786.363017
 20
261.821960
 11
786.500620
 21
261.640717
  0
LINE
  8
CSLAYER1
  6
CONTINUOUS
 62
     6
 10
786.500620
 20
261.640717
 11
786.633832
 21
261.459420
  0
LINE
  8
CSLAYER1
  6
CONTINUOUS
 62
     6
 10
786.633832
 20
261.459420
 11
786.760616
 21
261.279643
  0
LINE
  8
CSLAYER1
  6
CONTINUOUS
 62
     6
 10
786.760616
 20
261.279643
 11
786.878935
 21
261.102957
  0
LINE
  8
CSLAYER1
  6
CONTINUOUS
 62
     6
 10
786.878935
 20
261.102957
 11
786.986754
 21
260.930933
  0
LINE
  8
CSLAYER1
  6
CONTINUOUS
 62
     6
 10
786.986754
 20
260.930933
 11
787.084393
 21
260.767172
  0
LINE
  8
CSLAYER1
  6
CONTINUOUS
 62
     6
 10
787.084393
 20
260.767172
 11
787.184022
 21
260.597905
  0
LINE
  8
CSLAYER1
  6
CONTINUOUS
 62
     6
 10
787.184022
 20
260.597905
 11
787.285848
 21
260.424434
  0
LINE
  8
CSLAYER1
  6
CONTINUOUS
 62
     6
 10
787.285848
 20
260.424434
 11
787.390078
 21
260.248061
  0
LINE
  8
CSLAYER1
  6
CONTINUOUS
 62
     6
 10
787.390078
 20
260.248061
 11
787.496918
 21
260.070088
  0
LINE
  8
CSLAYER1
  6
CONTINUOUS
 62
     6
 10
787.496918
 20
260.070088
 11
787.606576
 21
259.891819
  0
LINE
  8
CSLAYER1
  6
CONTINUOUS
 62
     6
 10
787.606576
 20
259.891819
 11
787.719256
 21
259.714554
  0
LINE
  8
CSLAYER1
  6
CONTINUOUS
 62
     6
 10
787.719256
 20
259.714554
 11
787.835167
 21
259.539596
  0
LINE
  8
CSLAYER1
  6
CONTINUOUS
 62
     6
 10
787.835167
 20
259.539596
 11
787.954514
 21
259.368248
  0
LINE
  8
CSLAYER1
  6
CONTINUOUS
 62
     6
 10
787.954514
 20
259.368248
 11
788.077504
 21
259.201812
  0
LINE
  8
CSLAYER1
  6
CONTINUOUS
 62
     6
 10
788.077504
 20
259.201812
 11
788.204345
 21
259.041590
  0
LINE
  8
CSLAYER1
  6
CONTINUOUS
 62
     6
 10
788.204345
 20
259.041590
 11
788.303166
 21
258.925077
  0
LINE
  8
CSLAYER1
  6
CONTINUOUS
 62
     6
 10
788.303166
 20
258.925077
 11
788.405378
 21
258.811318
  0
LINE
  8
CSLAYER1
  6
CONTINUOUS
 62
     6
 10
788.405378
 20
258.811318
 11
788.510642
 21
258.700037
  0
LINE
  8
CSLAYER1
  6
CONTINUOUS
 62
     6
 10
788.510642
 20
258.700037
 11
788.618619
 21
258.590959
  0
LINE
  8
CSLAYER1
  6
CONTINUOUS
 62
     6
 10
788.618619
 20
258.590959
 11
788.728970
 21
258.483808
  0
LINE
  8
CSLAYER1
  6
CONTINUOUS
 62
     6
 10
788.728970
 20
258.483808
 11
788.841356
 21
258.378310
  0
LINE
  8
CSLAYER1
  6
CONTINUOUS
 62
     6
 10
788.841356
 20
258.378310
 11
788.955437
 21
258.274188
  0
LINE
  8
CSLAYER1
  6
CONTINUOUS
 62
     6
 10
788.955437
 20
258.274188
 11
789.070874
 21
258.171168
  0
LINE
  8
CSLAYER1
  6
CONTINUOUS
 62
     6
 10
789.070874
 20
258.171168
 11
789.187329
 21
258.068973
  0
LINE
  8
CSLAYER1
  6
CONTINUOUS
 62
     6
 10
789.187329
 20
258.068973
 11
789.283356
 21
257.985645
  0
LINE
  8
CSLAYER1
  6
CONTINUOUS
 62
     6
 10
789.283356
 20
257.985645
 11
789.214208
 21
257.951117
  0
LINE
  8
CSLAYER1
  6
CONTINUOUS
 62
     6
 10
789.214208
 20
257.951117
 11
789.129732
 21
257.903500
  0
LINE
  8
CSLAYER1
  6
CONTINUOUS
 62
     6
 10
789.129732
 20
257.903500
 11
789.043800
 21
257.849750
  0
LINE
  8
CSLAYER1
  6
CONTINUOUS
 62
     6
 10
789.043800
 20
257.849750
 11
788.957680
 21
257.790526
  0
LINE
  8
CSLAYER1
  6
CONTINUOUS
 62
     6
 10
788.957680
 20
257.790526
 11
788.872645
 21
257.726488
  0
LINE
  8
CSLAYER1
  6
CONTINUOUS
 62
     6
 10
788.872645
 20
257.726488
 11
788.789962
 21
257.658297
  0
LINE
  8
CSLAYER1
  6
CONTINUOUS
 62
     6
 10
788.789962
 20
257.658297
 11
788.710903
 21
257.586614
  0
LINE
  8
CSLAYER1
  6
CONTINUOUS
 62
     6
 10
788.710903
 20
257.586614
 11
788.636737
 21
257.512098
  0
LINE
  8
CSLAYER1
  6
CONTINUOUS
 62
     6
 10
788.636737
 20
257.512098
 11
788.568734
 21
257.435411
  0
LINE
  8
CSLAYER1
  6
CONTINUOUS
 62
     6
 10
788.568734
 20
257.435411
 11
788.508164
 21
257.357212
  0
LINE
  8
CSLAYER1
  6
CONTINUOUS
 62
     6
 10
788.508164
 20
257.357212
 11
788.456298
 21
257.278162
  0
LINE
  8
CSLAYER1
  6
CONTINUOUS
 62
     6
 10
788.456298
 20
257.278162
 11
788.440391
 21
257.250556
  0
LINE
  8
CSLAYER1
  6
CONTINUOUS
 62
     6
 10
788.440391
 20
257.250556
 11
788.424738
 21
257.221862
  0
LINE
  8
CSLAYER1
  6
CONTINUOUS
 62
     6
 10
788.424738
 20
257.221862
 11
788.409296
 21
257.192249
  0
LINE
  8
CSLAYER1
  6
CONTINUOUS
 62
     6
 10
788.409296
 20
257.192249
 11
788.394023
 21
257.161883
  0
LINE
  8
CSLAYER1
  6
CONTINUOUS
 62
     6
 10
788.394023
 20
257.161883
 11
788.378877
 21
257.130931
  0
LINE
  8
CSLAYER1
  6
CONTINUOUS
 62
     6
 10
788.378877
 20
257.130931
 11
788.363817
 21
257.099561
  0
LINE
  8
CSLAYER1
  6
CONTINUOUS
 62
     6
 10
788.363817
 20
257.099561
 11
788.348800
 21
257.067939
  0
LINE
  8
CSLAYER1
  6
CONTINUOUS
 62
     6
 10
788.348800
 20
257.067939
 11
788.333785
 21
257.036234
  0
LINE
  8
CSLAYER1
  6
CONTINUOUS
 62
     6
 10
788.333785
 20
257.036234
 11
788.318729
 21
257.004612
  0
LINE
  8
CSLAYER1
  6
CONTINUOUS
 62
     6
 10
788.318729
 20
257.004612
 11
788.303591
 21
256.973240
  0
LINE
  8
CSLAYER1
  6
CONTINUOUS
 62
     6
 10
788.303591
 20
256.973240
 11
788.288329
 21
256.942286
  0
LINE
  8
CSLAYER1
  6
CONTINUOUS
 62
     6
 10
788.288329
 20
256.942286
 11
788.247508
 21
256.864149
  0
LINE
  8
CSLAYER1
  6
CONTINUOUS
 62
     6
 10
788.247508
 20
256.864149
 11
788.204172
 21
256.787617
  0
LINE
  8
CSLAYER1
  6
CONTINUOUS
 62
     6
 10
788.204172
 20
256.787617
 11
788.158574
 21
256.712528
  0
LINE
  8
CSLAYER1
  6
CONTINUOUS
 62
     6
 10
788.158574
 20
256.712528
 11
788.110964
 21
256.638724
  0
LINE
  8
CSLAYER1
  6
CONTINUOUS
 62
     6
 10
788.110964
 20
256.638724
 11
788.061594
 21
256.566042
  0
LINE
  8
CSLAYER1
  6
CONTINUOUS
 62
     6
 10
788.061594
 20
256.566042
 11
788.010715
 21
256.494324
  0
LINE
  8
CSLAYER1
  6
CONTINUOUS
 62
     6
 10
788.010715
 20
256.494324
 11
787.958579
 21
256.423407
  0
LINE
  8
CSLAYER1
  6
CONTINUOUS
 62
     6
 10
787.958579
 20
256.423407
 11
787.905437
 21
256.353133
  0
LINE
  8
CSLAYER1
  6
CONTINUOUS
 62
     6
 10
787.905437
 20
256.353133
 11
787.851541
 21
256.283340
  0
LINE
  8
CSLAYER1
  6
CONTINUOUS
 62
     6
 10
787.851541
 20
256.283340
 11
787.797142
 21
256.213868
  0
LINE
  8
CSLAYER1
  6
CONTINUOUS
 62
     6
 10
787.797142
 20
256.213868
 11
787.745069
 21
256.147825
  0
LINE
  8
CSLAYER1
  6
CONTINUOUS
 62
     6
 10
787.745069
 20
256.147825
 11
787.617722
 21
256.257126
  0
LINE
  8
CSLAYER1
  6
CONTINUOUS
 62
     6
 10
787.617722
 20
256.257126
 11
787.481007
 21
256.375159
  0
LINE
  8
CSLAYER1
  6
CONTINUOUS
 62
     6
 10
787.481007
 20
256.375159
 11
787.345119
 21
256.493863
  0
LINE
  8
CSLAYER1
  6
CONTINUOUS
 62
     6
 10
787.345119
 20
256.493863
 11
787.210473
 21
256.613574
  0
LINE
  8
CSLAYER1
  6
CONTINUOUS
 62
     6
 10
787.210473
 20
256.613574
 11
787.077482
 21
256.734629
  0
LINE
  8
CSLAYER1
  6
CONTINUOUS
 62
     6
 10
787.077482
 20
256.734629
 11
786.946559
 21
256.857362
  0
LINE
  8
CSLAYER1
  6
CONTINUOUS
 62
     6
 10
786.946559
 20
256.857362
 11
786.818119
 21
256.982110
  0
LINE
  8
CSLAYER1
  6
CONTINUOUS
 62
     6
 10
786.818119
 20
256.982110
 11
786.692576
 21
257.109208
  0
LINE
  8
CSLAYER1
  6
CONTINUOUS
 62
     6
 10
786.692576
 20
257.109208
 11
786.570343
 21
257.238991
  0
LINE
  8
CSLAYER1
  6
CONTINUOUS
 62
     6
 10
786.570343
 20
257.238991
 11
786.451833
 21
257.371797
  0
LINE
  8
CSLAYER1
  6
CONTINUOUS
 62
     6
 10
786.451833
 20
257.371797
 11
786.337462
 21
257.507960
  0
LINE
  8
CSLAYER1
  6
CONTINUOUS
 62
     6
 10
786.337462
 20
257.507960
 11
786.200966
 21
257.682186
  0
LINE
  8
CSLAYER1
  6
CONTINUOUS
 62
     6
 10
786.200966
 20
257.682186
 11
786.068623
 21
257.862862
  0
LINE
  8
CSLAYER1
  6
CONTINUOUS
 62
     6
 10
786.068623
 20
257.862862
 11
785.940151
 21
258.048632
  0
LINE
  8
CSLAYER1
  6
CONTINUOUS
 62
     6
 10
785.940151
 20
258.048632
 11
785.815270
 21
258.238140
  0
LINE
  8
CSLAYER1
  6
CONTINUOUS
 62
     6
 10
785.815270
 20
258.238140
 11
785.693698
 21
258.430028
  0
LINE
  8
CSLAYER1
  6
CONTINUOUS
 62
     6
 10
785.693698
 20
258.430028
 11
785.575153
 21
258.622941
  0
LINE
  8
CSLAYER1
  6
CONTINUOUS
 62
     6
 10
785.575153
 20
258.622941
 11
785.459355
 21
258.815521
  0
LINE
  8
CSLAYER1
  6
CONTINUOUS
 62
     6
 10
785.459355
 20
258.815521
 11
785.346023
 21
259.006412
  0
LINE
  8
CSLAYER1
  6
CONTINUOUS
 62
     6
 10
785.346023
 20
259.006412
 11
785.234874
 21
259.194257
  0
LINE
  8
CSLAYER1
  6
CONTINUOUS
 62
     6
 10
785.234874
 20
259.194257
 11
785.125628
 21
259.377700
  0
LINE
  8
CSLAYER1
  6
CONTINUOUS
 62
     6
 10
785.125628
 20
259.377700
 11
785.018004
 21
259.555384
  0
LINE
  8
CSLAYER1
  6
CONTINUOUS
 62
     6
 10
785.018004
 20
259.555384
 11
784.912678
 21
259.721071
  0
LINE
  8
CSLAYER1
  6
CONTINUOUS
 62
     6
 10
784.912678
 20
259.721071
 11
784.797949
 21
259.890960
  0
LINE
  8
CSLAYER1
  6
CONTINUOUS
 62
     6
 10
784.797949
 20
259.890960
 11
784.675649
 21
260.063623
  0
LINE
  8
CSLAYER1
  6
CONTINUOUS
 62
     6
 10
784.675649
 20
260.063623
 11
784.547607
 21
260.237633
  0
LINE
  8
CSLAYER1
  6
CONTINUOUS
 62
     6
 10
784.547607
 20
260.237633
 11
784.415655
 21
260.411563
  0
LINE
  8
CSLAYER1
  6
CONTINUOUS
 62
     6
 10
784.415655
 20
260.411563
 11
784.281623
 21
260.583984
  0
LINE
  8
CSLAYER1
  6
CONTINUOUS
 62
     6
 10
784.281623
 20
260.583984
 11
784.147342
 21
260.753469
  0
LINE
  8
CSLAYER1
  6
CONTINUOUS
 62
     6
 10
784.147342
 20
260.753469
 11
784.014643
 21
260.918591
  0
LINE
  8
CSLAYER1
  6
CONTINUOUS
 62
     6
 10
784.014643
 20
260.918591
 11
783.885357
 21
261.077921
  0
LINE
  8
CSLAYER1
  6
CONTINUOUS
 62
     6
 10
783.885357
 20
261.077921
 11
783.761315
 21
261.230033
  0
LINE
  8
CSLAYER1
  6
CONTINUOUS
 62
     6
 10
783.761315
 20
261.230033
 11
783.592058
 21
261.437634
  0
ARC
  8
CSLAYER1
  6
CONTINUOUS
 62
     6
 10
784.674308
 20
261.007862
 40
1.164461
 50
93.975995
 51
158.341495
  0
ARC
  8
CSLAYER1
  6
CONTINUOUS
 62
     6
 10
785.639962
 20
261.658616
 40
1.164461
 50
93.975995
 51
153.975995
  0
ARC
  8
CSLAYER1
  6
CONTINUOUS
 62
     6
 10
784.512824
 20
263.331178
 40
1.164461
 50
273.975995
 51
333.975995
  0
LINE
  8
CSLAYER1
  6
CONTINUOUS
 62
     6
 10
785.559234
 20
262.820277
 11
785.680415
 21
262.672363
  0
LINE
  8
CSLAYER1
  6
CONTINUOUS
 62
     6
 10
785.680415
 20
262.672363
 11
785.809425
 21
262.514964
  0
ARC
  8
CSLAYER1
  6
CONTINUOUS
 62
     6
 10
782.725088
 20
264.222546
 40
1.200008
 50
269.538514
 51
329.538514
  0
LINE
  8
CSLAYER1
  6
CONTINUOUS
 62
     6
 10
788.518307
 20
257.370307
 11
790.961303
 21
254.975672
  0
LINE
  8
CSLAYER1
  6
CONTINUOUS
 62
     6
 10
791.575652
 20
255.188319
 11
788.829805
 21
257.691157
  0
LINE
  8
CSLAYER1
  6
CONTINUOUS
 62
     6
 10
788.237837
 20
256.847070
 11
790.488768
 21
254.408564
  0
LINE
  8
CSLAYER1
  6
CONTINUOUS
 62
     6
 10
796.915648
 20
257.267603
 11
794.689526
 21
260.243841
  0
LINE
  8
CSLAYER1
  6
CONTINUOUS
 62
     6
 10
795.255359
 20
260.390433
 11
797.600890
 21
257.716547
  0
LINE
  8
CSLAYER1
  6
CONTINUOUS
 62
     6
 10
798.144347
 20
258.236353
 11
795.672577
 21
260.638161
  0
LINE
  8
CSLAYER1
  6
CONTINUOUS
 62
     6
 10
775.356000
 20
274.864832
 11
775.799878
 21
275.564814
  0
LINE
  8
CSLAYER1
  6
CONTINUOUS
 62
     6
 10
775.299878
 20
275.564814
 11
774.856000
 21
274.864832
  0
ARC
  8
CSLAYER1
  6
CONTINUOUS
 62
     6
 10
772.651929
 20
274.964808
 40
0.100000
 50
180.057309
 51
269.999999
  0
LINE
  8
CSLAYER1
  6
CONTINUOUS
 62
     6
 10
772.551953
 20
274.964808
 11
772.551953
 21
275.464808
  0
ARC
  8
CSLAYER1
  6
CONTINUOUS
 62
     6
 10
772.651929
 20
275.464808
 40
0.100000
 50
89.999984
 51
179.999990
  0
LINE
  8
CSLAYER1
  6
CONTINUOUS
 62
     6
 10
762.451917
 20
273.564814
 11
762.451917
 21
277.564814
  0
LINE
  8
CSLAYER1
  6
CONTINUOUS
 62
     6
 10
762.451917
 20
273.564814
 11
749.451917
 21
273.564814
  0
LINE
  8
CSLAYER1
  6
CONTINUOUS
 62
     6
 10
860.458117
 20
346.544814
 11
860.458117
 21
378.544814
  0
LINE
  8
CSLAYER1
  6
CONTINUOUS
 62
     6
 10
860.458117
 20
378.544814
 11
915.458117
 21
378.544814
  0
LINE
  8
CSLAYER1
  6
CONTINUOUS
 62
     6
 10
915.458117
 20
380.044814
 11
915.458117
 21
364.201709
  0
LINE
  8
CSLAYER1
  6
CONTINUOUS
 62
     6
 10
918.458117
 20
368.121713
 11
918.458117
 21
397.804814
  0
ARC
  8
CSLAYER1
  6
CONTINUOUS
 62
     6
 10
923.458117
 20
397.804814
 40
5.000000
 50
106.390000
 51
180.000000
  0
LINE
  8
CSLAYER1
  6
CONTINUOUS
 62
     6
 10
922.058117
 20
402.604814
 11
931.878117
 21
405.504814
  0
ARC
  8
CSLAYER1
  6
CONTINUOUS
 62
     6
 10
930.458117
 20
410.304814
 40
5.000000
 50
286.390000
 51
360.000000
  0
LINE
  8
CSLAYER1
  6
CONTINUOUS
 62
     6
 10
935.458117
 20
383.708597
 11
935.458117
 21
423.824814
  0
ARC
  8
CSLAYER1
  6
CONTINUOUS
 62
     6
 10
938.458117
 20
423.824814
 40
3.000000
 50
91.000000
 51
180.000000
  0
LINE
  8
CSLAYER1
  6
CONTINUOUS
 62
     6
 10
938.418117
 20
426.824814
 11
980.458117
 21
427.544814
  0
LINE
  8
CSLAYER1
  6
CONTINUOUS
 62
     6
 10
980.458117
 20
427.544814
 11
1022.518117
 21
426.824814
  0
ARC
  8
CSLAYER1
  6
CONTINUOUS
 62
     6
 10
1022.458117
 20
423.824814
 40
3.000000
 50
0.000000
 51
89.000000
  0
LINE
  8
CSLAYER1
  6
CONTINUOUS
 62
     6
 10
1025.458117
 20
423.824814
 11
1025.458117
 21
383.708597
  0
LINE
  8
CSLAYER1
  6
CONTINUOUS
 62
     6
 10
1026.420058
 20
371.032308
 11
1019.920058
 21
367.279532
  0
LINE
  8
CSLAYER1
  6
CONTINUOUS
 62
     6
 10
1019.920058
 20
367.279532
 11
1019.920058
 21
359.773978
  0
LINE
  8
CSLAYER1
  6
CONTINUOUS
 62
     6
 10
1019.920058
 20
359.773978
 11
1026.420058
 21
356.021201
  0
LINE
  8
CSLAYER1
  6
CONTINUOUS
 62
     6
 10
1026.420058
 20
356.021201
 11
1032.920058
 21
359.773978
  0
LINE
  8
CSLAYER1
  6
CONTINUOUS
 62
     6
 10
1032.920058
 20
359.773978
 11
1032.920058
 21
367.279532
  0
LINE
  8
CSLAYER1
  6
CONTINUOUS
 62
     6
 10
1032.920058
 20
367.279532
 11
1026.420058
 21
371.032308
  0
CIRCLE
  8
CSLAYER1
  6
CONTINUOUS
 62
     6
 10
1026.420058
 20
363.526755
 40
7.700000
  0
CIRCLE
  8
CSLAYER1
  6
CONTINUOUS
 62
     6
 10
1026.420058
 20
363.526755
 40
6.305000
  0
LINE
  8
CSLAYER1
  6
CONTINUOUS
 62
     6
 10
1042.458117
 20
368.121713
 11
1042.458117
 21
397.804814
  0
ARC
  8
CSLAYER1
  6
CONTINUOUS
 62
     6
 10
1037.458117
 20
397.804814
 40
5.000000
 50
0.000000
 51
73.620000
  0
LINE
  8
CSLAYER1
  6
CONTINUOUS
 62
     6
 10
1038.878117
 20
402.604814
 11
1029.058117
 21
405.504814
  0
ARC
  8
CSLAYER1
  6
CONTINUOUS
 62
     6
 10
1030.458117
 20
410.304814
 40
5.000000
 50
180.000000
 51
253.620000
  0
ARC
  8
CSLAYER1
  6
CONTINUOUS
 62
     6
 10
1024.458117
 20
342.564814
 40
1.000000
 50
-0.000020
 51
89.999961
  0
LINE
  8
CSLAYER1
  6
CONTINUOUS
 62
     6
 10
1025.458117
 20
342.564814
 11
1025.458117
 21
341.564814
  0
ARC
  8
CSLAYER1
  6
CONTINUOUS
 62
     6
 10
1024.473162
 20
341.564814
 40
1.000000
 50
269.999999
 51
359.999980
  0
LINE
  8
CSLAYER1
  6
CONTINUOUS
 62
     6
 10
1024.473162
 20
340.564814
 11
1020.898842
 21
340.377455
  0
ARC
  8
CSLAYER1
  6
CONTINUOUS
 62
     6
 10
1020.987834
 20
338.679711
 40
1.700075
 50
93.000588
 51
267.000310
  0
LINE
  8
CSLAYER1
  6
CONTINUOUS
 62
     6
 10
1020.898868
 20
336.981965
 11
1028.478533
 21
336.584773
  0
ARC
  8
CSLAYER1
  6
CONTINUOUS
 62
     6
 10
1028.458117
 20
335.585017
 40
1.000000
 50
-0.000020
 51
88.830784
  0
LINE
  8
CSLAYER1
  6
CONTINUOUS
 62
     6
 10
1029.458117
 20
335.585017
 11
1029.458117
 21
299.544611
  0
ARC
  8
CSLAYER1
  6
CONTINUOUS
 62
     6
 10
1028.458117
 20
299.544611
 40
1.000000
 50
271.169234
 51
359.999980
  0
LINE
  8
CSLAYER1
  6
CONTINUOUS
 62
     6
 10
1028.478533
 20
298.544855
 11
1020.898868
 21
298.147663
  0
ARC
  8
CSLAYER1
  6
CONTINUOUS
 62
     6
 10
1020.987834
 20
296.449917
 40
1.700075
 50
92.999690
 51
266.999412
  0
LINE
  8
CSLAYER1
  6
CONTINUOUS
 62
     6
 10
1020.898842
 20
294.752173
 11
1024.473162
 21
294.564814
  0
ARC
  8
CSLAYER1
  6
CONTINUOUS
 62
     6
 10
1024.473162
 20
293.564814
 40
1.000000
 50
-0.000020
 51
89.999961
  0
LINE
  8
CSLAYER1
  6
CONTINUOUS
 62
     6
 10
1025.458117
 20
293.564814
 11
1025.458117
 21
292.564814
  0
ARC
  8
CSLAYER1
  6
CONTINUOUS
 62
     6
 10
1024.458117
 20
292.564814
 40
1.000000
 50
269.999999
 51
359.999980
  0
LINE
  8
CSLAYER1
  6
CONTINUOUS
 62
     6
 10
1024.458117
 20
291.564814
 11
1015.610268
 21
291.101136
  0
ARC
  8
CSLAYER1
  6
CONTINUOUS
 62
     6
 10
980.458117
 20
317.564814
 40
45.000000
 50
273.184760
 51
324.085607
  0
LINE
  8
CSLAYER1
  6
CONTINUOUS
 62
     6
 10
982.958135
 20
273.635895
 11
982.958124
 21
264.377881
  0
ARC
  8
CSLAYER1
  6
CONTINUOUS
 62
     6
 10
982.333114
 20
265.460427
 40
1.250017
 50
240.000019
 51
300.000019
  0
ARC
  8
CSLAYER1
  6
CONTINUOUS
 62
     6
 10
981.083097
 20
265.460427
 40
1.250017
 50
240.000019
 51
300.000019
  0
ARC
  8
CSLAYER1
  6
CONTINUOUS
 62
     6
 10
981.083098
 20
263.295334
 40
1.250017
 50
60.000019
 51
120.000019
  0
LINE
  8
CSLAYER1
  6
CONTINUOUS
 62
     6
 10
980.458089
 20
264.377880
 11
980.458117
 21
272.564814
  0
ARC
  8
CSLAYER1
  6
CONTINUOUS
 62
     6
 10
980.458117
 20
317.564814
 40
45.000000
 50
215.914392
 51
266.815239
  0
LINE
  8
CSLAYER1
  6
CONTINUOUS
 62
     6
 10
945.305965
 20
291.101137
 11
936.458117
 21
291.564814
  0
ARC
  8
CSLAYER1
  6
CONTINUOUS
 62
     6
 10
936.458117
 20
292.564814
 40
1.000000
 50
180.000000
 51
269.999981
  0
LINE
  8
CSLAYER1
  6
CONTINUOUS
 62
     6
 10
935.458117
 20
292.564814
 11
935.458117
 21
293.564814
  0
ARC
  8
CSLAYER1
  6
CONTINUOUS
 62
     6
 10
936.443072
 20
293.564814
 40
1.000000
 50
90.000001
 51
179.999982
  0
LINE
  8
CSLAYER1
  6
CONTINUOUS
 62
     6
 10
936.443072
 20
294.564814
 11
940.017392
 21
294.752173
  0
ARC
  8
CSLAYER1
  6
CONTINUOUS
 62
     6
 10
939.928399
 20
296.449917
 40
1.700075
 50
-86.999412
 51
87.000310
  0
LINE
  8
CSLAYER1
  6
CONTINUOUS
 62
     6
 10
940.017365
 20
298.147663
 11
932.437701
 21
298.544855
  0
ARC
  8
CSLAYER1
  6
CONTINUOUS
 62
     6
 10
932.458117
 20
299.544611
 40
1.000000
 50
180.000018
 51
268.830764
  0
LINE
  8
CSLAYER1
  6
CONTINUOUS
 62
     6
 10
931.458117
 20
299.544611
 11
931.458117
 21
335.585017
  0
ARC
  8
CSLAYER1
  6
CONTINUOUS
 62
     6
 10
932.458117
 20
335.585017
 40
1.000000
 50
91.169254
 51
180.000000
  0
LINE
  8
CSLAYER1
  6
CONTINUOUS
 62
     6
 10
932.437701
 20
336.584773
 11
940.017365
 21
336.981965
  0
ARC
  8
CSLAYER1
  6
CONTINUOUS
 62
     6
 10
939.928399
 20
338.679711
 40
1.700075
 50
-87.000310
 51
86.999412
  0
LINE
  8
CSLAYER1
  6
CONTINUOUS
 62
     6
 10
940.017392
 20
340.377455
 11
936.443072
 21
340.564814
  0
ARC
  8
CSLAYER1
  6
CONTINUOUS
 62
     6
 10
936.443072
 20
341.564814
 40
1.000000
 50
180.000018
 51
269.999999
  0
LINE
  8
CSLAYER1
  6
CONTINUOUS
 62
     6
 10
935.458117
 20
341.564814
 11
935.458117
 21
342.564814
  0
ARC
  8
CSLAYER1
  6
CONTINUOUS
 62
     6
 10
936.458117
 20
342.564814
 40
1.000000
 50
90.000019
 51
180.000000
  0
LINE
  8
CSLAYER1
  6
CONTINUOUS
 62
     6
 10
936.458117
 20
343.564814
 11
945.305965
 21
344.028491
  0
ARC
  8
CSLAYER1
  6
CONTINUOUS
 62
     6
 10
980.458117
 20
317.564814
 40
45.000000
 50
35.914393
 51
144.085608
  0
LINE
  8
CSLAYER1
  6
CONTINUOUS
 62
     6
 10
1015.610268
 20
344.028492
 11
1024.458117
 21
343.564814
  0
ARC
  8
CSLAYER1
  6
CONTINUOUS
 62
     6
 10
980.458117
 20
317.564814
 40
45.000000
 50
25.550580
 51
29.475790
  0
LINE
  8
CSLAYER1
  6
CONTINUOUS
 62
     6
 10
1012.458117
 20
336.138990
 11
1012.458117
 21
329.564814
  0
ARC
  8
CSLAYER1
  6
CONTINUOUS
 62
     6
 10
1010.458117
 20
329.564814
 40
2.000000
 50
270.000000
 51
360.000000
  0
LINE
  8
CSLAYER1
  6
CONTINUOUS
 62
     6
 10
1010.458117
 20
327.564814
 11
1004.458117
 21
327.564814
  0
ARC
  8
CSLAYER1
  6
CONTINUOUS
 62
     6
 10
1004.458117
 20
330.564814
 40
3.000000
 50
180.000000
 51
270.000000
  0
LINE
  8
CSLAYER1
  6
CONTINUOUS
 62
     6
 10
1001.458117
 20
330.564814
 11
1001.458117
 21
343.946626
  0
ARC
  8
CSLAYER1
  6
CONTINUOUS
 62
     6
 10
1003.458117
 20
343.946626
 40
2.000000
 50
48.917667
 51
180.000000
  0
ARC
  8
CSLAYER1
  6
CONTINUOUS
 62
     6
 10
980.458117
 20
317.564814
 40
37.000000
 50
30.132722
 51
48.917667
  0
LINE
  8
CSLAYER1
  6
CONTINUOUS
 62
     6
 10
994.458117
 20
337.186231
 11
994.458117
 21
347.564814
  0
ARC
  8
CSLAYER1
  6
CONTINUOUS
 62
     6
 10
992.458117
 20
347.564814
 40
2.000000
 50
0.000000
 51
90.000000
  0
LINE
  8
CSLAYER1
  6
CONTINUOUS
 62
     6
 10
992.458117
 20
349.564814
 11
987.458117
 21
349.564814
  0
ARC
  8
CSLAYER1
  6
CONTINUOUS
 62
     6
 10
987.458117
 20
347.564814
 40
2.000000
 50
90.000000
 51
180.000000
  0
LINE
  8
CSLAYER1
  6
CONTINUOUS
 62
     6
 10
985.458117
 20
347.564814
 11
985.458117
 21
339.473716
  0
ARC
  8
CSLAYER1
  6
CONTINUOUS
 62
     6
 10
987.458117
 20
339.473716
 40
2.000000
 50
180.000000
 51
252.281068
  0
ARC
  8
CSLAYER1
  6
CONTINUOUS
 62
     6
 10
980.458117
 20
317.564814
 40
21.000000
 50
58.551019
 51
72.281068
  0
ARC
  8
CSLAYER1
  6
CONTINUOUS
 62
     6
 10
992.458117
 20
337.186231
 40
2.000000
 50
238.551019
 51
360.000000
  0
LINE
  8
CSLAYER1
  6
CONTINUOUS
 62
     6
 10
975.458117
 20
339.473716
 11
975.458117
 21
347.564814
  0
ARC
  8
CSLAYER1
  6
CONTINUOUS
 62
     6
 10
973.458117
 20
347.564814
 40
2.000000
 50
0.000000
 51
90.000000
  0
LINE
  8
CSLAYER1
  6
CONTINUOUS
 62
     6
 10
973.458117
 20
349.564814
 11
968.458117
 21
349.564814
  0
ARC
  8
CSLAYER1
  6
CONTINUOUS
 62
     6
 10
968.458117
 20
347.564814
 40
2.000000
 50
90.000000
 51
180.000000
  0
LINE
  8
CSLAYER1
  6
CONTINUOUS
 62
     6
 10
966.458117
 20
347.564814
 11
966.458117
 21
337.186231
  0
ARC
  8
CSLAYER1
  6
CONTINUOUS
 62
     6
 10
968.458117
 20
337.186231
 40
2.000000
 50
180.000000
 51
301.448981
  0
ARC
  8
CSLAYER1
  6
CONTINUOUS
 62
     6
 10
980.458117
 20
317.564814
 40
21.000000
 50
107.718932
 51
121.448981
  0
ARC
  8
CSLAYER1
  6
CONTINUOUS
 62
     6
 10
973.458117
 20
339.473716
 40
2.000000
 50
287.718932
 51
360.000000
  0
LINE
  8
CSLAYER1
  6
CONTINUOUS
 62
     6
 10
959.458117
 20
343.946626
 11
959.458117
 21
330.564814
  0
ARC
  8
CSLAYER1
  6
CONTINUOUS
 62
     6
 10
956.458117
 20
330.564814
 40
3.000000
 50
270.000000
 51
360.000000
  0
LINE
  8
CSLAYER1
  6
CONTINUOUS
 62
     6
 10
956.458117
 20
327.564814
 11
950.458117
 21
327.564814
  0
ARC
  8
CSLAYER1
  6
CONTINUOUS
 62
     6
 10
950.458117
 20
329.564814
 40
2.000000
 50
180.000000
 51
270.000000
  0
LINE
  8
CSLAYER1
  6
CONTINUOUS
 62
     6
 10
948.458117
 20
329.564814
 11
948.458117
 21
336.138990
  0
ARC
  8
CSLAYER1
  6
CONTINUOUS
 62
     6
 10
980.458117
 20
317.564814
 40
37.000000
 50
131.082333
 51
149.867278
  0
ARC
  8
CSLAYER1
  6
CONTINUOUS
 62
     6
 10
957.458117
 20
343.946626
 40
2.000000
 50
0.000000
 51
131.082333
  0
ARC
  8
CSLAYER1
  6
CONTINUOUS
 62
     6
 10
980.458117
 20
317.564814
 40
45.000000
 50
150.524210
 51
154.449420
  0
LINE
  8
CSLAYER1
  6
CONTINUOUS
 62
     6
 10
934.496176
 20
356.021201
 11
940.996176
 21
359.773978
  0
LINE
  8
CSLAYER1
  6
CONTINUOUS
 62
     6
 10
940.996176
 20
359.773978
 11
940.996176
 21
367.279532
  0
LINE
  8
CSLAYER1
  6
CONTINUOUS
 62
     6
 10
940.996176
 20
367.279532
 11
934.496176
 21
371.032308
  0
LINE
  8
CSLAYER1
  6
CONTINUOUS
 62
     6
 10
934.496176
 20
371.032308
 11
927.996176
 21
367.279532
  0
LINE
  8
CSLAYER1
  6
CONTINUOUS
 62
     6
 10
927.996176
 20
367.279532
 11
927.996176
 21
359.773978
  0
LINE
  8
CSLAYER1
  6
CONTINUOUS
 62
     6
 10
927.996176
 20
359.773978
 11
934.496176
 21
356.021201
  0
ARC
  8
CSLAYER1
  6
CONTINUOUS
 62
     6
 10
980.458117
 20
317.564814
 40
64.000000
 50
134.680000
 51
135.330000
  0
CIRCLE
  8
CSLAYER1
  6
CONTINUOUS
 62
     6
 10
934.496176
 20
363.526755
 40
7.700000
  0
CIRCLE
  8
CSLAYER1
  6
CONTINUOUS
 62
     6
 10
934.496176
 20
363.526755
 40
6.305000
  0
LINE
  8
CSLAYER1
  6
CONTINUOUS
 62
     6
 10
918.458117
 20
380.044814
 11
915.458117
 21
380.044814
  0
LINE
  8
CSLAYER1
  6
CONTINUOUS
 62
     6
 10
905.891639
 20
346.544814
 11
860.458117
 21
346.544814
  0
ARC
  8
CSLAYER1
  6
CONTINUOUS
 62
     6
 10
980.458117
 20
317.564814
 40
45.000000
 50
205.543092
 51
209.475790
  0
LINE
  8
CSLAYER1
  6
CONTINUOUS
 62
     6
 10
948.458117
 20
298.990638
 11
948.458117
 21
305.564814
  0
ARC
  8
CSLAYER1
  6
CONTINUOUS
 62
     6
 10
950.458117
 20
305.564814
 40
2.000000
 50
90.000000
 51
180.000000
  0
LINE
  8
CSLAYER1
  6
CONTINUOUS
 62
     6
 10
950.458117
 20
307.564814
 11
956.458117
 21
307.564814
  0
ARC
  8
CSLAYER1
  6
CONTINUOUS
 62
     6
 10
956.458117
 20
304.564814
 40
3.000000
 50
0.000000
 51
90.000000
  0
LINE
  8
CSLAYER1
  6
CONTINUOUS
 62
     6
 10
959.458117
 20
304.564814
 11
959.458117
 21
291.183002
  0
ARC
  8
CSLAYER1
  6
CONTINUOUS
 62
     6
 10
957.458117
 20
291.183002
 40
2.000000
 50
228.917667
 51
360.000000
  0
ARC
  8
CSLAYER1
  6
CONTINUOUS
 62
     6
 10
980.458117
 20
317.564814
 40
37.000000
 50
210.132722
 51
228.917667
  0
LINE
  8
CSLAYER1
  6
CONTINUOUS
 62
     6
 10
966.458117
 20
297.943397
 11
966.458117
 21
287.564814
  0
ARC
  8
CSLAYER1
  6
CONTINUOUS
 62
     6
 10
968.458117
 20
287.564814
 40
2.000000
 50
180.000000
 51
270.000000
  0
LINE
  8
CSLAYER1
  6
CONTINUOUS
 62
     6
 10
968.458117
 20
285.564814
 11
973.458117
 21
285.564814
  0
ARC
  8
CSLAYER1
  6
CONTINUOUS
 62
     6
 10
973.458117
 20
287.564814
 40
2.000000
 50
270.000000
 51
360.000000
  0
LINE
  8
CSLAYER1
  6
CONTINUOUS
 62
     6
 10
975.458117
 20
287.564814
 11
975.458117
 21
295.655912
  0
ARC
  8
CSLAYER1
  6
CONTINUOUS
 62
     6
 10
973.458117
 20
295.655912
 40
2.000000
 50
0.000000
 51
72.281068
  0
ARC
  8
CSLAYER1
  6
CONTINUOUS
 62
     6
 10
980.458117
 20
317.564814
 40
21.000000
 50
238.551019
 51
252.281068
  0
ARC
  8
CSLAYER1
  6
CONTINUOUS
 62
     6
 10
968.458117
 20
297.943397
 40
2.000000
 50
58.551019
 51
180.000000
  0
LINE
  8
CSLAYER1
  6
CONTINUOUS
 62
     6
 10
976.064101
 20
303.222849
 11
976.646446
 21
305.123619
  0
ARC
  8
CSLAYER1
  6
CONTINUOUS
 62
     6
 10
973.965997
 20
306.288078
 40
2.922462
 50
-23.481549
 51
129.764149
  0
ARC
  8
CSLAYER1
  6
CONTINUOUS
 62
     6
 10
971.224498
 20
309.582741
 40
1.363635
 50
217.903410
 51
309.763671
  0
ARC
  8
CSLAYER1
  6
CONTINUOUS
 62
     6
 10
980.458117
 20
316.771692
 40
13.065822
 50
-37.903051
 51
217.903067
  0
ARC
  8
CSLAYER1
  6
CONTINUOUS
 62
     6
 10
989.691748
 20
309.582741
 40
1.363635
 50
230.236270
 51
322.096587
  0
ARC
  8
CSLAYER1
  6
CONTINUOUS
 62
     6
 10
986.950246
 20
306.288078
 40
2.922462
 50
50.235849
 51
203.481547
  0
LINE
  8
CSLAYER1
  6
CONTINUOUS
 62
     6
 10
984.269800
 20
305.123619
 11
984.852145
 21
303.222849
  0
CIRCLE
  8
CSLAYER1
  6
CONTINUOUS
 62
     6
 10
986.950246
 20
306.288078
 40
1.363635
  0
ARC
  8
CSLAYER1
  6
CONTINUOUS
 62
     6
 10
980.458117
 20
317.564814
 40
21.000000
 50
287.718932
 51
301.448981
  0
ARC
  8
CSLAYER1
  6
CONTINUOUS
 62
     6
 10
987.458117
 20
295.655912
 40
2.000000
 50
107.718932
 51
180.000000
  0
LINE
  8
CSLAYER1
  6
CONTINUOUS
 62
     6
 10
985.458117
 20
295.655912
 11
985.458117
 21
287.564814
  0
ARC
  8
CSLAYER1
  6
CONTINUOUS
 62
     6
 10
987.458117
 20
287.564814
 40
2.000000
 50
180.000000
 51
270.000000
  0
LINE
  8
CSLAYER1
  6
CONTINUOUS
 62
     6
 10
987.458117
 20
285.564814
 11
992.458117
 21
285.564814
  0
ARC
  8
CSLAYER1
  6
CONTINUOUS
 62
     6
 10
992.458117
 20
287.564814
 40
2.000000
 50
270.000000
 51
360.000000
  0
LINE
  8
CSLAYER1
  6
CONTINUOUS
 62
     6
 10
994.458117
 20
287.564814
 11
994.458117
 21
297.943397
  0
ARC
  8
CSLAYER1
  6
CONTINUOUS
 62
     6
 10
992.458117
 20
297.943397
 40
2.000000
 50
0.000000
 51
121.448981
  0
LINE
  8
CSLAYER1
  6
CONTINUOUS
 62
     6
 10
1001.458117
 20
304.564814
 11
1001.458117
 21
291.183002
  0
ARC
  8
CSLAYER1
  6
CONTINUOUS
 62
     6
 10
1003.458117
 20
291.183002
 40
2.000000
 50
180.000000
 51
311.082333
  0
ARC
  8
CSLAYER1
  6
CONTINUOUS
 62
     6
 10
980.458117
 20
317.564814
 40
37.000000
 50
311.082333
 51
329.867278
  0
LINE
  8
CSLAYER1
  6
CONTINUOUS
 62
     6
 10
1012.458117
 20
298.990638
 11
1012.458117
 21
305.564814
  0
ARC
  8
CSLAYER1
  6
CONTINUOUS
 62
     6
 10
1010.458117
 20
305.564814
 40
2.000000
 50
0.000000
 51
90.000000
  0
LINE
  8
CSLAYER1
  6
CONTINUOUS
 62
     6
 10
1010.458117
 20
307.564814
 11
1004.458117
 21
307.564814
  0
ARC
  8
CSLAYER1
  6
CONTINUOUS
 62
     6
 10
1004.458117
 20
304.564814
 40
3.000000
 50
90.000000
 51
180.000000
  0
ARC
  8
CSLAYER1
  6
CONTINUOUS
 62
     6
 10
980.458117
 20
317.564814
 40
45.000000
 50
330.524210
 51
334.456908
  0
LINE
  8
CSLAYER1
  6
CONTINUOUS
 62
     6
 10
1026.420058
 20
279.108427
 11
1019.920058
 21
275.355650
  0
LINE
  8
CSLAYER1
  6
CONTINUOUS
 62
     6
 10
1019.920058
 20
275.355650
 11
1019.920058
 21
267.850096
  0
LINE
  8
CSLAYER1
  6
CONTINUOUS
 62
     6
 10
1019.920058
 20
267.850096
 11
1026.420058
 21
264.097320
  0
LINE
  8
CSLAYER1
  6
CONTINUOUS
 62
     6
 10
1026.420058
 20
264.097320
 11
1032.920058
 21
267.850096
  0
LINE
  8
CSLAYER1
  6
CONTINUOUS
 62
     6
 10
1032.920058
 20
267.850096
 11
1032.920058
 21
275.355650
  0
LINE
  8
CSLAYER1
  6
CONTINUOUS
 62
     6
 10
1032.920058
 20
275.355650
 11
1026.420058
 21
279.108427
  0
CIRCLE
  8
CSLAYER1
  6
CONTINUOUS
 62
     6
 10
1026.420058
 20
271.602873
 40
7.700000
  0
CIRCLE
  8
CSLAYER1
  6
CONTINUOUS
 62
     6
 10
1026.420058
 20
271.602873
 40
6.305000
  0
LINE
  8
CSLAYER1
  6
CONTINUOUS
 62
     6
 10
1025.458117
 20
251.421031
 11
1025.458117
 21
222.564814
  0
LINE
  8
CSLAYER1
  6
DOT
 62
     6
 10
1033.958117
 20
222.564814
 11
1033.958117
 21
240.564814
  0
LINE
  8
CSLAYER1
  6
CONTINUOUS
 62
     6
 10
1029.458117
 20
240.564814
 11
1052.958117
 21
240.564814
  0
ARC
  8
CSLAYER1
  6
CONTINUOUS
 62
     6
 10
1052.958117
 20
238.064814
 40
2.500000
 50
0.000000
 51
90.000000
  0
LINE
  8
CSLAYER1
  6
CONTINUOUS
 62
     6
 10
1055.458117
 20
238.444814
 11
1055.458117
 21
222.564814
  0
LINE
  8
CSLAYER1
  6
CONTINUOUS
 62
     6
 10
1055.458117
 20
222.564814
 11
1010.458117
 21
222.564814
  0
LINE
  8
CSLAYER1
  6
CONTINUOUS
 62
     6
 10
1010.458117
 20
222.564814
 11
1008.958117
 21
224.064814
  0
LINE
  8
CSLAYER1
  6
CONTINUOUS
 62
     6
 10
1008.958117
 20
224.064814
 11
951.958117
 21
224.064814
  0
LINE
  8
CSLAYER1
  6
CONTINUOUS
 62
     6
 10
951.958117
 20
224.064814
 11
950.458117
 21
222.564814
  0
LINE
  8
CSLAYER1
  6
CONTINUOUS
 62
     6
 10
950.458117
 20
222.564814
 11
905.458117
 21
222.564814
  0
LINE
  8
CSLAYER1
  6
CONTINUOUS
 62
     6
 10
905.458117
 20
222.564814
 11
905.458117
 21
238.444814
  0
ARC
  8
CSLAYER1
  6
CONTINUOUS
 62
     6
 10
907.958117
 20
238.444814
 40
2.500000
 50
99.470000
 51
180.000000
  0
LINE
  8
CSLAYER1
  6
CONTINUOUS
 62
     6
 10
907.558117
 20
240.904814
 11
932.958117
 21
245.144814
  0
ARC
  8
CSLAYER1
  6
CONTINUOUS
 62
     6
 10
932.458117
 20
248.104814
 40
3.000000
 50
279.470000
 51
360.000000
  0
LINE
  8
CSLAYER1
  6
CONTINUOUS
 62
     6
 10
935.458117
 20
251.421031
 11
935.458117
 21
222.564814
  0
LINE
  8
CSLAYER1
  6
DOT
 62
     6
 10
926.958117
 20
222.564814
 11
926.958117
 21
240.564814
  0
LINE
  8
CSLAYER1
  6
CONTINUOUS
 62
     6
 10
931.458117
 20
240.564814
 11
907.958117
 21
240.564814
  0
ARC
  8
CSLAYER1
  6
CONTINUOUS
 62
     6
 10
907.958117
 20
238.064814
 40
2.500000
 50
90.000000
 51
180.000000
  0
LINE
  8
CSLAYER1
  6
DOT
 62
     6
 10
913.958117
 20
240.564814
 11
913.958117
 21
222.564814
  0
ARC
  8
CSLAYER1
  6
CONTINUOUS
 62
     6
 10
931.458117
 20
244.564814
 40
4.000000
 50
270.000000
 51
360.000000
  0
LINE
  8
CSLAYER1
  6
CONTINUOUS
 62
     6
 10
934.496176
 20
264.097320
 11
940.996176
 21
267.850096
  0
LINE
  8
CSLAYER1
  6
CONTINUOUS
 62
     6
 10
940.996176
 20
267.850096
 11
940.996176
 21
275.355650
  0
LINE
  8
CSLAYER1
  6
CONTINUOUS
 62
     6
 10
940.996176
 20
275.355650
 11
934.496176
 21
279.108427
  0
LINE
  8
CSLAYER1
  6
CONTINUOUS
 62
     6
 10
934.496176
 20
279.108427
 11
927.996176
 21
275.355650
  0
LINE
  8
CSLAYER1
  6
CONTINUOUS
 62
     6
 10
927.996176
 20
275.355650
 11
927.996176
 21
267.850096
  0
LINE
  8
CSLAYER1
  6
CONTINUOUS
 62
     6
 10
927.996176
 20
267.850096
 11
934.496176
 21
264.097320
  0
CIRCLE
  8
CSLAYER1
  6
CONTINUOUS
 62
     6
 10
934.496176
 20
271.602873
 40
7.700000
  0
CIRCLE
  8
CSLAYER1
  6
CONTINUOUS
 62
     6
 10
934.496176
 20
271.602873
 40
6.305000
  0
LINE
  8
CSLAYER1
  6
CONTINUOUS
 62
     6
 10
977.958100
 20
273.635895
 11
977.958089
 21
264.377881
  0
ARC
  8
CSLAYER1
  6
CONTINUOUS
 62
     6
 10
978.583062
 20
263.295334
 40
1.250017
 50
60.000019
 51
120.000019
  0
ARC
  8
CSLAYER1
  6
CONTINUOUS
 62
     6
 10
978.583061
 20
265.460427
 40
1.250017
 50
240.000019
 51
300.000019
  0
ARC
  8
CSLAYER1
  6
CONTINUOUS
 62
     6
 10
979.833078
 20
265.460427
 40
1.250017
 50
240.000019
 51
300.000019
  0
ARC
  8
CSLAYER1
  6
CONTINUOUS
 62
     6
 10
981.083133
 20
261.432857
 40
1.250008
 50
59.999655
 51
119.999655
  0
ARC
  8
CSLAYER1
  6
CONTINUOUS
 62
     6
 10
982.333154
 20
263.597927
 40
1.250008
 50
239.999655
 51
299.999655
  0
ARC
  8
CSLAYER1
  6
CONTINUOUS
 62
     6
 10
982.333141
 20
261.432849
 40
1.250008
 50
59.999655
 51
119.999655
  0
LINE
  8
CSLAYER1
  6
CONTINUOUS
 62
     6
 10
982.958143
 20
262.515392
 11
982.958143
 21
261.068578
  0
ARC
  8
CSLAYER1
  6
CONTINUOUS
 62
     6
 10
998.366016
 20
261.068520
 40
15.407880
 50
180.057313
 51
207.463775
  0
LINE
  8
CSLAYER1
  6
CONTINUOUS
 62
     6
 10
984.694587
 20
253.962632
 11
982.476310
 21
252.809638
  0
ARC
  8
CSLAYER1
  6
CONTINUOUS
 62
     6
 10
998.366016
 20
261.068520
 40
17.907879
 50
180.057313
 51
207.463775
  0
LINE
  8
CSLAYER1
  6
CONTINUOUS
 62
     6
 10
980.458146
 20
261.050607
 11
980.458116
 21
262.515384
  0
ARC
  8
CSLAYER1
  6
CONTINUOUS
 62
     6
 10
979.833105
 20
261.432849
 40
1.250008
 50
59.999655
 51
119.999655
  0
ARC
  8
CSLAYER1
  6
CONTINUOUS
 62
     6
 10
978.583097
 20
261.432857
 40
1.250008
 50
59.999655
 51
119.999655
  0
LINE
  8
CSLAYER1
  6
CONTINUOUS
 62
     6
 10
977.958089
 20
262.515392
 11
977.958089
 21
261.068578
  0
ARC
  8
CSLAYER1
  6
CONTINUOUS
 62
     6
 10
962.550218
 20
261.068520
 40
15.407880
 50
-27.463892
 51
0.000037
  0
LINE
  8
CSLAYER1
  6
CONTINUOUS
 62
     6
 10
976.221627
 20
253.962593
 11
978.439904
 21
252.809638
  0
ARC
  8
CSLAYER1
  6
CONTINUOUS
 62
     6
 10
962.550218
 20
261.068578
 40
17.907879
 50
332.536108
 51
359.999980
  0
ARC
  8
CSLAYER1
  6
CONTINUOUS
 62
     6
 10
979.833118
 20
263.597927
 40
1.250008
 50
239.999655
 51
299.999655
  0
LINE
  8
CSLAYER1
  6
CONTINUOUS
 62
     6
 10
976.758390
 20
253.683609
 11
974.944194
 21
250.691401
  0
LINE
  8
CSLAYER1
  6
CONTINUOUS
 62
     6
 10
975.680963
 20
250.179409
 11
977.330765
 21
253.386116
  0
LINE
  8
CSLAYER1
  6
CONTINUOUS
 62
     6
 10
977.905593
 20
253.093390
 11
976.525890
 21
249.877642
  0
LINE
  8
CSLAYER1
  6
CONTINUOUS
 62
     6
 10
982.992863
 20
253.078127
 11
984.559651
 21
249.667417
  0
LINE
  8
CSLAYER1
  6
CONTINUOUS
 62
     6
 10
985.346370
 20
249.954632
 11
983.585449
 21
253.386135
  0
LINE
  8
CSLAYER1
  6
CONTINUOUS
 62
     6
 10
984.181215
 20
253.687946
 11
986.038445
 21
250.426280
  0
ARC
  8
CSLAYER1
  6
CONTINUOUS
 62
     6
 10
1028.458117
 20
248.104814
 40
3.000000
 50
180.000000
 51
260.540000
  0
LINE
  8
CSLAYER1
  6
CONTINUOUS
 62
     6
 10
1027.958117
 20
245.144814
 11
1053.378117
 21
240.904814
  0
ARC
  8
CSLAYER1
  6
CONTINUOUS
 62
     6
 10
1052.958117
 20
238.444814
 40
2.500000
 50
0.000000
 51
80.540000
  0
LINE
  8
CSLAYER1
  6
DOT
 62
     6
 10
1046.958117
 20
240.564814
 11
1046.958117
 21
222.564814
  0
ARC
  8
CSLAYER1
  6
CONTINUOUS
 62
     6
 10
1029.458117
 20
244.544814
 40
4.000000
 50
180.000000
 51
270.000000
  0
CIRCLE
  8
CSLAYER1
  6
CONTINUOUS
 62
     6
 10
973.965997
 20
306.288078
 40
1.363635
  0
CIRCLE
  8
CSLAYER1
  6
CONTINUOUS
 62
     6
 10
980.458117
 20
317.564814
 40
80.000000
  0
CIRCLE
  8
CSLAYER1
  6
CONTINUOUS
 62
     6
 10
980.458117
 20
317.564814
 40
44.000000
  0
CIRCLE
  8
CSLAYER1
  6
CONTINUOUS
 62
     6
 10
980.458117
 20
317.564814
 40
15.000000
  0
LINE
  8
CSLAYER1
  6
CONTINUOUS
 62
     6
 10
1754.548083
 20
397.564814
 11
1767.548083
 21
397.564814
  0
LINE
  8
CSLAYER1
  6
CONTINUOUS
 62
     6
 10
1754.548083
 20
237.564814
 11
1767.548083
 21
237.564814
  0
LINE
  8
CSLAYER1
  6
CONTINUOUS
 62
     6
 10
1823.548083
 20
253.564814
 11
1823.548083
 21
381.544814
  0
LINE
  8
CSLAYER1
  6
CONTINUOUS
 62
     6
 10
1835.548083
 20
222.564814
 11
1987.548083
 21
222.564814
  0
LINE
  8
CSLAYER1
  6
CONTINUOUS
 62
     6
 10
1835.548083
 20
240.564814
 11
1987.548083
 21
240.564814
  0
LINE
  8
CSLAYER1
  6
CONTINUOUS
 62
     6
 10
1987.548083
 20
390.884814
 11
1987.548083
 21
222.564814
  0
LINE
  8
CSLAYER1
  6
CONTINUOUS
 62
     6
 10
1885.048083
 20
427.564814
 11
1938.048083
 21
427.564814
  0
LINE
  8
CSLAYER1
  6
CONTINUOUS
 62
     6
 10
1830.548083
 20
381.044814
 11
1823.548083
 21
381.044814
  0
LINE
  8
CSLAYER1
  6
CONTINUOUS
 62
     6
 10
1830.548083
 20
254.064814
 11
1823.548083
 21
254.064814
  0
LINE
  8
CSLAYER1
  6
CONTINUOUS
 62
     6
 10
1984.088083
 20
397.464814
 11
1942.608083
 21
426.164814
  0
LINE
  8
CSLAYER1
  6
CONTINUOUS
 62
     6
 10
1838.988083
 20
397.464814
 11
1880.488083
 21
426.164814
  0
ARC
  8
CSLAYER1
  6
CONTINUOUS
 62
     6
 10
1938.048083
 20
419.564814
 40
8.000000
 50
55.330000
 51
90.000000
  0
ARC
  8
CSLAYER1
  6
CONTINUOUS
 62
     6
 10
1979.548083
 20
390.884814
 40
8.000000
 50
0.000000
 51
55.330000
  0
ARC
  8
CSLAYER1
  6
CONTINUOUS
 62
     6
 10
1885.048083
 20
419.564814
 40
8.000000
 50
90.000000
 51
124.660000
  0
ARC
  8
CSLAYER1
  6
CONTINUOUS
 62
     6
 10
1843.548083
 20
390.884814
 40
8.000000
 50
124.660000
 51
180.000000
  0
LINE
  8
CSLAYER1
  6
CONTINUOUS
 62
     6
 10
1835.548083
 20
222.564814
 11
1835.548083
 21
390.884814
  0
ARC
  8
CSLAYER1
  6
CONTINUOUS
 62
     6
 10
1830.548083
 20
386.044814
 40
5.000000
 50
270.000000
 51
360.000000
  0
ARC
  8
CSLAYER1
  6
CONTINUOUS
 62
     6
 10
1830.548083
 20
249.044814
 40
5.000000
 50
0.000000
 51
90.000000
  0
CIRCLE
  8
CSLAYER1
  6
CONTINUOUS
 62
     6
 10
1911.548083
 20
362.564814
 40
39.000000
  0
ARC
  8
CSLAYER1
  6
CONTINUOUS
 62
     6
 10
1911.548083
 20
362.564814
 40
44.000000
 50
12.520000
 51
167.470000
  0
ARC
  8
CSLAYER1
  6
CONTINUOUS
 62
     6
 10
1886.048083
 20
303.584814
 40
29.000000
 50
167.470000
 51
270.000000
  0
ARC
  8
CSLAYER1
  6
CONTINUOUS
 62
     6
 10
1937.048083
 20
303.584814
 40
29.000000
 50
-90.000000
 51
12.520000
  0
ARC
  8
CSLAYER1
  6
CONTINUOUS
 62
     6
 10
1886.048083
 20
303.584814
 40
31.880000
 50
167.470000
 51
270.000000
  0
ARC
  8
CSLAYER1
  6
CONTINUOUS
 62
     6
 10
1937.048083
 20
303.584814
 40
31.880000
 50
-90.000000
 51
12.520000
  0
ARC
  8
CSLAYER1
  6
CONTINUOUS
 62
     6
 10
1911.548083
 20
362.564814
 40
41.080000
 50
-192.530000
 51
12.520000
  0
LINE
  8
CSLAYER1
  6
CONTINUOUS
 62
     6
 10
1854.908083
 20
310.484814
 11
1868.588083
 21
372.124814
  0
LINE
  8
CSLAYER1
  6
CONTINUOUS
 62
     6
 10
1857.728083
 20
309.864814
 11
1871.428083
 21
371.484814
  0
LINE
  8
CSLAYER1
  6
CONTINUOUS
 62
     6
 10
1886.048083
 20
271.684814
 11
1937.048083
 21
271.684814
  0
LINE
  8
CSLAYER1
  6
CONTINUOUS
 62
     6
 10
1937.048083
 20
274.584814
 11
1886.048083
 21
274.584814
  0
LINE
  8
CSLAYER1
  6
CONTINUOUS
 62
     6
 10
1954.508083
 20
372.124814
 11
1968.188083
 21
310.484814
  0
LINE
  8
CSLAYER1
  6
CONTINUOUS
 62
     6
 10
1951.668083
 20
371.484814
 11
1965.348083
 21
309.864814
  0
ARC
  8
CSLAYER1
  6
CONTINUOUS
 62
     6
 10
2015.248083
 20
317.564814
 40
185.200000
 50
166.000000
 51
193.990000
  0
LINE
  8
CSLAYER1
  6
CONTINUOUS
 62
     6
 10
1849.548083
 20
238.484814
 11
1849.548083
 21
222.564814
  0
LINE
  8
CSLAYER1
  6
CONTINUOUS
 62
     6
 10
1973.548083
 20
238.484814
 11
1973.548083
 21
222.564814
  0
LINE
  8
CSLAYER1
  6
CONTINUOUS
 62
     6
 10
1935.308083
 20
245.564814
 11
1887.788083
 21
245.564814
  0
LINE
  8
CSLAYER1
  6
CONTINUOUS
 62
     6
 10
1886.548083
 20
244.624814
 11
1886.548083
 21
241.564814
  0
LINE
  8
CSLAYER1
  6
CONTINUOUS
 62
     6
 10
1937.428083
 20
244.684814
 11
1940.088083
 21
242.024814
  0
LINE
  8
CSLAYER1
  6
CONTINUOUS
 62
     6
 10
1885.668083
 20
244.684814
 11
1883.008083
 21
242.024814
  0
LINE
  8
CSLAYER1
  6
CONTINUOUS
 62
     6
 10
1936.548083
 20
244.624814
 11
1936.548083
 21
241.564814
  0
ARC
  8
CSLAYER1
  6
CONTINUOUS
 62
     6
 10
1879.468083
 20
245.564814
 40
5.000000
 50
270.000000
 51
315.000000
  0
ARC
  8
CSLAYER1
  6
CONTINUOUS
 62
     6
 10
1887.788083
 20
242.564814
 40
3.000000
 50
90.000000
 51
135.000000
  0
ARC
  8
CSLAYER1
  6
CONTINUOUS
 62
     6
 10
1885.548083
 20
241.564814
 40
1.000000
 50
270.000000
 51
360.000000
  0
ARC
  8
CSLAYER1
  6
CONTINUOUS
 62
     6
 10
1943.608083
 20
245.564814
 40
5.000000
 50
225.000000
 51
270.000000
  0
ARC
  8
CSLAYER1
  6
CONTINUOUS
 62
     6
 10
1935.308083
 20
242.564814
 40
3.000000
 50
45.000000
 51
90.000000
  0
ARC
  8
CSLAYER1
  6
CONTINUOUS
 62
     6
 10
1937.548083
 20
241.564814
 40
1.000000
 50
180.000000
 51
270.000000
  0
LINE
  8
CSLAYER1
  6
CONTINUOUS
 62
     6
 10
1922.548083
 20
357.584814
 11
1922.548083
 21
367.584814
  0
LINE
  8
CSLAYER1
  6
CONTINUOUS
 62
     6
 10
1930.548083
 20
357.584814
 11
1930.548083
 21
367.584814
  0
LINE
  8
CSLAYER1
  6
CONTINUOUS
 62
     6
 10
1930.548083
 20
357.584814
 11
1922.548083
 21
357.584814
  0
LINE
  8
CSLAYER1
  6
CONTINUOUS
 62
     6
 10
1930.548083
 20
367.584814
 11
1922.548083
 21
367.584814
  0
ARC
  8
CSLAYER1
  6
CONTINUOUS
 62
     6
 10
1911.548083
 20
362.564814
 40
16.000000
 50
18.200000
 51
341.790000
  0
LINE
  8
CSLAYER1
  6
CONTINUOUS
 62
     6
 10
2101.548083
 20
222.564814
 11
2146.548083
 21
222.564814
  0
LINE
  8
CSLAYER1
  6
CONTINUOUS
 62
     6
 10
2206.548083
 20
222.564814
 11
2251.548083
 21
222.564814
  0
LINE
  8
CSLAYER1
  6
CONTINUOUS
 62
     6
 10
2249.048083
 20
240.564814
 11
2225.548083
 21
240.564814
  0
LINE
  8
CSLAYER1
  6
CONTINUOUS
 62
     6
 10
2104.048083
 20
240.564814
 11
2127.548083
 21
240.564814
  0
LINE
  8
CSLAYER1
  6
CONTINUOUS
 62
     6
 10
2221.548083
 20
423.824814
 11
2221.548083
 21
222.564814
  0
LINE
  8
CSLAYER1
  6
CONTINUOUS
 62
     6
 10
2131.548083
 20
423.824814
 11
2131.548083
 21
222.564814
  0
LINE
  8
CSLAYER1
  6
CONTINUOUS
 62
     6
 10
2251.548083
 20
238.444814
 11
2251.548083
 21
222.564814
  0
LINE
  8
CSLAYER1
  6
CONTINUOUS
 62
     6
 10
2101.548083
 20
238.444814
 11
2101.548083
 21
222.564814
  0
LINE
  8
CSLAYER1
  6
CONTINUOUS
 62
     6
 10
2148.048083
 20
224.064814
 11
2205.048083
 21
224.064814
  0
LINE
  8
CSLAYER1
  6
CONTINUOUS
 62
     6
 10
2218.588083
 20
426.824814
 11
2176.548083
 21
427.544814
  0
LINE
  8
CSLAYER1
  6
CONTINUOUS
 62
     6
 10
2134.488083
 20
426.824814
 11
2176.548083
 21
427.544814
  0
LINE
  8
CSLAYER1
  6
CONTINUOUS
 62
     6
 10
2114.548083
 20
327.304814
 11
2114.548083
 21
397.804814
  0
LINE
  8
CSLAYER1
  6
CONTINUOUS
 62
     6
 10
2238.548083
 20
327.304814
 11
2238.548083
 21
397.804814
  0
LINE
  8
CSLAYER1
  6
CONTINUOUS
 62
     6
 10
2121.548083
 20
278.304814
 11
2121.548083
 21
366.464814
  0
LINE
  8
CSLAYER1
  6
CONTINUOUS
 62
     6
 10
2231.548083
 20
278.304814
 11
2231.548083
 21
366.464814
  0
ARC
  8
CSLAYER1
  6
CONTINUOUS
 62
     6
 10
2134.548083
 20
423.824814
 40
3.000000
 50
91.000000
 51
180.000000
  0
ARC
  8
CSLAYER1
  6
CONTINUOUS
 62
     6
 10
2218.548083
 20
423.824814
 40
3.000000
 50
0.000000
 51
89.000000
  0
LINE
  8
CSLAYER1
  6
CONTINUOUS
 62
     6
 10
2127.948083
 20
405.504814
 11
2118.128083
 21
402.604814
  0
LINE
  8
CSLAYER1
  6
CONTINUOUS
 62
     6
 10
2118.128083
 20
322.504814
 11
2118.668083
 21
322.344814
  0
LINE
  8
CSLAYER1
  6
CONTINUOUS
 62
     6
 10
2125.148083
 20
273.504814
 11
2127.948083
 21
272.704814
  0
LINE
  8
CSLAYER1
  6
CONTINUOUS
 62
     6
 10
2103.628083
 20
240.904814
 11
2129.048083
 21
245.144814
  0
LINE
  8
CSLAYER1
  6
CONTINUOUS
 62
     6
 10
2249.448083
 20
240.904814
 11
2224.048083
 21
245.144814
  0
LINE
  8
CSLAYER1
  6
CONTINUOUS
 62
     6
 10
2227.948083
 20
273.504814
 11
2225.148083
 21
272.704814
  0
LINE
  8
CSLAYER1
  6
CONTINUOUS
 62
     6
 10
2234.948083
 20
322.504814
 11
2234.408083
 21
322.344814
  0
LINE
  8
CSLAYER1
  6
CONTINUOUS
 62
     6
 10
2234.948083
 20
402.604814
 11
2225.128083
 21
405.504814
  0
LINE
  8
CSLAYER1
  6
CONTINUOUS
 62
     6
 10
2134.128083
 20
395.044814
 11
2218.808083
 21
395.044814
  0
ARC
  8
CSLAYER1
  6
CONTINUOUS
 62
     6
 10
2119.548083
 20
397.804814
 40
5.000000
 50
106.380000
 51
180.000000
  0
ARC
  8
CSLAYER1
  6
CONTINUOUS
 62
     6
 10
2233.548083
 20
397.804814
 40
5.000000
 50
0.000000
 51
73.610000
  0
ARC
  8
CSLAYER1
  6
CONTINUOUS
 62
     6
 10
2119.548083
 20
327.304814
 40
5.000000
 50
180.000000
 51
253.610000
  0
ARC
  8
CSLAYER1
  6
CONTINUOUS
 62
     6
 10
2233.548083
 20
327.304814
 40
5.000000
 50
286.380000
 51
360.000000
  0
ARC
  8
CSLAYER1
  6
CONTINUOUS
 62
     6
 10
2226.548083
 20
278.304814
 40
5.000000
 50
286.170000
 51
360.000000
  0
ARC
  8
CSLAYER1
  6
CONTINUOUS
 62
     6
 10
2126.548083
 20
278.304814
 40
5.000000
 50
180.000000
 51
253.820000
  0
ARC
  8
CSLAYER1
  6
CONTINUOUS
 62
     6
 10
2126.548083
 20
410.304814
 40
5.000000
 50
286.380000
 51
360.000000
  0
ARC
  8
CSLAYER1
  6
CONTINUOUS
 62
     6
 10
2117.548083
 20
318.504814
 40
4.000000
 50
0.000000
 51
73.610000
  0
ARC
  8
CSLAYER1
  6
CONTINUOUS
 62
     6
 10
2126.548083
 20
267.904814
 40
5.000000
 50
0.000000
 51
73.820000
  0
ARC
  8
CSLAYER1
  6
CONTINUOUS
 62
     6
 10
2226.548083
 20
267.904814
 40
5.000000
 50
106.170000
 51
180.000000
  0
ARC
  8
CSLAYER1
  6
CONTINUOUS
 62
     6
 10
2235.548083
 20
318.504814
 40
4.000000
 50
106.380000
 51
180.000000
  0
ARC
  8
CSLAYER1
  6
CONTINUOUS
 62
     6
 10
2226.548083
 20
410.304814
 40
5.000000
 50
180.000000
 51
253.610000
  0
ARC
  8
CSLAYER1
  6
CONTINUOUS
 62
     6
 10
2128.548083
 20
248.104814
 40
3.000000
 50
279.460000
 51
360.000000
  0
ARC
  8
CSLAYER1
  6
CONTINUOUS
 62
     6
 10
2127.548083
 20
244.544814
 40
4.000000
 50
270.000000
 51
360.000000
  0
ARC
  8
CSLAYER1
  6
CONTINUOUS
 62
     6
 10
2104.048083
 20
238.064814
 40
2.500000
 50
90.000000
 51
180.000000
  0
LINE
  8
CSLAYER1
  6
CONTINUOUS
 62
     6
 10
2146.548083
 20
222.564814
 11
2148.048083
 21
224.064814
  0
LINE
  8
CSLAYER1
  6
CONTINUOUS
 62
     6
 10
2206.548083
 20
222.564814
 11
2205.048083
 21
224.064814
  0
ARC
  8
CSLAYER1
  6
CONTINUOUS
 62
     6
 10
2224.548083
 20
248.104814
 40
3.000000
 50
180.000000
 51
260.530000
  0
ARC
  8
CSLAYER1
  6
CONTINUOUS
 62
     6
 10
2225.548083
 20
244.564814
 40
4.000000
 50
180.000000
 51
270.000000
  0
ARC
  8
CSLAYER1
  6
CONTINUOUS
 62
     6
 10
2249.048083
 20
238.064814
 40
2.500000
 50
0.000000
 51
90.000000
  0
ARC
  8
CSLAYER1
  6
CONTINUOUS
 62
     6
 10
2176.548083
 20
317.564814
 40
63.500000
 50
-29.990000
 51
12.470000
  0
ARC
  8
CSLAYER1
  6
CONTINUOUS
 62
     6
 10
2176.548083
 20
317.564814
 40
63.500000
 50
167.520000
 51
209.980000
  0
LINE
  8
CSLAYER1
  6
CONTINUOUS
 62
     6
 10
2056.548083
 20
346.544814
 11
2056.548083
 21
378.544814
  0
LINE
  8
CSLAYER1
  6
CONTINUOUS
 62
     6
 10
2111.548083
 20
378.544814
 11
2056.548083
 21
378.544814
  0
LINE
  8
CSLAYER1
  6
CONTINUOUS
 62
     6
 10
2111.548083
 20
346.544814
 11
2056.548083
 21
346.544814
  0
LINE
  8
CSLAYER1
  6
CONTINUOUS
 62
     6
 10
2111.548083
 20
380.044814
 11
2111.548083
 21
345.044814
  0
LINE
  8
CSLAYER1
  6
CONTINUOUS
 62
     6
 10
2114.548083
 20
380.044814
 11
2111.548083
 21
380.044814
  0
LINE
  8
CSLAYER1
  6
CONTINUOUS
 62
     6
 10
2114.548083
 20
345.044814
 11
2111.548083
 21
345.044814
  0
ARC
  8
CSLAYER1
  6
CONTINUOUS
 62
     6
 10
2101.548083
 20
362.544814
 40
5.000000
 50
-90.000000
 51
90.000000
  0
LINE
  8
CSLAYER1
  6
CONTINUOUS
 62
     6
 10
2101.548083
 20
367.544814
 11
2056.548083
 21
367.544814
  0
LINE
  8
CSLAYER1
  6
CONTINUOUS
 62
     6
 10
2101.548083
 20
357.544814
 11
2056.548083
 21
357.544814
  0
ARC
  8
CSLAYER1
  6
CONTINUOUS
 62
     6
 10
2104.048083
 20
238.444814
 40
2.500000
 50
99.460000
 51
180.000000
  0
ARC
  8
CSLAYER1
  6
CONTINUOUS
 62
     6
 10
2249.048083
 20
238.444814
 40
2.500000
 50
0.000000
 51
80.530000
  0
ARC
  8
CSLAYER1
  6
CONTINUOUS
 62
     6
 10
2222.508083
 20
271.584814
 40
10.000000
 50
-95.530000
 51
25.890000
  0
ARC
  8
CSLAYER1
  6
CONTINUOUS
 62
     6
 10
2240.508083
 20
280.324814
 40
10.000000
 50
149.790000
 51
153.560000
  0
ARC
  8
CSLAYER1
  6
CONTINUOUS
 62
     6
 10
2229.048083
 20
317.564814
 40
14.500000
 50
-39.080000
 51
39.070000
  0
ARC
  8
CSLAYER1
  6
CONTINUOUS
 62
     6
 10
2242.628083
 20
328.584814
 40
3.000000
 50
189.470000
 51
219.070000
  0
ARC
  8
CSLAYER1
  6
CONTINUOUS
 62
     6
 10
2242.628083
 20
306.524814
 40
3.000000
 50
140.920000
 51
170.520000
  0
ARC
  8
CSLAYER1
  6
CONTINUOUS
 62
     6
 10
2130.588083
 20
271.584814
 40
10.000000
 50
154.100000
 51
275.520000
  0
ARC
  8
CSLAYER1
  6
CONTINUOUS
 62
     6
 10
2112.588083
 20
280.324814
 40
10.000000
 50
334.100000
 51
337.930000
  0
ARC
  8
CSLAYER1
  6
CONTINUOUS
 62
     6
 10
2124.048083
 20
317.564814
 40
14.500000
 50
140.920000
 51
219.070000
  0
ARC
  8
CSLAYER1
  6
CONTINUOUS
 62
     6
 10
2110.468083
 20
328.584814
 40
3.000000
 50
320.920000
 51
350.520000
  0
ARC
  8
CSLAYER1
  6
CONTINUOUS
 62
     6
 10
2110.468083
 20
306.524814
 40
3.000000
 50
9.470000
 51
39.070000
  0
ARC
  8
CSLAYER1
  6
CONTINUOUS
 62
     6
 10
2176.548083
 20
317.564814
 40
80.000000
 50
-55.780000
 51
39.194967
  0
ARC
  8
CSLAYER1
  6
CONTINUOUS
 62
     6
 10
2176.548083
 20
317.564814
 40
64.000000
 50
-30.760000
 51
14.360000
  0
ARC
  8
CSLAYER1
  6
CONTINUOUS
 62
     6
 10
2176.548083
 20
317.564814
 40
80.000000
 50
158.740000
 51
235.770000
  0
ARC
  8
CSLAYER1
  6
CONTINUOUS
 62
     6
 10
2176.548083
 20
317.564814
 40
64.000000
 50
44.670000
 51
45.320000
  0
ARC
  8
CSLAYER1
  6
CONTINUOUS
 62
     6
 10
2176.548083
 20
317.564814
 40
64.000000
 50
165.630000
 51
210.750000
  0
ARC
  8
CSLAYER1
  6
CONTINUOUS
 62
     6
 10
2112.588083
 20
280.324814
 40
10.000000
 50
26.420000
 51
30.200000
  0
ARC
  8
CSLAYER1
  6
CONTINUOUS
 62
     6
 10
2240.508083
 20
280.324814
 40
10.000000
 50
202.070000
 51
205.890000
  0
LINE
  8
CSLAYER1
  6
CONTINUOUS
 62
     6
 10
1767.548083
 20
397.544814
 11
1767.548083
 21
237.564814
  0
LINE
  8
CSLAYER1
  6
CONTINUOUS
 62
     6
 10
1778.468083
 20
382.724814
 11
1823.548083
 21
381.544814
  0
LINE
  8
CSLAYER1
  6
CONTINUOUS
 62
     6
 10
1772.628083
 20
397.424814
 11
1767.548083
 21
397.544814
  0
LINE
  8
CSLAYER1
  6
CONTINUOUS
 62
     6
 10
1772.628083
 20
237.684814
 11
1767.548083
 21
237.564814
  0
LINE
  8
CSLAYER1
  6
CONTINUOUS
 62
     6
 10
1775.548083
 20
240.424814
 11
1775.548083
 21
394.424814
  0
ARC
  8
CSLAYER1
  6
CONTINUOUS
 62
     6
 10
1772.548083
 20
394.424814
 40
3.000000
 50
0.000000
 51
88.490000
  0
ARC
  8
CSLAYER1
  6
CONTINUOUS
 62
     6
 10
1772.548083
 20
240.684814
 40
3.000000
 50
271.500000
 51
351.680000
  0
ARC
  8
CSLAYER1
  6
CONTINUOUS
 62
     6
 10
1777.488083
 20
239.964814
 40
2.000000
 50
166.830000
 51
171.680000
  0
LINE
  8
CSLAYER1
  6
CONTINUOUS
 62
     6
 10
1783.588083
 20
384.604814
 11
1780.408083
 21
384.684814
  0
ARC
  8
CSLAYER1
  6
CONTINUOUS
 62
     6
 10
1780.548083
 20
389.684814
 40
5.000000
 50
180.000000
 51
268.500000
  0
ARC
  8
CSLAYER1
  6
CONTINUOUS
 62
     6
 10
1783.548083
 20
382.604814
 40
2.000000
 50
28.420000
 51
88.500000
  0
LINE
  8
CSLAYER1
  6
CONTINUOUS
 62
     6
 10
1778.468083
 20
252.384814
 11
1823.548083
 21
253.564814
  0
LINE
  8
CSLAYER1
  6
CONTINUOUS
 62
     6
 10
1783.588083
 20
250.504814
 11
1780.408083
 21
250.424814
  0
ARC
  8
CSLAYER1
  6
CONTINUOUS
 62
     6
 10
1780.548083
 20
245.424814
 40
5.000000
 50
91.490000
 51
180.000000
  0
ARC
  8
CSLAYER1
  6
CONTINUOUS
 62
     6
 10
1783.548083
 20
252.504814
 40
2.000000
 50
271.490000
 51
331.570000
  0
LINE
  8
CSLAYER1
  6
CONTINUOUS
 62
     6
 10
1785.548083
 20
311.564814
 11
1785.548083
 21
323.564814
  0
LINE
  8
CSLAYER1
  6
CONTINUOUS
 62
     6
 10
1800.048083
 20
276.724814
 11
1800.048083
 21
266.464814
  0
LINE
  8
CSLAYER1
  6
CONTINUOUS
 62
     6
 10
1800.048083
 20
368.644814
 11
1800.048083
 21
358.384814
  0
LINE
  8
CSLAYER1
  6
CONTINUOUS
 62
     6
 10
1783.548083
 20
325.564814
 11
1775.548083
 21
325.564814
  0
LINE
  8
CSLAYER1
  6
CONTINUOUS
 62
     6
 10
1783.548083
 20
309.564814
 11
1775.548083
 21
309.564814
  0
LINE
  8
CSLAYER1
  6
CONTINUOUS
 62
     6
 10
1795.168083
 20
373.644814
 11
1775.548083
 21
374.164814
  0
LINE
  8
CSLAYER1
  6
CONTINUOUS
 62
     6
 10
1795.168083
 20
353.384814
 11
1775.548083
 21
352.864814
  0
LINE
  8
CSLAYER1
  6
CONTINUOUS
 62
     6
 10
1795.168083
 20
281.724814
 11
1775.548083
 21
282.244814
  0
LINE
  8
CSLAYER1
  6
CONTINUOUS
 62
     6
 10
1795.168083
 20
261.464814
 11
1775.548083
 21
260.944814
  0
ARC
  8
CSLAYER1
  6
CONTINUOUS
 62
     6
 10
1795.048083
 20
276.724814
 40
5.000000
 50
0.000000
 51
88.500000
  0
ARC
  8
CSLAYER1
  6
CONTINUOUS
 62
     6
 10
1795.048083
 20
266.464814
 40
5.000000
 50
271.500000
 51
360.000000
  0
ARC
  8
CSLAYER1
  6
CONTINUOUS
 62
     6
 10
1795.048083
 20
368.644814
 40
5.000000
 50
0.000000
 51
88.490000
  0
ARC
  8
CSLAYER1
  6
CONTINUOUS
 62
     6
 10
1795.048083
 20
358.384814
 40
5.000000
 50
271.500000
 51
360.000000
  0
ARC
  8
CSLAYER1
  6
CONTINUOUS
 62
     6
 10
1783.548083
 20
323.564814
 40
2.000000
 50
0.000000
 51
90.000000
  0
ARC
  8
CSLAYER1
  6
CONTINUOUS
 62
     6
 10
1783.548083
 20
311.564814
 40
2.000000
 50
270.000000
 51
360.000000
  0
ARC
  8
CSLAYER1
  6
CONTINUOUS
 62
     6
 10
1778.548083
 20
385.724814
 40
3.000000
 50
180.000000
 51
268.500000
  0
ARC
  8
CSLAYER1
  6
CONTINUOUS
 62
     6
 10
1778.548083
 20
249.384814
 40
3.000000
 50
91.490000
 51
180.000000
  0
ARC
  8
CSLAYER1
  6
CONTINUOUS
 62
     6
 10
1787.068083
 20
384.504814
 40
2.000000
 50
208.420000
 51
268.500000
  0
ARC
  8
CSLAYER1
  6
CONTINUOUS
 62
     6
 10
1787.068083
 20
250.604814
 40
2.000000
 50
91.490000
 51
151.570000
  0
LINE
  8
CSLAYER1
  6
DOT
 62
     6
 10
1857.548083
 20
240.564814
 11
1857.548083
 21
222.564814
  0
LINE
  8
CSLAYER1
  6
DOT
 62
     6
 10
1870.548083
 20
240.564814
 11
1870.548083
 21
222.564814
  0
LINE
  8
CSLAYER1
  6
DOT
 62
     6
 10
1952.548083
 20
240.564814
 11
1952.548083
 21
222.564814
  0
LINE
  8
CSLAYER1
  6
DOT
 62
     6
 10
1965.548083
 20
240.564814
 11
1965.548083
 21
222.564814
  0
LINE
  8
CSLAYER1
  6
DOT
 62
     6
 10
2243.048083
 20
240.564814
 11
2243.048083
 21
222.564814
  0
LINE
  8
CSLAYER1
  6
DOT
 62
     6
 10
2230.048083
 20
240.564814
 11
2230.048083
 21
222.564814
  0
LINE
  8
CSLAYER1
  6
DOT
 62
     6
 10
2123.048083
 20
240.564814
 11
2123.048083
 21
222.564814
  0
LINE
  8
CSLAYER1
  6
DOT
 62
     6
 10
2110.048083
 20
240.564814
 11
2110.048083
 21
222.564814
  0
LINE
  8
CSLAYER1
  6
CONTINUOUS
 62
     6
 10
1754.548083
 20
397.564814
 11
1754.548083
 21
237.564814
  0
LINE
  8
CSLAYER1
  6
CONTINUOUS
 62
     6
 10
1619.548083
 20
272.564814
 11
1619.548083
 21
362.564814
  0
ARC
  8
CSLAYER1
  6
CONTINUOUS
 62
     6
 10
1386.666886
 20
265.460427
 40
1.250017
 50
239.999981
 51
299.999981
  0
ARC
  8
CSLAYER1
  6
CONTINUOUS
 62
     6
 10
1387.916903
 20
265.460427
 40
1.250017
 50
239.999981
 51
299.999981
  0
LINE
  8
CSLAYER1
  6
CONTINUOUS
 62
     6
 10
1388.541911
 20
264.377880
 11
1388.541883
 21
272.564814
  0
LINE
  8
CSLAYER1
  6
CONTINUOUS
 62
     6
 10
1386.041865
 20
273.635895
 11
1386.041876
 21
264.377881
  0
ARC
  8
CSLAYER1
  6
CONTINUOUS
 62
     6
 10
1387.916902
 20
263.295334
 40
1.250017
 50
59.999981
 51
119.999981
  0
ARC
  8
CSLAYER1
  6
CONTINUOUS
 62
     6
 10
1389.166922
 20
265.460427
 40
1.250017
 50
239.999981
 51
299.999981
  0
ARC
  8
CSLAYER1
  6
CONTINUOUS
 62
     6
 10
1390.416939
 20
265.460427
 40
1.250017
 50
239.999981
 51
299.999981
  0
ARC
  8
CSLAYER1
  6
CONTINUOUS
 62
     6
 10
1390.416938
 20
263.295334
 40
1.250017
 50
59.999981
 51
119.999981
  0
LINE
  8
CSLAYER1
  6
CONTINUOUS
 62
     6
 10
1391.041911
 20
264.377881
 11
1391.041900
 21
273.635895
  0
ARC
  8
CSLAYER1
  6
CONTINUOUS
 62
     6
 10
1411.541883
 20
291.183002
 40
2.000000
 50
180.000000
 51
311.082333
  0
LINE
  8
CSLAYER1
  6
CONTINUOUS
 62
     6
 10
1409.541883
 20
291.183002
 11
1409.541883
 21
304.564814
  0
ARC
  8
CSLAYER1
  6
CONTINUOUS
 62
     6
 10
1412.541883
 20
304.564814
 40
3.000000
 50
90.000000
 51
180.000000
  0
LINE
  8
CSLAYER1
  6
CONTINUOUS
 62
     6
 10
1412.541883
 20
307.564814
 11
1418.541883
 21
307.564814
  0
ARC
  8
CSLAYER1
  6
CONTINUOUS
 62
     6
 10
1418.541883
 20
305.564814
 40
2.000000
 50
0.000000
 51
90.000000
  0
LINE
  8
CSLAYER1
  6
CONTINUOUS
 62
     6
 10
1420.541883
 20
305.564814
 11
1420.541883
 21
298.990638
  0
ARC
  8
CSLAYER1
  6
CONTINUOUS
 62
     6
 10
1388.541883
 20
317.564814
 40
37.000000
 50
311.082333
 51
329.867278
  0
LINE
  8
CSLAYER1
  6
CONTINUOUS
 62
     6
 10
1423.694035
 20
291.101137
 11
1432.541883
 21
291.564814
  0
ARC
  8
CSLAYER1
  6
CONTINUOUS
 62
     6
 10
1432.541883
 20
292.564814
 40
1.000000
 50
270.000019
 51
360.000000
  0
LINE
  8
CSLAYER1
  6
CONTINUOUS
 62
     6
 10
1433.541883
 20
292.564814
 11
1433.541883
 21
293.564814
  0
ARC
  8
CSLAYER1
  6
CONTINUOUS
 62
     6
 10
1432.556928
 20
293.564814
 40
1.000000
 50
0.000018
 51
89.999999
  0
LINE
  8
CSLAYER1
  6
CONTINUOUS
 62
     6
 10
1432.556928
 20
294.564814
 11
1428.982608
 21
294.752173
  0
ARC
  8
CSLAYER1
  6
CONTINUOUS
 62
     6
 10
1429.071601
 20
296.449917
 40
1.700075
 50
92.999690
 51
266.999412
  0
LINE
  8
CSLAYER1
  6
CONTINUOUS
 62
     6
 10
1428.982635
 20
298.147663
 11
1436.562299
 21
298.544855
  0
ARC
  8
CSLAYER1
  6
CONTINUOUS
 62
     6
 10
1436.541883
 20
299.544611
 40
1.000000
 50
271.169236
 51
359.999982
  0
LINE
  8
CSLAYER1
  6
CONTINUOUS
 62
     6
 10
1437.541883
 20
299.544611
 11
1437.541883
 21
335.585017
  0
ARC
  8
CSLAYER1
  6
CONTINUOUS
 62
     6
 10
1436.541883
 20
335.585017
 40
1.000000
 50
0.000000
 51
88.830746
  0
LINE
  8
CSLAYER1
  6
CONTINUOUS
 62
     6
 10
1436.562299
 20
336.584773
 11
1428.982635
 21
336.981965
  0
ARC
  8
CSLAYER1
  6
CONTINUOUS
 62
     6
 10
1429.071601
 20
338.679711
 40
1.700075
 50
93.000588
 51
267.000310
  0
LINE
  8
CSLAYER1
  6
CONTINUOUS
 62
     6
 10
1428.982608
 20
340.377455
 11
1432.556928
 21
340.564814
  0
ARC
  8
CSLAYER1
  6
CONTINUOUS
 62
     6
 10
1432.556928
 20
341.564814
 40
1.000000
 50
270.000001
 51
359.999982
  0
LINE
  8
CSLAYER1
  6
CONTINUOUS
 62
     6
 10
1433.541883
 20
341.564814
 11
1433.541883
 21
342.564814
  0
ARC
  8
CSLAYER1
  6
CONTINUOUS
 62
     6
 10
1432.541883
 20
342.564814
 40
1.000000
 50
0.000000
 51
89.999981
  0
LINE
  8
CSLAYER1
  6
CONTINUOUS
 62
     6
 10
1432.541883
 20
343.564814
 11
1423.694035
 21
344.028491
  0
ARC
  8
CSLAYER1
  6
CONTINUOUS
 62
     6
 10
1388.541883
 20
317.564814
 40
45.000000
 50
35.914392
 51
144.085607
  0
LINE
  8
CSLAYER1
  6
CONTINUOUS
 62
     6
 10
1353.389732
 20
344.028492
 11
1344.541883
 21
343.564814
  0
ARC
  8
CSLAYER1
  6
CONTINUOUS
 62
     6
 10
1344.541883
 20
342.564814
 40
1.000000
 50
90.000039
 51
180.000020
  0
LINE
  8
CSLAYER1
  6
CONTINUOUS
 62
     6
 10
1343.541883
 20
342.564814
 11
1343.541883
 21
341.564814
  0
ARC
  8
CSLAYER1
  6
CONTINUOUS
 62
     6
 10
1344.526838
 20
341.564814
 40
1.000000
 50
180.000020
 51
270.000001
  0
LINE
  8
CSLAYER1
  6
CONTINUOUS
 62
     6
 10
1344.526838
 20
340.564814
 11
1348.101158
 21
340.377455
  0
ARC
  8
CSLAYER1
  6
CONTINUOUS
 62
     6
 10
1348.012166
 20
338.679711
 40
1.700075
 50
-87.000310
 51
86.999412
  0
LINE
  8
CSLAYER1
  6
CONTINUOUS
 62
     6
 10
1348.101132
 20
336.981965
 11
1340.521467
 21
336.584773
  0
ARC
  8
CSLAYER1
  6
CONTINUOUS
 62
     6
 10
1340.541883
 20
335.585017
 40
1.000000
 50
91.169216
 51
180.000020
  0
LINE
  8
CSLAYER1
  6
CONTINUOUS
 62
     6
 10
1339.541883
 20
335.585017
 11
1339.541883
 21
299.544611
  0
ARC
  8
CSLAYER1
  6
CONTINUOUS
 62
     6
 10
1340.541883
 20
299.544611
 40
1.000000
 50
180.000020
 51
268.830766
  0
LINE
  8
CSLAYER1
  6
CONTINUOUS
 62
     6
 10
1340.521467
 20
298.544855
 11
1348.101132
 21
298.147663
  0
ARC
  8
CSLAYER1
  6
CONTINUOUS
 62
     6
 10
1348.012166
 20
296.449917
 40
1.700075
 50
-86.999412
 51
87.000310
  0
LINE
  8
CSLAYER1
  6
CONTINUOUS
 62
     6
 10
1348.101158
 20
294.752173
 11
1344.526838
 21
294.564814
  0
ARC
  8
CSLAYER1
  6
CONTINUOUS
 62
     6
 10
1344.526838
 20
293.564814
 40
1.000000
 50
90.000039
 51
180.000020
  0
LINE
  8
CSLAYER1
  6
CONTINUOUS
 62
     6
 10
1343.541883
 20
293.564814
 11
1343.541883
 21
292.564814
  0
ARC
  8
CSLAYER1
  6
CONTINUOUS
 62
     6
 10
1344.541883
 20
292.564814
 40
1.000000
 50
180.000020
 51
270.000001
  0
LINE
  8
CSLAYER1
  6
CONTINUOUS
 62
     6
 10
1344.541883
 20
291.564814
 11
1353.389732
 21
291.101136
  0
ARC
  8
CSLAYER1
  6
CONTINUOUS
 62
     6
 10
1388.541883
 20
317.564814
 40
45.000000
 50
215.914393
 51
266.815240
  0
ARC
  8
CSLAYER1
  6
CONTINUOUS
 62
     6
 10
1388.541883
 20
317.564814
 40
45.000000
 50
25.550580
 51
29.475790
  0
LINE
  8
CSLAYER1
  6
CONTINUOUS
 62
     6
 10
1420.541883
 20
336.138990
 11
1420.541883
 21
329.564814
  0
ARC
  8
CSLAYER1
  6
CONTINUOUS
 62
     6
 10
1418.541883
 20
329.564814
 40
2.000000
 50
270.000000
 51
360.000000
  0
LINE
  8
CSLAYER1
  6
CONTINUOUS
 62
     6
 10
1418.541883
 20
327.564814
 11
1412.541883
 21
327.564814
  0
ARC
  8
CSLAYER1
  6
CONTINUOUS
 62
     6
 10
1412.541883
 20
330.564814
 40
3.000000
 50
180.000000
 51
270.000000
  0
LINE
  8
CSLAYER1
  6
CONTINUOUS
 62
     6
 10
1409.541883
 20
330.564814
 11
1409.541883
 21
343.946626
  0
ARC
  8
CSLAYER1
  6
CONTINUOUS
 62
     6
 10
1411.541883
 20
343.946626
 40
2.000000
 50
48.917667
 51
180.000000
  0
ARC
  8
CSLAYER1
  6
CONTINUOUS
 62
     6
 10
1388.541883
 20
317.564814
 40
37.000000
 50
30.132722
 51
48.917667
  0
ARC
  8
CSLAYER1
  6
CONTINUOUS
 62
     6
 10
1376.541883
 20
347.564814
 40
2.000000
 50
90.000000
 51
180.000000
  0
LINE
  8
CSLAYER1
  6
CONTINUOUS
 62
     6
 10
1374.541883
 20
347.564814
 11
1374.541883
 21
337.186231
  0
ARC
  8
CSLAYER1
  6
CONTINUOUS
 62
     6
 10
1376.541883
 20
337.186231
 40
2.000000
 50
180.000000
 51
301.448981
  0
ARC
  8
CSLAYER1
  6
CONTINUOUS
 62
     6
 10
1388.541883
 20
317.564814
 40
21.000000
 50
107.718932
 51
121.448981
  0
ARC
  8
CSLAYER1
  6
CONTINUOUS
 62
     6
 10
1381.541883
 20
339.473716
 40
2.000000
 50
287.718932
 51
360.000000
  0
LINE
  8
CSLAYER1
  6
CONTINUOUS
 62
     6
 10
1383.541883
 20
339.473716
 11
1383.541883
 21
347.564814
  0
ARC
  8
CSLAYER1
  6
CONTINUOUS
 62
     6
 10
1381.541883
 20
347.564814
 40
2.000000
 50
0.000000
 51
90.000000
  0
LINE
  8
CSLAYER1
  6
CONTINUOUS
 62
     6
 10
1381.541883
 20
349.564814
 11
1376.541883
 21
349.564814
  0
LINE
  8
CSLAYER1
  6
CONTINUOUS
 62
     6
 10
1367.541883
 20
343.946626
 11
1367.541883
 21
330.564814
  0
ARC
  8
CSLAYER1
  6
CONTINUOUS
 62
     6
 10
1364.541883
 20
330.564814
 40
3.000000
 50
270.000000
 51
360.000000
  0
LINE
  8
CSLAYER1
  6
CONTINUOUS
 62
     6
 10
1364.541883
 20
327.564814
 11
1358.541883
 21
327.564814
  0
ARC
  8
CSLAYER1
  6
CONTINUOUS
 62
     6
 10
1358.541883
 20
329.564814
 40
2.000000
 50
180.000000
 51
270.000000
  0
LINE
  8
CSLAYER1
  6
CONTINUOUS
 62
     6
 10
1356.541883
 20
329.564814
 11
1356.541883
 21
336.138990
  0
ARC
  8
CSLAYER1
  6
CONTINUOUS
 62
     6
 10
1388.541883
 20
317.564814
 40
37.000000
 50
131.082333
 51
149.867278
  0
ARC
  8
CSLAYER1
  6
CONTINUOUS
 62
     6
 10
1365.541883
 20
343.946626
 40
2.000000
 50
0.000000
 51
131.082333
  0
ARC
  8
CSLAYER1
  6
CONTINUOUS
 62
     6
 10
1388.541883
 20
317.564814
 40
45.000000
 50
150.524210
 51
154.449420
  0
ARC
  8
CSLAYER1
  6
CONTINUOUS
 62
     6
 10
1388.541883
 20
317.564814
 40
45.000000
 50
205.543092
 51
209.475790
  0
ARC
  8
CSLAYER1
  6
CONTINUOUS
 62
     6
 10
1388.541883
 20
317.564814
 40
37.000000
 50
210.132722
 51
228.917667
  0
ARC
  8
CSLAYER1
  6
CONTINUOUS
 62
     6
 10
1365.541883
 20
291.183002
 40
2.000000
 50
228.917667
 51
360.000000
  0
LINE
  8
CSLAYER1
  6
CONTINUOUS
 62
     6
 10
1367.541883
 20
291.183002
 11
1367.541883
 21
304.564814
  0
ARC
  8
CSLAYER1
  6
CONTINUOUS
 62
     6
 10
1364.541883
 20
304.564814
 40
3.000000
 50
0.000000
 51
90.000000
  0
LINE
  8
CSLAYER1
  6
CONTINUOUS
 62
     6
 10
1364.541883
 20
307.564814
 11
1358.541883
 21
307.564814
  0
ARC
  8
CSLAYER1
  6
CONTINUOUS
 62
     6
 10
1358.541883
 20
305.564814
 40
2.000000
 50
90.000000
 51
180.000000
  0
LINE
  8
CSLAYER1
  6
CONTINUOUS
 62
     6
 10
1356.541883
 20
305.564814
 11
1356.541883
 21
298.990638
  0
LINE
  8
CSLAYER1
  6
CONTINUOUS
 62
     6
 10
1374.541883
 20
297.943397
 11
1374.541883
 21
287.564814
  0
ARC
  8
CSLAYER1
  6
CONTINUOUS
 62
     6
 10
1376.541883
 20
287.564814
 40
2.000000
 50
180.000000
 51
270.000000
  0
LINE
  8
CSLAYER1
  6
CONTINUOUS
 62
     6
 10
1376.541883
 20
285.564814
 11
1381.541883
 21
285.564814
  0
ARC
  8
CSLAYER1
  6
CONTINUOUS
 62
     6
 10
1381.541883
 20
287.564814
 40
2.000000
 50
270.000000
 51
360.000000
  0
LINE
  8
CSLAYER1
  6
CONTINUOUS
 62
     6
 10
1383.541883
 20
287.564814
 11
1383.541883
 21
295.655912
  0
ARC
  8
CSLAYER1
  6
CONTINUOUS
 62
     6
 10
1381.541883
 20
295.655912
 40
2.000000
 50
0.000000
 51
72.281068
  0
ARC
  8
CSLAYER1
  6
CONTINUOUS
 62
     6
 10
1388.541883
 20
317.564814
 40
21.000000
 50
238.551019
 51
252.281068
  0
ARC
  8
CSLAYER1
  6
CONTINUOUS
 62
     6
 10
1376.541883
 20
297.943397
 40
2.000000
 50
58.551019
 51
180.000000
  0
LINE
  8
CSLAYER1
  6
CONTINUOUS
 62
     6
 10
1384.147855
 20
303.222849
 11
1384.730200
 21
305.123619
  0
ARC
  8
CSLAYER1
  6
CONTINUOUS
 62
     6
 10
1382.049754
 20
306.288078
 40
2.922462
 50
-23.481547
 51
129.764151
  0
ARC
  8
CSLAYER1
  6
CONTINUOUS
 62
     6
 10
1379.308252
 20
309.582741
 40
1.363635
 50
217.903413
 51
309.763730
  0
ARC
  8
CSLAYER1
  6
CONTINUOUS
 62
     6
 10
1388.541883
 20
316.771692
 40
13.065822
 50
-37.903067
 51
217.903051
  0
ARC
  8
CSLAYER1
  6
CONTINUOUS
 62
     6
 10
1397.775502
 20
309.582741
 40
1.363635
 50
230.236329
 51
322.096590
  0
ARC
  8
CSLAYER1
  6
CONTINUOUS
 62
     6
 10
1395.034003
 20
306.288078
 40
2.922462
 50
50.235851
 51
203.481549
  0
LINE
  8
CSLAYER1
  6
CONTINUOUS
 62
     6
 10
1392.353554
 20
305.123619
 11
1392.935899
 21
303.222849
  0
CIRCLE
  8
CSLAYER1
  6
CONTINUOUS
 62
     6
 10
1395.034003
 20
306.288078
 40
1.363635
  0
ARC
  8
CSLAYER1
  6
CONTINUOUS
 62
     6
 10
1388.541883
 20
317.564814
 40
21.000000
 50
287.718932
 51
301.448981
  0
ARC
  8
CSLAYER1
  6
CONTINUOUS
 62
     6
 10
1395.541883
 20
295.655912
 40
2.000000
 50
107.718932
 51
180.000000
  0
LINE
  8
CSLAYER1
  6
CONTINUOUS
 62
     6
 10
1393.541883
 20
295.655912
 11
1393.541883
 21
287.564814
  0
ARC
  8
CSLAYER1
  6
CONTINUOUS
 62
     6
 10
1395.541883
 20
287.564814
 40
2.000000
 50
180.000000
 51
270.000000
  0
LINE
  8
CSLAYER1
  6
CONTINUOUS
 62
     6
 10
1395.541883
 20
285.564814
 11
1400.541883
 21
285.564814
  0
ARC
  8
CSLAYER1
  6
CONTINUOUS
 62
     6
 10
1400.541883
 20
287.564814
 40
2.000000
 50
270.000000
 51
360.000000
  0
LINE
  8
CSLAYER1
  6
CONTINUOUS
 62
     6
 10
1402.541883
 20
287.564814
 11
1402.541883
 21
297.943397
  0
ARC
  8
CSLAYER1
  6
CONTINUOUS
 62
     6
 10
1400.541883
 20
297.943397
 40
2.000000
 50
0.000000
 51
121.448981
  0
CIRCLE
  8
CSLAYER1
  6
CONTINUOUS
 62
     6
 10
1382.049754
 20
306.288078
 40
1.363635
  0
ARC
  8
CSLAYER1
  6
CONTINUOUS
 62
     6
 10
1386.666846
 20
263.597927
 40
1.250008
 50
240.000345
 51
300.000345
  0
ARC
  8
CSLAYER1
  6
CONTINUOUS
 62
     6
 10
1386.666859
 20
261.432849
 40
1.250008
 50
60.000345
 51
120.000345
  0
LINE
  8
CSLAYER1
  6
CONTINUOUS
 62
     6
 10
1386.041857
 20
262.515392
 11
1386.041857
 21
261.068578
  0
ARC
  8
CSLAYER1
  6
CONTINUOUS
 62
     6
 10
1370.633984
 20
261.068520
 40
15.407880
 50
332.536225
 51
359.942687
  0
LINE
  8
CSLAYER1
  6
CONTINUOUS
 62
     6
 10
1384.305413
 20
253.962632
 11
1386.523690
 21
252.809638
  0
ARC
  8
CSLAYER1
  6
CONTINUOUS
 62
     6
 10
1370.633984
 20
261.068520
 40
17.907879
 50
332.536225
 51
359.942687
  0
LINE
  8
CSLAYER1
  6
CONTINUOUS
 62
     6
 10
1388.541854
 20
261.050607
 11
1388.541884
 21
262.515384
  0
ARC
  8
CSLAYER1
  6
CONTINUOUS
 62
     6
 10
1389.166882
 20
263.597927
 40
1.250008
 50
240.000345
 51
300.000345
  0
ARC
  8
CSLAYER1
  6
CONTINUOUS
 62
     6
 10
1389.166895
 20
261.432849
 40
1.250008
 50
60.000345
 51
120.000345
  0
ARC
  8
CSLAYER1
  6
CONTINUOUS
 62
     6
 10
1387.916867
 20
261.432857
 40
1.250008
 50
60.000345
 51
120.000345
  0
ARC
  8
CSLAYER1
  6
CONTINUOUS
 62
     6
 10
1406.449782
 20
261.068578
 40
17.907879
 50
180.000020
 51
207.463892
  0
LINE
  8
CSLAYER1
  6
CONTINUOUS
 62
     6
 10
1390.560096
 20
252.809638
 11
1392.778373
 21
253.962593
  0
ARC
  8
CSLAYER1
  6
CONTINUOUS
 62
     6
 10
1406.449782
 20
261.068520
 40
15.407880
 50
179.999963
 51
207.463892
  0
LINE
  8
CSLAYER1
  6
CONTINUOUS
 62
     6
 10
1391.041911
 20
261.068578
 11
1391.041911
 21
262.515392
  0
ARC
  8
CSLAYER1
  6
CONTINUOUS
 62
     6
 10
1390.416903
 20
261.432857
 40
1.250008
 50
60.000345
 51
120.000345
  0
LINE
  8
CSLAYER1
  6
CONTINUOUS
 62
     6
 10
1392.241610
 20
253.683609
 11
1394.055806
 21
250.691401
  0
LINE
  8
CSLAYER1
  6
CONTINUOUS
 62
     6
 10
1393.319037
 20
250.179409
 11
1391.669235
 21
253.386116
  0
LINE
  8
CSLAYER1
  6
CONTINUOUS
 62
     6
 10
1391.094407
 20
253.093390
 11
1392.474110
 21
249.877642
  0
LINE
  8
CSLAYER1
  6
CONTINUOUS
 62
     6
 10
1386.007137
 20
253.078127
 11
1384.440349
 21
249.667417
  0
LINE
  8
CSLAYER1
  6
CONTINUOUS
 62
     6
 10
1383.653630
 20
249.954632
 11
1385.414551
 21
253.386135
  0
LINE
  8
CSLAYER1
  6
CONTINUOUS
 62
     6
 10
1384.818785
 20
253.687946
 11
1382.961555
 21
250.426280
  0
ARC
  8
CSLAYER1
  6
CONTINUOUS
 62
     6
 10
1388.541883
 20
317.564814
 40
45.000000
 50
330.524210
 51
334.456908
  0
LINE
  8
CSLAYER1
  6
CONTINUOUS
 62
     6
 10
1566.548083
 20
274.564814
 11
1566.548083
 21
360.453272
  0
LINE
  8
CSLAYER1
  6
CONTINUOUS
 62
     6
 10
1566.548083
 20
360.453272
 11
1567.548083
 21
361.453272
  0
LINE
  8
CSLAYER1
  6
CONTINUOUS
 62
     6
 10
1567.548083
 20
361.453272
 11
1619.548083
 21
361.453272
  0
LINE
  8
CSLAYER1
  6
CONTINUOUS
 62
     6
 10
1616.548083
 20
343.564814
 11
1580.548083
 21
343.564814
  0
ARC
  8
CSLAYER1
  6
CONTINUOUS
 62
     6
 10
1580.548083
 20
342.564814
 40
1.000000
 50
90.000016
 51
180.000005
  0
LINE
  8
CSLAYER1
  6
CONTINUOUS
 62
     6
 10
1579.548083
 20
342.564814
 11
1579.548083
 21
341.564814
  0
ARC
  8
CSLAYER1
  6
CONTINUOUS
 62
     6
 10
1580.548083
 20
341.564814
 40
1.000000
 50
180.000019
 51
270.000001
  0
LINE
  8
CSLAYER1
  6
CONTINUOUS
 62
     6
 10
1580.548083
 20
340.564814
 11
1616.548083
 21
340.564814
  0
ARC
  8
CSLAYER1
  6
CONTINUOUS
 62
     6
 10
1616.548083
 20
341.564814
 40
1.000000
 50
270.000001
 51
359.942691
  0
LINE
  8
CSLAYER1
  6
CONTINUOUS
 62
     6
 10
1617.548083
 20
341.564814
 11
1617.548083
 21
342.564814
  0
ARC
  8
CSLAYER1
  6
CONTINUOUS
 62
     6
 10
1616.548083
 20
342.564814
 40
1.000000
 50
0.000000
 51
90.000003
  0
ARC
  8
CSLAYER1
  6
CONTINUOUS
 62
     6
 10
1616.548083
 20
335.564814
 40
1.000000
 50
0.000000
 51
90.000003
  0
LINE
  8
CSLAYER1
  6
CONTINUOUS
 62
     6
 10
1617.548083
 20
335.564814
 11
1617.548083
 21
334.564814
  0
ARC
  8
CSLAYER1
  6
CONTINUOUS
 62
     6
 10
1616.548083
 20
334.564814
 40
1.000000
 50
270.000001
 51
359.942691
  0
LINE
  8
CSLAYER1
  6
CONTINUOUS
 62
     6
 10
1616.548083
 20
333.564814
 11
1611.776843
 21
333.564814
  0
ARC
  8
CSLAYER1
  6
CONTINUOUS
 62
     6
 10
1611.776843
 20
332.564814
 40
1.000000
 50
90.000003
 51
228.590367
  0
ARC
  8
CSLAYER1
  6
CONTINUOUS
 62
     6
 10
1598.548083
 20
317.564814
 40
19.000000
 50
-48.590366
 51
48.590386
  0
ARC
  8
CSLAYER1
  6
CONTINUOUS
 62
     6
 10
1611.776843
 20
302.564814
 40
1.000000
 50
131.409643
 51
270.000001
  0
LINE
  8
CSLAYER1
  6
CONTINUOUS
 62
     6
 10
1611.776843
 20
301.564814
 11
1616.548083
 21
301.564814
  0
ARC
  8
CSLAYER1
  6
CONTINUOUS
 62
     6
 10
1616.548083
 20
300.564814
 40
1.000000
 50
0.057309
 51
89.999999
  0
LINE
  8
CSLAYER1
  6
CONTINUOUS
 62
     6
 10
1617.548083
 20
300.564814
 11
1617.548083
 21
299.564814
  0
ARC
  8
CSLAYER1
  6
CONTINUOUS
 62
     6
 10
1616.548083
 20
299.564814
 40
1.000000
 50
269.999997
 51
360.000000
  0
LINE
  8
CSLAYER1
  6
CONTINUOUS
 62
     6
 10
1616.548083
 20
298.564814
 11
1580.548083
 21
298.564814
  0
ARC
  8
CSLAYER1
  6
CONTINUOUS
 62
     6
 10
1580.548083
 20
299.564814
 40
1.000000
 50
179.999995
 51
269.999984
  0
LINE
  8
CSLAYER1
  6
CONTINUOUS
 62
     6
 10
1579.548083
 20
299.564814
 11
1579.548083
 21
300.564814
  0
ARC
  8
CSLAYER1
  6
CONTINUOUS
 62
     6
 10
1580.548083
 20
300.564814
 40
1.000000
 50
89.999999
 51
179.999981
  0
LINE
  8
CSLAYER1
  6
CONTINUOUS
 62
     6
 10
1580.548083
 20
301.564814
 11
1585.319323
 21
301.564814
  0
ARC
  8
CSLAYER1
  6
CONTINUOUS
 62
     6
 10
1585.319323
 20
302.564814
 40
1.000000
 50
-89.999999
 51
48.590386
  0
ARC
  8
CSLAYER1
  6
CONTINUOUS
 62
     6
 10
1598.548083
 20
317.564814
 40
19.000000
 50
131.409657
 51
228.590367
  0
ARC
  8
CSLAYER1
  6
CONTINUOUS
 62
     6
 10
1585.319323
 20
332.564814
 40
1.000000
 50
-48.590366
 51
90.000019
  0
LINE
  8
CSLAYER1
  6
CONTINUOUS
 62
     6
 10
1585.319323
 20
333.564814
 11
1580.548083
 21
333.564814
  0
ARC
  8
CSLAYER1
  6
CONTINUOUS
 62
     6
 10
1580.548083
 20
334.564814
 40
1.000000
 50
180.000019
 51
270.000001
  0
LINE
  8
CSLAYER1
  6
CONTINUOUS
 62
     6
 10
1579.548083
 20
334.564814
 11
1579.548083
 21
335.564814
  0
ARC
  8
CSLAYER1
  6
CONTINUOUS
 62
     6
 10
1580.548083
 20
335.564814
 40
1.000000
 50
90.000016
 51
180.000005
  0
LINE
  8
CSLAYER1
  6
CONTINUOUS
 62
     6
 10
1580.548083
 20
336.564814
 11
1616.548083
 21
336.564814
  0
LINE
  8
CSLAYER1
  6
CONTINUOUS
 62
     6
 10
1604.548083
 20
318.464808
 11
1592.548083
 21
318.464808
  0
LINE
  8
CSLAYER1
  6
CONTINUOUS
 62
     6
 10
1592.548083
 20
318.464808
 11
1592.548083
 21
316.664820
  0
LINE
  8
CSLAYER1
  6
CONTINUOUS
 62
     6
 10
1592.548083
 20
316.664820
 11
1604.548083
 21
316.664820
  0
LINE
  8
CSLAYER1
  6
CONTINUOUS
 62
     6
 10
1604.548083
 20
316.664820
 11
1604.548083
 21
318.464808
  0
CIRCLE
  8
CSLAYER1
  6
CONTINUOUS
 62
     6
 10
1598.548083
 20
317.564814
 40
12.000000
  0
CIRCLE
  8
CSLAYER1
  6
CONTINUOUS
 62
     6
 10
1598.548083
 20
317.564814
 40
15.000000
  0
CIRCLE
  8
CSLAYER1
  6
CONTINUOUS
 62
     6
 10
1598.548083
 20
317.564814
 40
16.000000
  0
LINE
  8
CSLAYER1
  6
CONTINUOUS
 62
     6
 10
1567.548083
 20
361.453272
 11
1567.548083
 21
273.564814
  0
LINE
  8
CSLAYER1
  6
CONTINUOUS
 62
     6
 10
1567.548083
 20
273.564814
 11
1580.548083
 21
273.564814
  0
LINE
  8
CSLAYER1
  6
CONTINUOUS
 62
     6
 10
1580.548083
 20
273.564814
 11
1580.548083
 21
277.564814
  0
LINE
  8
CSLAYER1
  6
CONTINUOUS
 62
     6
 10
1580.548083
 20
277.564814
 11
1606.548083
 21
277.564814
  0
LINE
  8
CSLAYER1
  6
CONTINUOUS
 62
     6
 10
1606.548083
 20
277.564814
 11
1606.548083
 21
273.564814
  0
LINE
  8
CSLAYER1
  6
CONTINUOUS
 62
     6
 10
1606.548083
 20
273.564814
 11
1619.548083
 21
273.564814
  0
LINE
  8
CSLAYER1
  6
CONTINUOUS
 62
     6
 10
1606.548083
 20
275.564814
 11
1580.548083
 21
275.564814
  0
LINE
  8
CSLAYER1
  6
CONTINUOUS
 62
     6
 10
1580.798083
 20
275.564814
 11
1580.798083
 21
275.064814
  0
ARC
  8
CSLAYER1
  6
CONTINUOUS
 62
     6
 10
1582.798083
 20
275.064814
 40
2.000000
 50
180.000000
 51
270.000000
  0
LINE
  8
CSLAYER1
  6
CONTINUOUS
 62
     6
 10
1582.798083
 20
273.064814
 11
1591.886708
 21
273.064814
  0
ARC
  8
CSLAYER1
  6
CONTINUOUS
 62
     6
 10
1593.548083
 20
279.864802
 40
7.000000
 50
253.743003
 51
286.257026
  0
ARC
  8
CSLAYER1
  6
CONTINUOUS
 62
     6
 10
1595.227740
 20
274.104731
 40
1.000000
 50
286.257408
 51
354.999902
  0
LINE
  8
CSLAYER1
  6
CONTINUOUS
 62
     6
 10
1596.223925
 20
274.017573
 11
1596.279040
 21
274.647395
  0
ARC
  8
CSLAYER1
  6
CONTINUOUS
 62
     6
 10
1596.079821
 20
274.664820
 40
0.200000
 50
-5.000126
 51
90.000019
  0
LINE
  8
CSLAYER1
  6
CONTINUOUS
 62
     6
 10
1596.348071
 20
274.864832
 11
1593.548083
 21
274.864802
  0
LINE
  8
CSLAYER1
  6
CONTINUOUS
 62
     6
 10
1593.548083
 20
274.864802
 11
1590.748095
 21
274.864802
  0
ARC
  8
CSLAYER1
  6
CONTINUOUS
 62
     6
 10
1590.748095
 20
274.964808
 40
0.100000
 50
180.000005
 51
270.000001
  0
LINE
  8
CSLAYER1
  6
CONTINUOUS
 62
     6
 10
1590.648059
 20
274.964808
 11
1590.648059
 21
275.464808
  0
ARC
  8
CSLAYER1
  6
CONTINUOUS
 62
     6
 10
1590.748095
 20
275.464808
 40
0.100000
 50
90.000003
 51
180.000005
  0
ARC
  8
CSLAYER1
  6
CONTINUOUS
 62
     6
 10
1591.016345
 20
274.664820
 40
0.200000
 50
90.000003
 51
185.000154
  0
LINE
  8
CSLAYER1
  6
CONTINUOUS
 62
     6
 10
1590.817096
 20
274.647395
 11
1590.872180
 21
274.017573
  0
ARC
  8
CSLAYER1
  6
CONTINUOUS
 62
     6
 10
1591.868396
 20
274.104731
 40
1.000000
 50
185.000113
 51
253.742620
  0
LINE
  8
CSLAYER1
  6
CONTINUOUS
 62
     6
 10
1589.976706
 20
273.064814
 11
1589.811588
 21
272.046770
  0
LINE
  8
CSLAYER1
  6
CONTINUOUS
 62
     6
 10
1589.811588
 20
272.046770
 11
1589.753453
 21
271.724343
  0
LINE
  8
CSLAYER1
  6
CONTINUOUS
 62
     6
 10
1589.753453
 20
271.724343
 11
1589.688600
 21
271.392534
  0
LINE
  8
CSLAYER1
  6
CONTINUOUS
 62
     6
 10
1589.688600
 20
271.392534
 11
1589.618224
 21
271.054737
  0
LINE
  8
CSLAYER1
  6
CONTINUOUS
 62
     6
 10
1589.618224
 20
271.054737
 11
1589.543521
 21
270.714350
  0
LINE
  8
CSLAYER1
  6
CONTINUOUS
 62
     6
 10
1589.543521
 20
270.714350
 11
1589.465685
 21
270.374766
  0
LINE
  8
CSLAYER1
  6
CONTINUOUS
 62
     6
 10
1589.465685
 20
270.374766
 11
1589.385911
 21
270.039380
  0
LINE
  8
CSLAYER1
  6
CONTINUOUS
 62
     6
 10
1589.385911
 20
270.039380
 11
1589.305395
 21
269.711589
  0
LINE
  8
CSLAYER1
  6
CONTINUOUS
 62
     6
 10
1589.305395
 20
269.711589
 11
1589.225330
 21
269.394788
  0
LINE
  8
CSLAYER1
  6
CONTINUOUS
 62
     6
 10
1589.225330
 20
269.394788
 11
1589.146913
 21
269.092371
  0
LINE
  8
CSLAYER1
  6
CONTINUOUS
 62
     6
 10
1589.146913
 20
269.092371
 11
1589.063541
 21
268.792621
  0
LINE
  8
CSLAYER1
  6
CONTINUOUS
 62
     6
 10
1589.063541
 20
268.792621
 11
1588.969628
 21
268.487097
  0
LINE
  8
CSLAYER1
  6
CONTINUOUS
 62
     6
 10
1588.969628
 20
268.487097
 11
1588.866042
 21
268.177058
  0
LINE
  8
CSLAYER1
  6
CONTINUOUS
 62
     6
 10
1588.866042
 20
268.177058
 11
1588.753654
 21
267.863762
  0
LINE
  8
CSLAYER1
  6
CONTINUOUS
 62
     6
 10
1588.753654
 20
267.863762
 11
1588.633332
 21
267.548471
  0
LINE
  8
CSLAYER1
  6
CONTINUOUS
 62
     6
 10
1588.633332
 20
267.548471
 11
1588.505945
 21
267.232443
  0
LINE
  8
CSLAYER1
  6
CONTINUOUS
 62
     6
 10
1588.505945
 20
267.232443
 11
1588.372363
 21
266.916937
  0
LINE
  8
CSLAYER1
  6
CONTINUOUS
 62
     6
 10
1588.372363
 20
266.916937
 11
1588.233454
 21
266.603213
  0
LINE
  8
CSLAYER1
  6
CONTINUOUS
 62
     6
 10
1588.233454
 20
266.603213
 11
1588.090087
 21
266.292531
  0
LINE
  8
CSLAYER1
  6
CONTINUOUS
 62
     6
 10
1588.090087
 20
266.292531
 11
1587.943132
 21
265.986149
  0
LINE
  8
CSLAYER1
  6
CONTINUOUS
 62
     6
 10
1587.943132
 20
265.986149
 11
1587.793458
 21
265.685328
  0
LINE
  8
CSLAYER1
  6
CONTINUOUS
 62
     6
 10
1587.793458
 20
265.685328
 11
1587.666114
 21
265.437708
  0
LINE
  8
CSLAYER1
  6
CONTINUOUS
 62
     6
 10
1587.666114
 20
265.437708
 11
1587.535962
 21
265.191674
  0
LINE
  8
CSLAYER1
  6
CONTINUOUS
 62
     6
 10
1587.535962
 20
265.191674
 11
1587.403283
 21
264.947068
  0
LINE
  8
CSLAYER1
  6
CONTINUOUS
 62
     6
 10
1587.403283
 20
264.947068
 11
1587.268358
 21
264.703731
  0
LINE
  8
CSLAYER1
  6
CONTINUOUS
 62
     6
 10
1587.268358
 20
264.703731
 11
1587.131468
 21
264.461504
  0
LINE
  8
CSLAYER1
  6
CONTINUOUS
 62
     6
 10
1587.131468
 20
264.461504
 11
1586.992893
 21
264.220229
  0
LINE
  8
CSLAYER1
  6
CONTINUOUS
 62
     6
 10
1586.992893
 20
264.220229
 11
1586.852915
 21
263.979747
  0
LINE
  8
CSLAYER1
  6
CONTINUOUS
 62
     6
 10
1586.852915
 20
263.979747
 11
1586.711813
 21
263.739900
  0
LINE
  8
CSLAYER1
  6
CONTINUOUS
 62
     6
 10
1586.711813
 20
263.739900
 11
1586.569869
 21
263.500528
  0
LINE
  8
CSLAYER1
  6
CONTINUOUS
 62
     6
 10
1586.569869
 20
263.500528
 11
1586.427364
 21
263.261474
  0
LINE
  8
CSLAYER1
  6
CONTINUOUS
 62
     6
 10
1586.427364
 20
263.261474
 11
1586.284578
 21
263.022578
  0
ARC
  8
CSLAYER1
  6
CONTINUOUS
 62
     6
 10
1586.274912
 20
264.222546
 40
1.200008
 50
210.461486
 51
270.461486
  0
ARC
  8
CSLAYER1
  6
CONTINUOUS
 62
     6
 10
1585.230876
 20
264.814160
 40
1.200008
 50
210.461486
 51
270.461486
  0
LINE
  8
CSLAYER1
  6
CONTINUOUS
 62
     6
 10
1584.196473
 20
264.205805
 11
1584.331755
 21
264.431727
  0
LINE
  8
CSLAYER1
  6
CONTINUOUS
 62
     6
 10
1584.331755
 20
264.431727
 11
1584.466761
 21
264.657803
  0
LINE
  8
CSLAYER1
  6
CONTINUOUS
 62
     6
 10
1584.466761
 20
264.657803
 11
1584.601218
 21
264.884189
  0
LINE
  8
CSLAYER1
  6
CONTINUOUS
 62
     6
 10
1584.601218
 20
264.884189
 11
1584.734848
 21
265.111039
  0
LINE
  8
CSLAYER1
  6
CONTINUOUS
 62
     6
 10
1584.734848
 20
265.111039
 11
1584.867378
 21
265.338507
  0
LINE
  8
CSLAYER1
  6
CONTINUOUS
 62
     6
 10
1584.867378
 20
265.338507
 11
1584.998531
 21
265.566749
  0
LINE
  8
CSLAYER1
  6
CONTINUOUS
 62
     6
 10
1584.998531
 20
265.566749
 11
1585.128033
 21
265.795919
  0
LINE
  8
CSLAYER1
  6
CONTINUOUS
 62
     6
 10
1585.128033
 20
265.795919
 11
1585.255609
 21
266.026171
  0
LINE
  8
CSLAYER1
  6
CONTINUOUS
 62
     6
 10
1585.255609
 20
266.026171
 11
1585.380983
 21
266.257661
  0
LINE
  8
CSLAYER1
  6
CONTINUOUS
 62
     6
 10
1585.380983
 20
266.257661
 11
1585.503880
 21
266.490542
  0
LINE
  8
CSLAYER1
  6
CONTINUOUS
 62
     6
 10
1585.503880
 20
266.490542
 11
1585.624025
 21
266.724970
  0
LINE
  8
CSLAYER1
  6
CONTINUOUS
 62
     6
 10
1585.624025
 20
266.724970
 11
1585.758266
 21
266.995776
  0
LINE
  8
CSLAYER1
  6
CONTINUOUS
 62
     6
 10
1585.758266
 20
266.995776
 11
1585.890129
 21
267.271541
  0
LINE
  8
CSLAYER1
  6
CONTINUOUS
 62
     6
 10
1585.890129
 20
267.271541
 11
1586.018837
 21
267.551134
  0
LINE
  8
CSLAYER1
  6
CONTINUOUS
 62
     6
 10
1586.018837
 20
267.551134
 11
1586.143611
 21
267.833424
  0
LINE
  8
CSLAYER1
  6
CONTINUOUS
 62
     6
 10
1586.143611
 20
267.833424
 11
1586.263674
 21
268.117280
  0
LINE
  8
CSLAYER1
  6
CONTINUOUS
 62
     6
 10
1586.263674
 20
268.117280
 11
1586.378249
 21
268.401570
  0
LINE
  8
CSLAYER1
  6
CONTINUOUS
 62
     6
 10
1586.378249
 20
268.401570
 11
1586.486558
 21
268.685163
  0
LINE
  8
CSLAYER1
  6
CONTINUOUS
 62
     6
 10
1586.486558
 20
268.685163
 11
1586.587823
 21
268.966928
  0
LINE
  8
CSLAYER1
  6
CONTINUOUS
 62
     6
 10
1586.587823
 20
268.966928
 11
1586.681268
 21
269.245734
  0
LINE
  8
CSLAYER1
  6
CONTINUOUS
 62
     6
 10
1586.681268
 20
269.245734
 11
1586.766114
 21
269.520449
  0
LINE
  8
CSLAYER1
  6
CONTINUOUS
 62
     6
 10
1586.766114
 20
269.520449
 11
1586.841584
 21
269.789942
  0
LINE
  8
CSLAYER1
  6
CONTINUOUS
 62
     6
 10
1586.841584
 20
269.789942
 11
1586.916124
 21
270.075381
  0
LINE
  8
CSLAYER1
  6
CONTINUOUS
 62
     6
 10
1586.916124
 20
270.075381
 11
1586.992132
 21
270.374560
  0
LINE
  8
CSLAYER1
  6
CONTINUOUS
 62
     6
 10
1586.992132
 20
270.374560
 11
1587.068476
 21
270.684225
  0
LINE
  8
CSLAYER1
  6
CONTINUOUS
 62
     6
 10
1587.068476
 20
270.684225
 11
1587.144022
 21
271.001125
  0
LINE
  8
CSLAYER1
  6
CONTINUOUS
 62
     6
 10
1587.144022
 20
271.001125
 11
1587.217638
 21
271.322007
  0
LINE
  8
CSLAYER1
  6
CONTINUOUS
 62
     6
 10
1587.217638
 20
271.322007
 11
1587.288190
 21
271.643618
  0
LINE
  8
CSLAYER1
  6
CONTINUOUS
 62
     6
 10
1587.288190
 20
271.643618
 11
1587.354547
 21
271.962706
  0
LINE
  8
CSLAYER1
  6
CONTINUOUS
 62
     6
 10
1587.354547
 20
271.962706
 11
1587.415576
 21
272.276017
  0
LINE
  8
CSLAYER1
  6
CONTINUOUS
 62
     6
 10
1587.415576
 20
272.276017
 11
1587.470142
 21
272.580300
  0
LINE
  8
CSLAYER1
  6
CONTINUOUS
 62
     6
 10
1587.470142
 20
272.580300
 11
1587.548083
 21
273.064814
  0
LINE
  8
CSLAYER1
  6
CONTINUOUS
 62
     6
 10
1587.419683
 20
272.298920
 11
1587.371436
 21
272.211086
  0
LINE
  8
CSLAYER1
  6
CONTINUOUS
 62
     6
 10
1587.371436
 20
272.211086
 11
1587.261549
 21
272.019277
  0
LINE
  8
CSLAYER1
  6
CONTINUOUS
 62
     6
 10
1587.261549
 20
272.019277
 11
1587.143295
 21
271.819790
  0
LINE
  8
CSLAYER1
  6
CONTINUOUS
 62
     6
 10
1587.143295
 20
271.819790
 11
1587.018257
 21
271.614810
  0
LINE
  8
CSLAYER1
  6
CONTINUOUS
 62
     6
 10
1587.018257
 20
271.614810
 11
1586.888015
 21
271.406525
  0
LINE
  8
CSLAYER1
  6
CONTINUOUS
 62
     6
 10
1586.888015
 20
271.406525
 11
1586.754153
 21
271.197119
  0
LINE
  8
CSLAYER1
  6
CONTINUOUS
 62
     6
 10
1586.754153
 20
271.197119
 11
1586.618251
 21
270.988779
  0
LINE
  8
CSLAYER1
  6
CONTINUOUS
 62
     6
 10
1586.618251
 20
270.988779
 11
1586.481890
 21
270.783692
  0
LINE
  8
CSLAYER1
  6
CONTINUOUS
 62
     6
 10
1586.481890
 20
270.783692
 11
1586.346654
 21
270.584042
  0
LINE
  8
CSLAYER1
  6
CONTINUOUS
 62
     6
 10
1586.346654
 20
270.584042
 11
1586.214123
 21
270.392017
  0
LINE
  8
CSLAYER1
  6
CONTINUOUS
 62
     6
 10
1586.214123
 20
270.392017
 11
1586.085878
 21
270.209803
  0
LINE
  8
CSLAYER1
  6
CONTINUOUS
 62
     6
 10
1586.085878
 20
270.209803
 11
1585.980798
 21
270.065624
  0
LINE
  8
CSLAYER1
  6
CONTINUOUS
 62
     6
 10
1585.980798
 20
270.065624
 11
1585.868907
 21
269.918574
  0
LINE
  8
CSLAYER1
  6
CONTINUOUS
 62
     6
 10
1585.868907
 20
269.918574
 11
1585.751339
 21
269.769552
  0
LINE
  8
CSLAYER1
  6
CONTINUOUS
 62
     6
 10
1585.751339
 20
269.769552
 11
1585.629225
 21
269.619458
  0
LINE
  8
CSLAYER1
  6
CONTINUOUS
 62
     6
 10
1585.629225
 20
269.619458
 11
1585.503699
 21
269.469190
  0
LINE
  8
CSLAYER1
  6
CONTINUOUS
 62
     6
 10
1585.503699
 20
269.469190
 11
1585.375894
 21
269.319647
  0
LINE
  8
CSLAYER1
  6
CONTINUOUS
 62
     6
 10
1585.375894
 20
269.319647
 11
1585.246941
 21
269.171729
  0
LINE
  8
CSLAYER1
  6
CONTINUOUS
 62
     6
 10
1585.246941
 20
269.171729
 11
1585.117974
 21
269.026334
  0
LINE
  8
CSLAYER1
  6
CONTINUOUS
 62
     6
 10
1585.117974
 20
269.026334
 11
1584.990125
 21
268.884362
  0
LINE
  8
CSLAYER1
  6
CONTINUOUS
 62
     6
 10
1584.990125
 20
268.884362
 11
1584.864526
 21
268.746712
  0
LINE
  8
CSLAYER1
  6
CONTINUOUS
 62
     6
 10
1584.864526
 20
268.746712
 11
1584.742311
 21
268.614283
  0
LINE
  8
CSLAYER1
  6
CONTINUOUS
 62
     6
 10
1584.742311
 20
268.614283
 11
1584.597335
 21
268.462123
  0
LINE
  8
CSLAYER1
  6
CONTINUOUS
 62
     6
 10
1584.597335
 20
268.462123
 11
1584.444160
 21
268.308172
  0
LINE
  8
CSLAYER1
  6
CONTINUOUS
 62
     6
 10
1584.444160
 20
268.308172
 11
1584.284751
 21
268.152739
  0
LINE
  8
CSLAYER1
  6
CONTINUOUS
 62
     6
 10
1584.284751
 20
268.152739
 11
1584.121074
 21
267.996131
  0
LINE
  8
CSLAYER1
  6
CONTINUOUS
 62
     6
 10
1584.121074
 20
267.996131
 11
1583.955094
 21
267.838657
  0
LINE
  8
CSLAYER1
  6
CONTINUOUS
 62
     6
 10
1583.955094
 20
267.838657
 11
1583.788776
 21
267.680626
  0
LINE
  8
CSLAYER1
  6
CONTINUOUS
 62
     6
 10
1583.788776
 20
267.680626
 11
1583.624086
 21
267.522346
  0
LINE
  8
CSLAYER1
  6
CONTINUOUS
 62
     6
 10
1583.624086
 20
267.522346
 11
1583.462989
 21
267.364126
  0
LINE
  8
CSLAYER1
  6
CONTINUOUS
 62
     6
 10
1583.462989
 20
267.364126
 11
1583.307450
 21
267.206274
  0
LINE
  8
CSLAYER1
  6
CONTINUOUS
 62
     6
 10
1583.307450
 20
267.206274
 11
1583.159434
 21
267.049098
  0
LINE
  8
CSLAYER1
  6
CONTINUOUS
 62
     6
 10
1583.159434
 20
267.049098
 11
1583.020906
 21
266.892908
  0
LINE
  8
CSLAYER1
  6
CONTINUOUS
 62
     6
 10
1583.020906
 20
266.892908
 11
1582.894991
 21
266.746326
  0
LINE
  8
CSLAYER1
  6
CONTINUOUS
 62
     6
 10
1582.894991
 20
266.746326
 11
1582.764182
 21
266.596148
  0
LINE
  8
CSLAYER1
  6
CONTINUOUS
 62
     6
 10
1582.764182
 20
266.596148
 11
1582.628579
 21
266.443928
  0
LINE
  8
CSLAYER1
  6
CONTINUOUS
 62
     6
 10
1582.628579
 20
266.443928
 11
1582.488286
 21
266.291223
  0
LINE
  8
CSLAYER1
  6
CONTINUOUS
 62
     6
 10
1582.488286
 20
266.291223
 11
1582.343403
 21
266.139590
  0
LINE
  8
CSLAYER1
  6
CONTINUOUS
 62
     6
 10
1582.343403
 20
266.139590
 11
1582.194032
 21
265.990583
  0
LINE
  8
CSLAYER1
  6
CONTINUOUS
 62
     6
 10
1582.194032
 20
265.990583
 11
1582.040276
 21
265.845759
  0
LINE
  8
CSLAYER1
  6
CONTINUOUS
 62
     6
 10
1582.040276
 20
265.845759
 11
1581.882235
 21
265.706674
  0
LINE
  8
CSLAYER1
  6
CONTINUOUS
 62
     6
 10
1581.882235
 20
265.706674
 11
1581.720011
 21
265.574884
  0
LINE
  8
CSLAYER1
  6
CONTINUOUS
 62
     6
 10
1581.720011
 20
265.574884
 11
1581.553707
 21
265.451944
  0
LINE
  8
CSLAYER1
  6
CONTINUOUS
 62
     6
 10
1581.553707
 20
265.451944
 11
1581.383424
 21
265.339411
  0
LINE
  8
CSLAYER1
  6
CONTINUOUS
 62
     6
 10
1581.383424
 20
265.339411
 11
1581.290690
 21
265.283985
  0
LINE
  8
CSLAYER1
  6
CONTINUOUS
 62
     6
 10
1581.290690
 20
265.283985
 11
1581.196098
 21
265.231308
  0
LINE
  8
CSLAYER1
  6
CONTINUOUS
 62
     6
 10
1581.196098
 20
265.231308
 11
1581.099833
 21
265.181107
  0
LINE
  8
CSLAYER1
  6
CONTINUOUS
 62
     6
 10
1581.099833
 20
265.181107
 11
1581.002082
 21
265.133106
  0
LINE
  8
CSLAYER1
  6
CONTINUOUS
 62
     6
 10
1581.002082
 20
265.133106
 11
1580.903030
 21
265.087029
  0
LINE
  8
CSLAYER1
  6
CONTINUOUS
 62
     6
 10
1580.903030
 20
265.087029
 11
1580.802864
 21
265.042603
  0
LINE
  8
CSLAYER1
  6
CONTINUOUS
 62
     6
 10
1580.802864
 20
265.042603
 11
1580.701768
 21
264.999552
  0
LINE
  8
CSLAYER1
  6
CONTINUOUS
 62
     6
 10
1580.701768
 20
264.999552
 11
1580.599929
 21
264.957600
  0
LINE
  8
CSLAYER1
  6
CONTINUOUS
 62
     6
 10
1580.599929
 20
264.957600
 11
1580.497532
 21
264.916474
  0
LINE
  8
CSLAYER1
  6
CONTINUOUS
 62
     6
 10
1580.497532
 20
264.916474
 11
1580.394764
 21
264.875897
  0
LINE
  8
CSLAYER1
  6
CONTINUOUS
 62
     6
 10
1580.394764
 20
264.875897
 11
1580.291810
 21
264.835596
  0
ARC
  8
CSLAYER1
  6
CONTINUOUS
 62
     6
 10
1580.414542
 20
265.924568
 40
1.095863
 50
203.568976
 51
263.568976
  0
ARC
  8
CSLAYER1
  6
CONTINUOUS
 62
     6
 10
1579.532841
 20
266.575351
 40
1.095863
 50
203.568976
 51
263.568976
  0
LINE
  8
CSLAYER1
  6
CONTINUOUS
 62
     6
 10
1578.528413
 20
266.137171
 11
1578.781525
 21
266.317138
  0
LINE
  8
CSLAYER1
  6
CONTINUOUS
 62
     6
 10
1578.781525
 20
266.317138
 11
1579.034386
 21
266.497458
  0
LINE
  8
CSLAYER1
  6
CONTINUOUS
 62
     6
 10
1579.034386
 20
266.497458
 11
1579.286746
 21
266.678484
  0
LINE
  8
CSLAYER1
  6
CONTINUOUS
 62
     6
 10
1579.286746
 20
266.678484
 11
1579.538354
 21
266.860568
  0
LINE
  8
CSLAYER1
  6
CONTINUOUS
 62
     6
 10
1579.538354
 20
266.860568
 11
1579.788959
 21
267.044063
  0
LINE
  8
CSLAYER1
  6
CONTINUOUS
 62
     6
 10
1579.788959
 20
267.044063
 11
1580.038312
 21
267.229322
  0
LINE
  8
CSLAYER1
  6
CONTINUOUS
 62
     6
 10
1580.038312
 20
267.229322
 11
1580.286161
 21
267.416697
  0
LINE
  8
CSLAYER1
  6
CONTINUOUS
 62
     6
 10
1580.286161
 20
267.416697
 11
1580.532256
 21
267.606542
  0
LINE
  8
CSLAYER1
  6
CONTINUOUS
 62
     6
 10
1580.532256
 20
267.606542
 11
1580.776346
 21
267.799210
  0
LINE
  8
CSLAYER1
  6
CONTINUOUS
 62
     6
 10
1580.776346
 20
267.799210
 11
1581.018180
 21
267.995052
  0
LINE
  8
CSLAYER1
  6
CONTINUOUS
 62
     6
 10
1581.018180
 20
267.995052
 11
1581.257508
 21
268.194422
  0
LINE
  8
CSLAYER1
  6
CONTINUOUS
 62
     6
 10
1581.257508
 20
268.194422
 11
1581.414773
 21
268.328719
  0
LINE
  8
CSLAYER1
  6
CONTINUOUS
 62
     6
 10
1581.414773
 20
268.328719
 11
1581.571822
 21
268.465743
  0
LINE
  8
CSLAYER1
  6
CONTINUOUS
 62
     6
 10
1581.571822
 20
268.465743
 11
1581.727913
 21
268.605303
  0
LINE
  8
CSLAYER1
  6
CONTINUOUS
 62
     6
 10
1581.727913
 20
268.605303
 11
1581.882303
 21
268.747205
  0
LINE
  8
CSLAYER1
  6
CONTINUOUS
 62
     6
 10
1581.882303
 20
268.747205
 11
1582.034247
 21
268.891258
  0
LINE
  8
CSLAYER1
  6
CONTINUOUS
 62
     6
 10
1582.034247
 20
268.891258
 11
1582.183004
 21
269.037268
  0
LINE
  8
CSLAYER1
  6
CONTINUOUS
 62
     6
 10
1582.183004
 20
269.037268
 11
1582.327830
 21
269.185043
  0
LINE
  8
CSLAYER1
  6
CONTINUOUS
 62
     6
 10
1582.327830
 20
269.185043
 11
1582.467983
 21
269.334390
  0
LINE
  8
CSLAYER1
  6
CONTINUOUS
 62
     6
 10
1582.467983
 20
269.334390
 11
1582.602719
 21
269.485118
  0
LINE
  8
CSLAYER1
  6
CONTINUOUS
 62
     6
 10
1582.602719
 20
269.485118
 11
1582.731294
 21
269.637033
  0
LINE
  8
CSLAYER1
  6
CONTINUOUS
 62
     6
 10
1582.731294
 20
269.637033
 11
1582.852967
 21
269.789942
  0
LINE
  8
CSLAYER1
  6
CONTINUOUS
 62
     6
 10
1582.852967
 20
269.789942
 11
1582.967422
 21
269.941268
  0
LINE
  8
CSLAYER1
  6
CONTINUOUS
 62
     6
 10
1582.967422
 20
269.941268
 11
1583.082723
 21
270.098522
  0
LINE
  8
CSLAYER1
  6
CONTINUOUS
 62
     6
 10
1583.082723
 20
270.098522
 11
1583.198336
 21
270.260580
  0
LINE
  8
CSLAYER1
  6
CONTINUOUS
 62
     6
 10
1583.198336
 20
270.260580
 11
1583.313729
 21
270.426320
  0
LINE
  8
CSLAYER1
  6
CONTINUOUS
 62
     6
 10
1583.313729
 20
270.426320
 11
1583.428369
 21
270.594619
  0
LINE
  8
CSLAYER1
  6
CONTINUOUS
 62
     6
 10
1583.428369
 20
270.594619
 11
1583.541723
 21
270.764355
  0
LINE
  8
CSLAYER1
  6
CONTINUOUS
 62
     6
 10
1583.541723
 20
270.764355
 11
1583.653258
 21
270.934406
  0
LINE
  8
CSLAYER1
  6
CONTINUOUS
 62
     6
 10
1583.653258
 20
270.934406
 11
1583.762443
 21
271.103648
  0
LINE
  8
CSLAYER1
  6
CONTINUOUS
 62
     6
 10
1583.762443
 20
271.103648
 11
1583.868742
 21
271.270960
  0
LINE
  8
CSLAYER1
  6
CONTINUOUS
 62
     6
 10
1583.868742
 20
271.270960
 11
1583.971625
 21
271.435219
  0
LINE
  8
CSLAYER1
  6
CONTINUOUS
 62
     6
 10
1583.971625
 20
271.435219
 11
1584.070558
 21
271.595301
  0
LINE
  8
CSLAYER1
  6
CONTINUOUS
 62
     6
 10
1584.070558
 20
271.595301
 11
1584.157032
 21
271.733527
  0
LINE
  8
CSLAYER1
  6
CONTINUOUS
 62
     6
 10
1584.157032
 20
271.733527
 11
1584.248984
 21
271.875985
  0
LINE
  8
CSLAYER1
  6
CONTINUOUS
 62
     6
 10
1584.248984
 20
271.875985
 11
1584.345184
 21
272.021465
  0
LINE
  8
CSLAYER1
  6
CONTINUOUS
 62
     6
 10
1584.345184
 20
272.021465
 11
1584.444403
 21
272.168755
  0
LINE
  8
CSLAYER1
  6
CONTINUOUS
 62
     6
 10
1584.444403
 20
272.168755
 11
1584.545411
 21
272.316645
  0
LINE
  8
CSLAYER1
  6
CONTINUOUS
 62
     6
 10
1584.545411
 20
272.316645
 11
1584.646979
 21
272.463924
  0
LINE
  8
CSLAYER1
  6
CONTINUOUS
 62
     6
 10
1584.646979
 20
272.463924
 11
1584.747877
 21
272.609380
  0
LINE
  8
CSLAYER1
  6
CONTINUOUS
 62
     6
 10
1584.747877
 20
272.609380
 11
1584.846876
 21
272.751804
  0
LINE
  8
CSLAYER1
  6
CONTINUOUS
 62
     6
 10
1584.846876
 20
272.751804
 11
1584.942745
 21
272.889984
  0
LINE
  8
CSLAYER1
  6
CONTINUOUS
 62
     6
 10
1584.942745
 20
272.889984
 11
1585.063287
 21
273.064814
  0
LINE
  8
CSLAYER1
  6
CONTINUOUS
 62
     6
 10
1593.200122
 20
275.564814
 11
1593.644000
 21
274.864832
  0
LINE
  8
CSLAYER1
  6
CONTINUOUS
 62
     6
 10
1594.144000
 20
274.864832
 11
1593.700122
 21
275.564814
  0
ARC
  8
CSLAYER1
  6
CONTINUOUS
 62
     6
 10
1596.348071
 20
275.464808
 40
0.100000
 50
0.000010
 51
90.000016
  0
LINE
  8
CSLAYER1
  6
CONTINUOUS
 62
     6
 10
1596.448047
 20
275.464808
 11
1596.448047
 21
274.964808
  0
ARC
  8
CSLAYER1
  6
CONTINUOUS
 62
     6
 10
1596.348071
 20
274.964808
 40
0.100000
 50
270.000001
 51
359.942691
  0
ARC
  8
CSLAYER1
  6
CONTINUOUS
 62
     6
 10
1585.250207
 20
262.414222
 40
1.200008
 50
30.461486
 51
90.461486
  0
ARC
  8
CSLAYER1
  6
CONTINUOUS
 62
     6
 10
1584.487176
 20
263.331178
 40
1.164461
 50
206.024005
 51
266.024005
  0
ARC
  8
CSLAYER1
  6
CONTINUOUS
 62
     6
 10
1583.360038
 20
261.658616
 40
1.164461
 50
26.024005
 51
86.024005
  0
ARC
  8
CSLAYER1
  6
CONTINUOUS
 62
     6
 10
1584.325692
 20
261.007862
 40
1.164461
 50
21.658505
 51
86.024005
  0
LINE
  8
CSLAYER1
  6
CONTINUOUS
 62
     6
 10
1585.407942
 20
261.437634
 11
1585.238685
 21
261.230033
  0
LINE
  8
CSLAYER1
  6
CONTINUOUS
 62
     6
 10
1585.238685
 20
261.230033
 11
1585.114643
 21
261.077921
  0
LINE
  8
CSLAYER1
  6
CONTINUOUS
 62
     6
 10
1585.114643
 20
261.077921
 11
1584.985357
 21
260.918591
  0
LINE
  8
CSLAYER1
  6
CONTINUOUS
 62
     6
 10
1584.985357
 20
260.918591
 11
1584.852658
 21
260.753469
  0
LINE
  8
CSLAYER1
  6
CONTINUOUS
 62
     6
 10
1584.852658
 20
260.753469
 11
1584.718377
 21
260.583984
  0
LINE
  8
CSLAYER1
  6
CONTINUOUS
 62
     6
 10
1584.718377
 20
260.583984
 11
1584.584345
 21
260.411563
  0
LINE
  8
CSLAYER1
  6
CONTINUOUS
 62
     6
 10
1584.584345
 20
260.411563
 11
1584.452393
 21
260.237633
  0
LINE
  8
CSLAYER1
  6
CONTINUOUS
 62
     6
 10
1584.452393
 20
260.237633
 11
1584.324351
 21
260.063623
  0
LINE
  8
CSLAYER1
  6
CONTINUOUS
 62
     6
 10
1584.324351
 20
260.063623
 11
1584.202051
 21
259.890960
  0
LINE
  8
CSLAYER1
  6
CONTINUOUS
 62
     6
 10
1584.202051
 20
259.890960
 11
1584.087322
 21
259.721071
  0
LINE
  8
CSLAYER1
  6
CONTINUOUS
 62
     6
 10
1584.087322
 20
259.721071
 11
1583.981996
 21
259.555384
  0
LINE
  8
CSLAYER1
  6
CONTINUOUS
 62
     6
 10
1583.981996
 20
259.555384
 11
1583.874372
 21
259.377700
  0
LINE
  8
CSLAYER1
  6
CONTINUOUS
 62
     6
 10
1583.874372
 20
259.377700
 11
1583.765126
 21
259.194257
  0
LINE
  8
CSLAYER1
  6
CONTINUOUS
 62
     6
 10
1583.765126
 20
259.194257
 11
1583.653977
 21
259.006412
  0
LINE
  8
CSLAYER1
  6
CONTINUOUS
 62
     6
 10
1583.653977
 20
259.006412
 11
1583.540645
 21
258.815521
  0
LINE
  8
CSLAYER1
  6
CONTINUOUS
 62
     6
 10
1583.540645
 20
258.815521
 11
1583.424847
 21
258.622941
  0
LINE
  8
CSLAYER1
  6
CONTINUOUS
 62
     6
 10
1583.424847
 20
258.622941
 11
1583.306302
 21
258.430028
  0
LINE
  8
CSLAYER1
  6
CONTINUOUS
 62
     6
 10
1583.306302
 20
258.430028
 11
1583.184730
 21
258.238140
  0
LINE
  8
CSLAYER1
  6
CONTINUOUS
 62
     6
 10
1583.184730
 20
258.238140
 11
1583.059849
 21
258.048632
  0
LINE
  8
CSLAYER1
  6
CONTINUOUS
 62
     6
 10
1583.059849
 20
258.048632
 11
1582.931377
 21
257.862862
  0
LINE
  8
CSLAYER1
  6
CONTINUOUS
 62
     6
 10
1582.931377
 20
257.862862
 11
1582.799034
 21
257.682186
  0
LINE
  8
CSLAYER1
  6
CONTINUOUS
 62
     6
 10
1582.799034
 20
257.682186
 11
1582.662538
 21
257.507960
  0
LINE
  8
CSLAYER1
  6
CONTINUOUS
 62
     6
 10
1582.662538
 20
257.507960
 11
1582.548167
 21
257.371797
  0
LINE
  8
CSLAYER1
  6
CONTINUOUS
 62
     6
 10
1582.548167
 20
257.371797
 11
1582.429657
 21
257.238991
  0
LINE
  8
CSLAYER1
  6
CONTINUOUS
 62
     6
 10
1582.429657
 20
257.238991
 11
1582.307424
 21
257.109208
  0
LINE
  8
CSLAYER1
  6
CONTINUOUS
 62
     6
 10
1582.307424
 20
257.109208
 11
1582.181881
 21
256.982110
  0
LINE
  8
CSLAYER1
  6
CONTINUOUS
 62
     6
 10
1582.181881
 20
256.982110
 11
1582.053441
 21
256.857362
  0
LINE
  8
CSLAYER1
  6
CONTINUOUS
 62
     6
 10
1582.053441
 20
256.857362
 11
1581.922518
 21
256.734629
  0
LINE
  8
CSLAYER1
  6
CONTINUOUS
 62
     6
 10
1581.922518
 20
256.734629
 11
1581.789527
 21
256.613574
  0
LINE
  8
CSLAYER1
  6
CONTINUOUS
 62
     6
 10
1581.789527
 20
256.613574
 11
1581.654881
 21
256.493863
  0
LINE
  8
CSLAYER1
  6
CONTINUOUS
 62
     6
 10
1581.654881
 20
256.493863
 11
1581.518993
 21
256.375159
  0
LINE
  8
CSLAYER1
  6
CONTINUOUS
 62
     6
 10
1581.518993
 20
256.375159
 11
1581.382278
 21
256.257126
  0
LINE
  8
CSLAYER1
  6
CONTINUOUS
 62
     6
 10
1581.382278
 20
256.257126
 11
1581.254931
 21
256.147825
  0
LINE
  8
CSLAYER1
  6
CONTINUOUS
 62
     6
 10
1581.254931
 20
256.147825
 11
1581.202858
 21
256.213868
  0
LINE
  8
CSLAYER1
  6
CONTINUOUS
 62
     6
 10
1581.202858
 20
256.213868
 11
1581.148459
 21
256.283340
  0
LINE
  8
CSLAYER1
  6
CONTINUOUS
 62
     6
 10
1581.148459
 20
256.283340
 11
1581.094563
 21
256.353133
  0
LINE
  8
CSLAYER1
  6
CONTINUOUS
 62
     6
 10
1581.094563
 20
256.353133
 11
1581.041421
 21
256.423407
  0
LINE
  8
CSLAYER1
  6
CONTINUOUS
 62
     6
 10
1581.041421
 20
256.423407
 11
1580.989285
 21
256.494324
  0
LINE
  8
CSLAYER1
  6
CONTINUOUS
 62
     6
 10
1580.989285
 20
256.494324
 11
1580.938406
 21
256.566042
  0
LINE
  8
CSLAYER1
  6
CONTINUOUS
 62
     6
 10
1580.938406
 20
256.566042
 11
1580.889036
 21
256.638724
  0
LINE
  8
CSLAYER1
  6
CONTINUOUS
 62
     6
 10
1580.889036
 20
256.638724
 11
1580.841426
 21
256.712528
  0
LINE
  8
CSLAYER1
  6
CONTINUOUS
 62
     6
 10
1580.841426
 20
256.712528
 11
1580.795828
 21
256.787617
  0
LINE
  8
CSLAYER1
  6
CONTINUOUS
 62
     6
 10
1580.795828
 20
256.787617
 11
1580.752492
 21
256.864149
  0
LINE
  8
CSLAYER1
  6
CONTINUOUS
 62
     6
 10
1580.752492
 20
256.864149
 11
1580.711671
 21
256.942286
  0
LINE
  8
CSLAYER1
  6
CONTINUOUS
 62
     6
 10
1580.711671
 20
256.942286
 11
1580.696409
 21
256.973240
  0
LINE
  8
CSLAYER1
  6
CONTINUOUS
 62
     6
 10
1580.696409
 20
256.973240
 11
1580.681271
 21
257.004612
  0
LINE
  8
CSLAYER1
  6
CONTINUOUS
 62
     6
 10
1580.681271
 20
257.004612
 11
1580.666215
 21
257.036234
  0
LINE
  8
CSLAYER1
  6
CONTINUOUS
 62
     6
 10
1580.666215
 20
257.036234
 11
1580.651200
 21
257.067939
  0
LINE
  8
CSLAYER1
  6
CONTINUOUS
 62
     6
 10
1580.651200
 20
257.067939
 11
1580.636183
 21
257.099561
  0
LINE
  8
CSLAYER1
  6
CONTINUOUS
 62
     6
 10
1580.636183
 20
257.099561
 11
1580.621123
 21
257.130931
  0
LINE
  8
CSLAYER1
  6
CONTINUOUS
 62
     6
 10
1580.621123
 20
257.130931
 11
1580.605977
 21
257.161883
  0
LINE
  8
CSLAYER1
  6
CONTINUOUS
 62
     6
 10
1580.605977
 20
257.161883
 11
1580.590704
 21
257.192249
  0
LINE
  8
CSLAYER1
  6
CONTINUOUS
 62
     6
 10
1580.590704
 20
257.192249
 11
1580.575262
 21
257.221862
  0
LINE
  8
CSLAYER1
  6
CONTINUOUS
 62
     6
 10
1580.575262
 20
257.221862
 11
1580.559609
 21
257.250556
  0
LINE
  8
CSLAYER1
  6
CONTINUOUS
 62
     6
 10
1580.559609
 20
257.250556
 11
1580.543702
 21
257.278162
  0
LINE
  8
CSLAYER1
  6
CONTINUOUS
 62
     6
 10
1580.543702
 20
257.278162
 11
1580.491836
 21
257.357212
  0
LINE
  8
CSLAYER1
  6
CONTINUOUS
 62
     6
 10
1580.491836
 20
257.357212
 11
1580.431266
 21
257.435411
  0
LINE
  8
CSLAYER1
  6
CONTINUOUS
 62
     6
 10
1580.431266
 20
257.435411
 11
1580.363263
 21
257.512098
  0
LINE
  8
CSLAYER1
  6
CONTINUOUS
 62
     6
 10
1580.363263
 20
257.512098
 11
1580.289097
 21
257.586614
  0
LINE
  8
CSLAYER1
  6
CONTINUOUS
 62
     6
 10
1580.289097
 20
257.586614
 11
1580.210038
 21
257.658297
  0
LINE
  8
CSLAYER1
  6
CONTINUOUS
 62
     6
 10
1580.210038
 20
257.658297
 11
1580.127355
 21
257.726488
  0
LINE
  8
CSLAYER1
  6
CONTINUOUS
 62
     6
 10
1580.127355
 20
257.726488
 11
1580.042320
 21
257.790526
  0
LINE
  8
CSLAYER1
  6
CONTINUOUS
 62
     6
 10
1580.042320
 20
257.790526
 11
1579.956200
 21
257.849750
  0
LINE
  8
CSLAYER1
  6
CONTINUOUS
 62
     6
 10
1579.956200
 20
257.849750
 11
1579.870268
 21
257.903500
  0
LINE
  8
CSLAYER1
  6
CONTINUOUS
 62
     6
 10
1579.870268
 20
257.903500
 11
1579.785792
 21
257.951117
  0
LINE
  8
CSLAYER1
  6
CONTINUOUS
 62
     6
 10
1579.785792
 20
257.951117
 11
1579.716644
 21
257.985645
  0
LINE
  8
CSLAYER1
  6
CONTINUOUS
 62
     6
 10
1579.716644
 20
257.985645
 11
1579.812671
 21
258.068973
  0
LINE
  8
CSLAYER1
  6
CONTINUOUS
 62
     6
 10
1579.812671
 20
258.068973
 11
1579.929126
 21
258.171168
  0
LINE
  8
CSLAYER1
  6
CONTINUOUS
 62
     6
 10
1579.929126
 20
258.171168
 11
1580.044563
 21
258.274188
  0
LINE
  8
CSLAYER1
  6
CONTINUOUS
 62
     6
 10
1580.044563
 20
258.274188
 11
1580.158644
 21
258.378310
  0
LINE
  8
CSLAYER1
  6
CONTINUOUS
 62
     6
 10
1580.158644
 20
258.378310
 11
1580.271030
 21
258.483808
  0
LINE
  8
CSLAYER1
  6
CONTINUOUS
 62
     6
 10
1580.271030
 20
258.483808
 11
1580.381381
 21
258.590959
  0
LINE
  8
CSLAYER1
  6
CONTINUOUS
 62
     6
 10
1580.381381
 20
258.590959
 11
1580.489358
 21
258.700037
  0
LINE
  8
CSLAYER1
  6
CONTINUOUS
 62
     6
 10
1580.489358
 20
258.700037
 11
1580.594622
 21
258.811318
  0
LINE
  8
CSLAYER1
  6
CONTINUOUS
 62
     6
 10
1580.594622
 20
258.811318
 11
1580.696834
 21
258.925077
  0
LINE
  8
CSLAYER1
  6
CONTINUOUS
 62
     6
 10
1580.696834
 20
258.925077
 11
1580.795655
 21
259.041590
  0
LINE
  8
CSLAYER1
  6
CONTINUOUS
 62
     6
 10
1580.795655
 20
259.041590
 11
1580.922496
 21
259.201812
  0
LINE
  8
CSLAYER1
  6
CONTINUOUS
 62
     6
 10
1580.922496
 20
259.201812
 11
1581.045486
 21
259.368248
  0
LINE
  8
CSLAYER1
  6
CONTINUOUS
 62
     6
 10
1581.045486
 20
259.368248
 11
1581.164833
 21
259.539596
  0
LINE
  8
CSLAYER1
  6
CONTINUOUS
 62
     6
 10
1581.164833
 20
259.539596
 11
1581.280744
 21
259.714554
  0
LINE
  8
CSLAYER1
  6
CONTINUOUS
 62
     6
 10
1581.280744
 20
259.714554
 11
1581.393424
 21
259.891819
  0
LINE
  8
CSLAYER1
  6
CONTINUOUS
 62
     6
 10
1581.393424
 20
259.891819
 11
1581.503082
 21
260.070088
  0
LINE
  8
CSLAYER1
  6
CONTINUOUS
 62
     6
 10
1581.503082
 20
260.070088
 11
1581.609922
 21
260.248061
  0
LINE
  8
CSLAYER1
  6
CONTINUOUS
 62
     6
 10
1581.609922
 20
260.248061
 11
1581.714152
 21
260.424434
  0
LINE
  8
CSLAYER1
  6
CONTINUOUS
 62
     6
 10
1581.714152
 20
260.424434
 11
1581.815978
 21
260.597905
  0
LINE
  8
CSLAYER1
  6
CONTINUOUS
 62
     6
 10
1581.815978
 20
260.597905
 11
1581.915607
 21
260.767172
  0
LINE
  8
CSLAYER1
  6
CONTINUOUS
 62
     6
 10
1581.915607
 20
260.767172
 11
1582.013246
 21
260.930933
  0
LINE
  8
CSLAYER1
  6
CONTINUOUS
 62
     6
 10
1582.013246
 20
260.930933
 11
1582.121065
 21
261.102957
  0
LINE
  8
CSLAYER1
  6
CONTINUOUS
 62
     6
 10
1582.121065
 20
261.102957
 11
1582.239384
 21
261.279643
  0
LINE
  8
CSLAYER1
  6
CONTINUOUS
 62
     6
 10
1582.239384
 20
261.279643
 11
1582.366168
 21
261.459420
  0
LINE
  8
CSLAYER1
  6
CONTINUOUS
 62
     6
 10
1582.366168
 20
261.459420
 11
1582.499380
 21
261.640717
  0
LINE
  8
CSLAYER1
  6
CONTINUOUS
 62
     6
 10
1582.499380
 20
261.640717
 11
1582.636983
 21
261.821960
  0
LINE
  8
CSLAYER1
  6
CONTINUOUS
 62
     6
 10
1582.636983
 20
261.821960
 11
1582.776941
 21
262.001578
  0
LINE
  8
CSLAYER1
  6
CONTINUOUS
 62
     6
 10
1582.776941
 20
262.001578
 11
1582.917216
 21
262.178000
  0
LINE
  8
CSLAYER1
  6
CONTINUOUS
 62
     6
 10
1582.917216
 20
262.178000
 11
1583.055773
 21
262.349652
  0
LINE
  8
CSLAYER1
  6
CONTINUOUS
 62
     6
 10
1583.055773
 20
262.349652
 11
1583.190575
 21
262.514964
  0
LINE
  8
CSLAYER1
  6
CONTINUOUS
 62
     6
 10
1583.190575
 20
262.514964
 11
1583.319585
 21
262.672363
  0
LINE
  8
CSLAYER1
  6
CONTINUOUS
 62
     6
 10
1583.319585
 20
262.672363
 11
1583.440766
 21
262.820277
  0
ARC
  8
CSLAYER1
  6
CONTINUOUS
 62
     6
 10
1579.287352
 20
264.397417
 40
1.095863
 50
23.568976
 51
83.568976
  0
LINE
  8
CSLAYER1
  6
CONTINUOUS
 62
     6
 10
1578.947510
 20
264.122228
 11
1578.842250
 21
263.906688
  0
LINE
  8
CSLAYER1
  6
CONTINUOUS
 62
     6
 10
1578.842250
 20
263.906688
 11
1578.771741
 21
263.770720
  0
LINE
  8
CSLAYER1
  6
CONTINUOUS
 62
     6
 10
1578.771741
 20
263.770720
 11
1578.695352
 21
263.631653
  0
LINE
  8
CSLAYER1
  6
CONTINUOUS
 62
     6
 10
1578.695352
 20
263.631653
 11
1578.613651
 21
263.491179
  0
LINE
  8
CSLAYER1
  6
CONTINUOUS
 62
     6
 10
1578.613651
 20
263.491179
 11
1578.527205
 21
263.350986
  0
LINE
  8
CSLAYER1
  6
CONTINUOUS
 62
     6
 10
1578.527205
 20
263.350986
 11
1578.436580
 21
263.212764
  0
LINE
  8
CSLAYER1
  6
CONTINUOUS
 62
     6
 10
1578.436580
 20
263.212764
 11
1578.342346
 21
263.078204
  0
LINE
  8
CSLAYER1
  6
CONTINUOUS
 62
     6
 10
1578.342346
 20
263.078204
 11
1578.245067
 21
262.948995
  0
LINE
  8
CSLAYER1
  6
CONTINUOUS
 62
     6
 10
1578.245067
 20
262.948995
 11
1578.145313
 21
262.826828
  0
LINE
  8
CSLAYER1
  6
CONTINUOUS
 62
     6
 10
1578.145313
 20
262.826828
 11
1578.043649
 21
262.713392
  0
LINE
  8
CSLAYER1
  6
CONTINUOUS
 62
     6
 10
1578.043649
 20
262.713392
 11
1577.940644
 21
262.610377
  0
LINE
  8
CSLAYER1
  6
CONTINUOUS
 62
     6
 10
1577.940644
 20
262.610377
 11
1577.808095
 21
262.493749
  0
LINE
  8
CSLAYER1
  6
CONTINUOUS
 62
     6
 10
1577.808095
 20
262.493749
 11
1577.664956
 21
262.381163
  0
LINE
  8
CSLAYER1
  6
CONTINUOUS
 62
     6
 10
1577.664956
 20
262.381163
 11
1577.513160
 21
262.271669
  0
LINE
  8
CSLAYER1
  6
CONTINUOUS
 62
     6
 10
1577.513160
 20
262.271669
 11
1577.354642
 21
262.164314
  0
LINE
  8
CSLAYER1
  6
CONTINUOUS
 62
     6
 10
1577.354642
 20
262.164314
 11
1577.191335
 21
262.058147
  0
LINE
  8
CSLAYER1
  6
CONTINUOUS
 62
     6
 10
1577.191335
 20
262.058147
 11
1577.025174
 21
261.952214
  0
LINE
  8
CSLAYER1
  6
CONTINUOUS
 62
     6
 10
1577.025174
 20
261.952214
 11
1576.858093
 21
261.845565
  0
LINE
  8
CSLAYER1
  6
CONTINUOUS
 62
     6
 10
1576.858093
 20
261.845565
 11
1576.692024
 21
261.737246
  0
LINE
  8
CSLAYER1
  6
CONTINUOUS
 62
     6
 10
1576.692024
 20
261.737246
 11
1576.528904
 21
261.626306
  0
LINE
  8
CSLAYER1
  6
CONTINUOUS
 62
     6
 10
1576.528904
 20
261.626306
 11
1576.370664
 21
261.511794
  0
LINE
  8
CSLAYER1
  6
CONTINUOUS
 62
     6
 10
1576.370664
 20
261.511794
 11
1576.219239
 21
261.392756
  0
LINE
  8
CSLAYER1
  6
CONTINUOUS
 62
     6
 10
1576.219239
 20
261.392756
 11
1576.100924
 21
261.290718
  0
LINE
  8
CSLAYER1
  6
CONTINUOUS
 62
     6
 10
1576.100924
 20
261.290718
 11
1575.986967
 21
261.184027
  0
LINE
  8
CSLAYER1
  6
CONTINUOUS
 62
     6
 10
1575.986967
 20
261.184027
 11
1575.876933
 21
261.073149
  0
LINE
  8
CSLAYER1
  6
CONTINUOUS
 62
     6
 10
1575.876933
 20
261.073149
 11
1575.770386
 21
260.958549
  0
LINE
  8
CSLAYER1
  6
CONTINUOUS
 62
     6
 10
1575.770386
 20
260.958549
 11
1575.666889
 21
260.840692
  0
LINE
  8
CSLAYER1
  6
CONTINUOUS
 62
     6
 10
1575.666889
 20
260.840692
 11
1575.566008
 21
260.720044
  0
LINE
  8
CSLAYER1
  6
CONTINUOUS
 62
     6
 10
1575.566008
 20
260.720044
 11
1575.467306
 21
260.597069
  0
LINE
  8
CSLAYER1
  6
CONTINUOUS
 62
     6
 10
1575.467306
 20
260.597069
 11
1575.370347
 21
260.472233
  0
LINE
  8
CSLAYER1
  6
CONTINUOUS
 62
     6
 10
1575.370347
 20
260.472233
 11
1575.274696
 21
260.346002
  0
LINE
  8
CSLAYER1
  6
CONTINUOUS
 62
     6
 10
1575.274696
 20
260.346002
 11
1575.179916
 21
260.218839
  0
LINE
  8
CSLAYER1
  6
CONTINUOUS
 62
     6
 10
1575.179916
 20
260.218839
 11
1575.052660
 21
260.046689
  0
LINE
  8
CSLAYER1
  6
CONTINUOUS
 62
     6
 10
1575.052660
 20
260.046689
 11
1574.972041
 21
260.069152
  0
LINE
  8
CSLAYER1
  6
CONTINUOUS
 62
     6
 10
1574.972041
 20
260.069152
 11
1574.900453
 21
260.089042
  0
LINE
  8
CSLAYER1
  6
CONTINUOUS
 62
     6
 10
1574.900453
 20
260.089042
 11
1574.828768
 21
260.108848
  0
LINE
  8
CSLAYER1
  6
CONTINUOUS
 62
     6
 10
1574.828768
 20
260.108848
 11
1574.756936
 21
260.128526
  0
LINE
  8
CSLAYER1
  6
CONTINUOUS
 62
     6
 10
1574.756936
 20
260.128526
 11
1574.684909
 21
260.148035
  0
LINE
  8
CSLAYER1
  6
CONTINUOUS
 62
     6
 10
1574.684909
 20
260.148035
 11
1574.612638
 21
260.167331
  0
LINE
  8
CSLAYER1
  6
CONTINUOUS
 62
     6
 10
1574.612638
 20
260.167331
 11
1574.540074
 21
260.186374
  0
LINE
  8
CSLAYER1
  6
CONTINUOUS
 62
     6
 10
1574.540074
 20
260.186374
 11
1574.467168
 21
260.205119
  0
LINE
  8
CSLAYER1
  6
CONTINUOUS
 62
     6
 10
1574.467168
 20
260.205119
 11
1574.393872
 21
260.223525
  0
LINE
  8
CSLAYER1
  6
CONTINUOUS
 62
     6
 10
1574.393872
 20
260.223525
 11
1574.320136
 21
260.241550
  0
LINE
  8
CSLAYER1
  6
CONTINUOUS
 62
     6
 10
1574.320136
 20
260.241550
 11
1574.245912
 21
260.259150
  0
LINE
  8
CSLAYER1
  6
CONTINUOUS
 62
     6
 10
1574.245912
 20
260.259150
 11
1574.173336
 21
260.275905
  0
LINE
  8
CSLAYER1
  6
CONTINUOUS
 62
     6
 10
1574.173336
 20
260.275905
 11
1574.099862
 21
260.292840
  0
LINE
  8
CSLAYER1
  6
CONTINUOUS
 62
     6
 10
1574.099862
 20
260.292840
 11
1574.026047
 21
260.310306
  0
LINE
  8
CSLAYER1
  6
CONTINUOUS
 62
     6
 10
1574.026047
 20
260.310306
 11
1573.952449
 21
260.328651
  0
LINE
  8
CSLAYER1
  6
CONTINUOUS
 62
     6
 10
1573.952449
 20
260.328651
 11
1573.879624
 21
260.348225
  0
LINE
  8
CSLAYER1
  6
CONTINUOUS
 62
     6
 10
1573.879624
 20
260.348225
 11
1573.808130
 21
260.369379
  0
LINE
  8
CSLAYER1
  6
CONTINUOUS
 62
     6
 10
1573.808130
 20
260.369379
 11
1573.738524
 21
260.392461
  0
LINE
  8
CSLAYER1
  6
CONTINUOUS
 62
     6
 10
1573.738524
 20
260.392461
 11
1573.671362
 21
260.417822
  0
LINE
  8
CSLAYER1
  6
CONTINUOUS
 62
     6
 10
1573.671362
 20
260.417822
 11
1573.607201
 21
260.445811
  0
LINE
  8
CSLAYER1
  6
CONTINUOUS
 62
     6
 10
1573.607201
 20
260.445811
 11
1573.546599
 21
260.476778
  0
LINE
  8
CSLAYER1
  6
CONTINUOUS
 62
     6
 10
1573.546599
 20
260.476778
 11
1573.490113
 21
260.511072
  0
LINE
  8
CSLAYER1
  6
CONTINUOUS
 62
     6
 10
1573.490113
 20
260.511072
 11
1573.435086
 21
260.549917
  0
LINE
  8
CSLAYER1
  6
CONTINUOUS
 62
     6
 10
1573.435086
 20
260.549917
 11
1573.379575
 21
260.593422
  0
LINE
  8
CSLAYER1
  6
CONTINUOUS
 62
     6
 10
1573.379575
 20
260.593422
 11
1573.324104
 21
260.641008
  0
LINE
  8
CSLAYER1
  6
CONTINUOUS
 62
     6
 10
1573.324104
 20
260.641008
 11
1573.269194
 21
260.692093
  0
LINE
  8
CSLAYER1
  6
CONTINUOUS
 62
     6
 10
1573.269194
 20
260.692093
 11
1573.215365
 21
260.746097
  0
LINE
  8
CSLAYER1
  6
CONTINUOUS
 62
     6
 10
1573.215365
 20
260.746097
 11
1573.163141
 21
260.802437
  0
LINE
  8
CSLAYER1
  6
CONTINUOUS
 62
     6
 10
1573.163141
 20
260.802437
 11
1573.113042
 21
260.860535
  0
LINE
  8
CSLAYER1
  6
CONTINUOUS
 62
     6
 10
1573.113042
 20
260.860535
 11
1573.065591
 21
260.919808
  0
LINE
  8
CSLAYER1
  6
CONTINUOUS
 62
     6
 10
1573.065591
 20
260.919808
 11
1573.021309
 21
260.979676
  0
LINE
  8
CSLAYER1
  6
CONTINUOUS
 62
     6
 10
1573.021309
 20
260.979676
 11
1572.980717
 21
261.039557
  0
LINE
  8
CSLAYER1
  6
CONTINUOUS
 62
     6
 10
1572.980717
 20
261.039557
 11
1572.951979
 21
261.086412
  0
LINE
  8
CSLAYER1
  6
CONTINUOUS
 62
     6
 10
1572.951979
 20
261.086412
 11
1573.080534
 21
261.248830
  0
LINE
  8
CSLAYER1
  6
CONTINUOUS
 62
     6
 10
1573.080534
 20
261.248830
 11
1573.132837
 21
261.314778
  0
LINE
  8
CSLAYER1
  6
CONTINUOUS
 62
     6
 10
1573.132837
 20
261.314778
 11
1573.185259
 21
261.380616
  0
LINE
  8
CSLAYER1
  6
CONTINUOUS
 62
     6
 10
1573.185259
 20
261.380616
 11
1573.237860
 21
261.446286
  0
LINE
  8
CSLAYER1
  6
CONTINUOUS
 62
     6
 10
1573.237860
 20
261.446286
 11
1573.290700
 21
261.511734
  0
LINE
  8
CSLAYER1
  6
CONTINUOUS
 62
     6
 10
1573.290700
 20
261.511734
 11
1573.343838
 21
261.576904
  0
LINE
  8
CSLAYER1
  6
CONTINUOUS
 62
     6
 10
1573.343838
 20
261.576904
 11
1573.397334
 21
261.641740
  0
LINE
  8
CSLAYER1
  6
CONTINUOUS
 62
     6
 10
1573.397334
 20
261.641740
 11
1573.451247
 21
261.706186
  0
LINE
  8
CSLAYER1
  6
CONTINUOUS
 62
     6
 10
1573.451247
 20
261.706186
 11
1573.505638
 21
261.770188
  0
LINE
  8
CSLAYER1
  6
CONTINUOUS
 62
     6
 10
1573.505638
 20
261.770188
 11
1573.560566
 21
261.833688
  0
LINE
  8
CSLAYER1
  6
CONTINUOUS
 62
     6
 10
1573.560566
 20
261.833688
 11
1573.616090
 21
261.896632
  0
LINE
  8
CSLAYER1
  6
CONTINUOUS
 62
     6
 10
1573.616090
 20
261.896632
 11
1573.755444
 21
262.049268
  0
LINE
  8
CSLAYER1
  6
CONTINUOUS
 62
     6
 10
1573.755444
 20
262.049268
 11
1573.900126
 21
262.201024
  0
LINE
  8
CSLAYER1
  6
CONTINUOUS
 62
     6
 10
1573.900126
 20
262.201024
 11
1574.048993
 21
262.351434
  0
LINE
  8
CSLAYER1
  6
CONTINUOUS
 62
     6
 10
1574.048993
 20
262.351434
 11
1574.200904
 21
262.500029
  0
LINE
  8
CSLAYER1
  6
CONTINUOUS
 62
     6
 10
1574.200904
 20
262.500029
 11
1574.354715
 21
262.646341
  0
LINE
  8
CSLAYER1
  6
CONTINUOUS
 62
     6
 10
1574.354715
 20
262.646341
 11
1574.509285
 21
262.789904
  0
LINE
  8
CSLAYER1
  6
CONTINUOUS
 62
     6
 10
1574.509285
 20
262.789904
 11
1574.663472
 21
262.930249
  0
LINE
  8
CSLAYER1
  6
CONTINUOUS
 62
     6
 10
1574.663472
 20
262.930249
 11
1574.816134
 21
263.066908
  0
LINE
  8
CSLAYER1
  6
CONTINUOUS
 62
     6
 10
1574.816134
 20
263.066908
 11
1574.966127
 21
263.199415
  0
LINE
  8
CSLAYER1
  6
CONTINUOUS
 62
     6
 10
1574.966127
 20
263.199415
 11
1575.112310
 21
263.327301
  0
LINE
  8
CSLAYER1
  6
CONTINUOUS
 62
     6
 10
1575.112310
 20
263.327301
 11
1575.253541
 21
263.450098
  0
LINE
  8
CSLAYER1
  6
CONTINUOUS
 62
     6
 10
1575.253541
 20
263.450098
 11
1575.410447
 21
263.588862
  0
LINE
  8
CSLAYER1
  6
CONTINUOUS
 62
     6
 10
1575.410447
 20
263.588862
 11
1575.574124
 21
263.738147
  0
LINE
  8
CSLAYER1
  6
CONTINUOUS
 62
     6
 10
1575.574124
 20
263.738147
 11
1575.742797
 21
263.895626
  0
LINE
  8
CSLAYER1
  6
CONTINUOUS
 62
     6
 10
1575.742797
 20
263.895626
 11
1575.914689
 21
264.058975
  0
LINE
  8
CSLAYER1
  6
CONTINUOUS
 62
     6
 10
1575.914689
 20
264.058975
 11
1576.088024
 21
264.225870
  0
LINE
  8
CSLAYER1
  6
CONTINUOUS
 62
     6
 10
1576.088024
 20
264.225870
 11
1576.261027
 21
264.393986
  0
LINE
  8
CSLAYER1
  6
CONTINUOUS
 62
     6
 10
1576.261027
 20
264.393986
 11
1576.431922
 21
264.560997
  0
LINE
  8
CSLAYER1
  6
CONTINUOUS
 62
     6
 10
1576.431922
 20
264.560997
 11
1576.598932
 21
264.724579
  0
LINE
  8
CSLAYER1
  6
CONTINUOUS
 62
     6
 10
1576.598932
 20
264.724579
 11
1576.760283
 21
264.882407
  0
LINE
  8
CSLAYER1
  6
CONTINUOUS
 62
     6
 10
1576.760283
 20
264.882407
 11
1576.914198
 21
265.032157
  0
LINE
  8
CSLAYER1
  6
CONTINUOUS
 62
     6
 10
1576.914198
 20
265.032157
 11
1577.058900
 21
265.171503
  0
ARC
  8
CSLAYER1
  6
CONTINUOUS
 62
     6
 10
1577.076708
 20
264.090983
 40
1.080690
 50
30.945197
 51
90.945197
  0
ARC
  8
CSLAYER1
  6
CONTINUOUS
 62
     6
 10
1578.021399
 20
263.566150
 40
1.080690
 50
30.945197
 51
90.945197
  0
ARC
  8
CSLAYER1
  6
CONTINUOUS
 62
     6
 10
1577.985745
 20
265.727236
 40
1.080690
 50
210.945197
 51
270.945197
  0
LINE
  8
CSLAYER1
  6
CONTINUOUS
 62
     6
 10
1574.310474
 20
260.243841
 11
1572.084352
 21
257.267603
  0
LINE
  8
CSLAYER1
  6
CONTINUOUS
 62
     6
 10
1571.399110
 20
257.716547
 11
1573.744641
 21
260.390433
  0
LINE
  8
CSLAYER1
  6
CONTINUOUS
 62
     6
 10
1573.327423
 20
260.638161
 11
1570.855653
 21
258.236353
  0
LINE
  8
CSLAYER1
  6
CONTINUOUS
 62
     6
 10
1577.424348
 20
255.188319
 11
1580.170195
 21
257.691157
  0
LINE
  8
CSLAYER1
  6
CONTINUOUS
 62
     6
 10
1580.481693
 20
257.370307
 11
1578.038697
 21
254.975672
  0
LINE
  8
CSLAYER1
  6
CONTINUOUS
 62
     6
 10
1578.511232
 20
254.408564
 11
1580.762163
 21
256.847070
  0
LINE
  8
CSLAYER1
  6
CONTINUOUS
 62
     6
 10
1567.548083
 20
273.564814
 11
1566.548083
 21
274.564814
  0
ARC
  8
CSLAYER1
  6
CONTINUOUS
 62
     6
 10
1580.548083
 20
292.564814
 40
1.000000
 50
179.999995
 51
269.999984
  0
LINE
  8
CSLAYER1
  6
CONTINUOUS
 62
     6
 10
1579.548083
 20
292.564814
 11
1579.548083
 21
293.564814
  0
ARC
  8
CSLAYER1
  6
CONTINUOUS
 62
     6
 10
1580.548083
 20
293.564814
 40
1.000000
 50
89.999999
 51
179.999981
  0
LINE
  8
CSLAYER1
  6
CONTINUOUS
 62
     6
 10
1580.548083
 20
294.564814
 11
1616.548083
 21
294.564814
  0
ARC
  8
CSLAYER1
  6
CONTINUOUS
 62
     6
 10
1616.548083
 20
293.564814
 40
1.000000
 50
0.057309
 51
89.999999
  0
LINE
  8
CSLAYER1
  6
CONTINUOUS
 62
     6
 10
1617.548083
 20
293.564814
 11
1617.548083
 21
292.564814
  0
ARC
  8
CSLAYER1
  6
CONTINUOUS
 62
     6
 10
1616.548083
 20
292.564814
 40
1.000000
 50
269.999997
 51
360.000000
  0
LINE
  8
CSLAYER1
  6
CONTINUOUS
 62
     6
 10
1616.548083
 20
291.564814
 11
1580.548083
 21
291.564814
  0
LINE
  8
CSLAYER1
  6
CONTINUOUS
 62
     6
 10
1400.541883
 20
349.564814
 11
1395.541883
 21
349.564814
  0
ARC
  8
CSLAYER1
  6
CONTINUOUS
 62
     6
 10
1395.541883
 20
347.564814
 40
2.000000
 50
90.000000
 51
180.000000
  0
LINE
  8
CSLAYER1
  6
CONTINUOUS
 62
     6
 10
1393.541883
 20
347.564814
 11
1393.541883
 21
339.473716
  0
ARC
  8
CSLAYER1
  6
CONTINUOUS
 62
     6
 10
1395.541883
 20
339.473716
 40
2.000000
 50
180.000000
 51
252.281068
  0
ARC
  8
CSLAYER1
  6
CONTINUOUS
 62
     6
 10
1388.541883
 20
317.564814
 40
21.000000
 50
58.551019
 51
72.281068
  0
ARC
  8
CSLAYER1
  6
CONTINUOUS
 62
     6
 10
1400.541883
 20
337.186231
 40
2.000000
 50
238.551019
 51
360.000000
  0
LINE
  8
CSLAYER1
  6
CONTINUOUS
 62
     6
 10
1402.541883
 20
337.186231
 11
1402.541883
 21
347.564814
  0
ARC
  8
CSLAYER1
  6
CONTINUOUS
 62
     6
 10
1400.541883
 20
347.564814
 40
2.000000
 50
0.000000
 51
90.000000
  0
CIRCLE
  8
CSLAYER1
  6
CONTINUOUS
 62
     6
 10
1388.541883
 20
317.564814
 40
44.000000
  0
CIRCLE
  8
CSLAYER1
  6
CONTINUOUS
 62
     6
 10
1388.541883
 20
317.564814
 40
15.000000
  0
LINE
  8
CSLAYER1
  6
CONTINUOUS
 62
     6
 10
1619.548083
 20
362.564814
 11
1747.248083
 21
362.564814
  0
LINE
  8
CSLAYER1
  6
CONTINUOUS
 62
     6
 10
1619.548083
 20
272.564814
 11
1747.248083
 21
272.564814
  0
ARC
  8
CSLAYER1
  6
CONTINUOUS
 62
     6
 10
1751.000860
 20
357.897590
 40
3.752777
 50
150.000000
 51
195.446648
  0
LINE
  8
CSLAYER1
  6
CONTINUOUS
 62
     6
 10
1747.248083
 20
357.221755
 11
1747.248083
 21
369.831755
  0
LINE
  8
CSLAYER1
  6
CONTINUOUS
 62
     6
 10
1747.248083
 20
369.831755
 11
1747.750860
 21
371.032308
  0
LINE
  8
CSLAYER1
  6
CONTINUOUS
 62
     6
 10
1747.750860
 20
371.032308
 11
1752.548083
 21
371.032308
  0
LINE
  8
CSLAYER1
  6
CONTINUOUS
 62
     6
 10
1752.548083
 20
371.226755
 11
1752.548083
 21
355.826755
  0
LINE
  8
CSLAYER1
  6
CONTINUOUS
 62
     6
 10
1752.548083
 20
355.826755
 11
1754.548083
 21
355.826755
  0
LINE
  8
CSLAYER1
  6
CONTINUOUS
 62
     6
 10
1752.548083
 20
356.021201
 11
1747.750860
 21
356.021201
  0
LINE
  8
CSLAYER1
  6
CONTINUOUS
 62
     6
 10
1747.750860
 20
356.021201
 11
1747.248083
 21
357.221755
  0
LINE
  8
CSLAYER1
  6
CONTINUOUS
 62
     6
 10
1747.750860
 20
359.773978
 11
1752.548083
 21
359.773978
  0
LINE
  8
CSLAYER1
  6
CONTINUOUS
 62
     6
 10
1752.548083
 20
362.294755
 11
1754.548083
 21
362.910755
  0
LINE
  8
CSLAYER1
  6
CONTINUOUS
 62
     6
 10
1754.548083
 20
364.758755
 11
1752.548083
 21
364.142755
  0
LINE
  8
CSLAYER1
  6
CONTINUOUS
 62
     6
 10
1752.548083
 20
367.279532
 11
1747.750860
 21
367.279532
  0
ARC
  8
CSLAYER1
  6
CONTINUOUS
 62
     6
 10
1751.000860
 20
369.155920
 40
3.752777
 50
164.553352
 51
210.000000
  0
ARC
  8
CSLAYER1
  6
CONTINUOUS
 62
     6
 10
1761.505025
 20
363.526755
 40
14.256942
 50
164.738520
 51
195.261480
  0
LINE
  8
CSLAYER1
  6
CONTINUOUS
 62
     6
 10
1752.548083
 20
371.226755
 11
1754.548083
 21
371.226755
  0
ARC
  8
CSLAYER1
  6
CONTINUOUS
 62
     6
 10
1751.000860
 20
265.973708
 40
3.752777
 50
150.000000
 51
195.446648
  0
LINE
  8
CSLAYER1
  6
CONTINUOUS
 62
     6
 10
1747.248083
 20
265.297873
 11
1747.248083
 21
277.907873
  0
LINE
  8
CSLAYER1
  6
CONTINUOUS
 62
     6
 10
1747.248083
 20
277.907873
 11
1747.750860
 21
279.108427
  0
LINE
  8
CSLAYER1
  6
CONTINUOUS
 62
     6
 10
1747.750860
 20
279.108427
 11
1752.548083
 21
279.108427
  0
LINE
  8
CSLAYER1
  6
CONTINUOUS
 62
     6
 10
1752.548083
 20
279.302873
 11
1752.548083
 21
263.902873
  0
LINE
  8
CSLAYER1
  6
CONTINUOUS
 62
     6
 10
1752.548083
 20
263.902873
 11
1754.548083
 21
263.902873
  0
LINE
  8
CSLAYER1
  6
CONTINUOUS
 62
     6
 10
1752.548083
 20
264.097320
 11
1747.750860
 21
264.097320
  0
LINE
  8
CSLAYER1
  6
CONTINUOUS
 62
     6
 10
1747.750860
 20
264.097320
 11
1747.248083
 21
265.297873
  0
LINE
  8
CSLAYER1
  6
CONTINUOUS
 62
     6
 10
1747.750860
 20
267.850096
 11
1752.548083
 21
267.850096
  0
LINE
  8
CSLAYER1
  6
CONTINUOUS
 62
     6
 10
1752.548083
 20
270.370873
 11
1754.548083
 21
270.986873
  0
LINE
  8
CSLAYER1
  6
CONTINUOUS
 62
     6
 10
1754.548083
 20
272.834873
 11
1752.548083
 21
272.218873
  0
LINE
  8
CSLAYER1
  6
CONTINUOUS
 62
     6
 10
1752.548083
 20
275.355650
 11
1747.750860
 21
275.355650
  0
ARC
  8
CSLAYER1
  6
CONTINUOUS
 62
     6
 10
1751.000860
 20
277.232038
 40
3.752777
 50
164.553352
 51
210.000000
  0
ARC
  8
CSLAYER1
  6
CONTINUOUS
 62
     6
 10
1761.505025
 20
271.602873
 40
14.256942
 50
164.738520
 51
195.261480
  0
LINE
  8
CSLAYER1
  6
CONTINUOUS
 62
     6
 10
1752.548083
 20
279.302873
 11
1754.548083
 21
279.302873
  0
ARC
  8
CSLAYER1
  6
CONTINUOUS
 62
     6
 10
1388.541883
 20
317.564814
 40
45.000000
 50
273.184761
 51
324.085608
  0
CIRCLE
  8
CSLAYER1
  6
CONTINUOUS
 62
     6
 10
1388.541883
 20
317.564814
 40
80.000000
  0
LINE
  8
CSLAYER1
  6
CONTINUOUS
 62
     6
 10
1434.503824
 20
371.032308
 11
1428.003824
 21
367.279532
  0
LINE
  8
CSLAYER1
  6
CONTINUOUS
 62
     6
 10
1428.003824
 20
367.279532
 11
1428.003824
 21
359.773978
  0
LINE
  8
CSLAYER1
  6
CONTINUOUS
 62
     6
 10
1428.003824
 20
359.773978
 11
1434.503824
 21
356.021201
  0
LINE
  8
CSLAYER1
  6
CONTINUOUS
 62
     6
 10
1434.503824
 20
356.021201
 11
1441.003824
 21
359.773978
  0
LINE
  8
CSLAYER1
  6
CONTINUOUS
 62
     6
 10
1441.003824
 20
359.773978
 11
1441.003824
 21
367.279532
  0
LINE
  8
CSLAYER1
  6
CONTINUOUS
 62
     6
 10
1441.003824
 20
367.279532
 11
1434.503824
 21
371.032308
  0
CIRCLE
  8
CSLAYER1
  6
CONTINUOUS
 62
     6
 10
1434.503824
 20
363.526755
 40
7.700000
  0
CIRCLE
  8
CSLAYER1
  6
CONTINUOUS
 62
     6
 10
1434.503824
 20
363.526755
 40
6.305000
  0
LINE
  8
CSLAYER1
  6
CONTINUOUS
 62
     6
 10
1342.579942
 20
371.032308
 11
1349.079942
 21
367.279532
  0
LINE
  8
CSLAYER1
  6
CONTINUOUS
 62
     6
 10
1349.079942
 20
367.279532
 11
1349.079942
 21
359.773978
  0
LINE
  8
CSLAYER1
  6
CONTINUOUS
 62
     6
 10
1349.079942
 20
359.773978
 11
1342.579942
 21
356.021201
  0
LINE
  8
CSLAYER1
  6
CONTINUOUS
 62
     6
 10
1342.579942
 20
356.021201
 11
1336.079942
 21
359.773978
  0
LINE
  8
CSLAYER1
  6
CONTINUOUS
 62
     6
 10
1336.079942
 20
359.773978
 11
1336.079942
 21
367.279532
  0
LINE
  8
CSLAYER1
  6
CONTINUOUS
 62
     6
 10
1336.079942
 20
367.279532
 11
1342.579942
 21
371.032308
  0
CIRCLE
  8
CSLAYER1
  6
CONTINUOUS
 62
     6
 10
1342.579942
 20
363.526755
 40
7.700000
  0
CIRCLE
  8
CSLAYER1
  6
CONTINUOUS
 62
     6
 10
1342.579942
 20
363.526755
 40
6.305000
  0
LINE
  8
CSLAYER1
  6
CONTINUOUS
 62
     6
 10
1434.503824
 20
264.097320
 11
1428.003824
 21
267.850096
  0
LINE
  8
CSLAYER1
  6
CONTINUOUS
 62
     6
 10
1428.003824
 20
267.850096
 11
1428.003824
 21
275.355650
  0
LINE
  8
CSLAYER1
  6
CONTINUOUS
 62
     6
 10
1428.003824
 20
275.355650
 11
1434.503824
 21
279.108427
  0
LINE
  8
CSLAYER1
  6
CONTINUOUS
 62
     6
 10
1434.503824
 20
279.108427
 11
1441.003824
 21
275.355650
  0
LINE
  8
CSLAYER1
  6
CONTINUOUS
 62
     6
 10
1441.003824
 20
275.355650
 11
1441.003824
 21
267.850096
  0
LINE
  8
CSLAYER1
  6
CONTINUOUS
 62
     6
 10
1441.003824
 20
267.850096
 11
1434.503824
 21
264.097320
  0
CIRCLE
  8
CSLAYER1
  6
CONTINUOUS
 62
     6
 10
1434.503824
 20
271.602873
 40
7.700000
  0
CIRCLE
  8
CSLAYER1
  6
CONTINUOUS
 62
     6
 10
1434.503824
 20
271.602873
 40
6.305000
  0
LINE
  8
CSLAYER1
  6
CONTINUOUS
 62
     6
 10
1342.579942
 20
264.097320
 11
1349.079942
 21
267.850096
  0
LINE
  8
CSLAYER1
  6
CONTINUOUS
 62
     6
 10
1349.079942
 20
267.850096
 11
1349.079942
 21
275.355650
  0
LINE
  8
CSLAYER1
  6
CONTINUOUS
 62
     6
 10
1349.079942
 20
275.355650
 11
1342.579942
 21
279.108427
  0
LINE
  8
CSLAYER1
  6
CONTINUOUS
 62
     6
 10
1342.579942
 20
279.108427
 11
1336.079942
 21
275.355650
  0
LINE
  8
CSLAYER1
  6
CONTINUOUS
 62
     6
 10
1336.079942
 20
275.355650
 11
1336.079942
 21
267.850096
  0
LINE
  8
CSLAYER1
  6
CONTINUOUS
 62
     6
 10
1336.079942
 20
267.850096
 11
1342.579942
 21
264.097320
  0
CIRCLE
  8
CSLAYER1
  6
CONTINUOUS
 62
     6
 10
1342.579942
 20
271.602873
 40
7.700000
  0
CIRCLE
  8
CSLAYER1
  6
CONTINUOUS
 62
     6
 10
1342.579942
 20
271.602873
 40
6.305000
  0
LINE
  8
CSLAYER1
  6
CONTINUOUS
 62
     6
 10
1433.541883
 20
423.824814
 11
1433.541883
 21
383.708597
  0
LINE
  8
CSLAYER1
  6
CONTINUOUS
 62
     6
 10
1343.541883
 20
423.824814
 11
1343.541883
 21
383.708597
  0
LINE
  8
CSLAYER1
  6
CONTINUOUS
 62
     6
 10
1430.581883
 20
426.824814
 11
1388.541883
 21
427.544814
  0
LINE
  8
CSLAYER1
  6
CONTINUOUS
 62
     6
 10
1346.481883
 20
426.824814
 11
1388.541883
 21
427.544814
  0
LINE
  8
CSLAYER1
  6
CONTINUOUS
 62
     6
 10
1326.541883
 20
368.121713
 11
1326.541883
 21
397.804814
  0
LINE
  8
CSLAYER1
  6
CONTINUOUS
 62
     6
 10
1450.541883
 20
368.121713
 11
1450.541883
 21
397.804814
  0
ARC
  8
CSLAYER1
  6
CONTINUOUS
 62
     6
 10
1346.541883
 20
423.824814
 40
3.000000
 50
91.000000
 51
180.000000
  0
ARC
  8
CSLAYER1
  6
CONTINUOUS
 62
     6
 10
1430.541883
 20
423.824814
 40
3.000000
 50
0.000000
 51
89.000000
  0
LINE
  8
CSLAYER1
  6
CONTINUOUS
 62
     6
 10
1339.941883
 20
405.504814
 11
1330.121883
 21
402.604814
  0
LINE
  8
CSLAYER1
  6
CONTINUOUS
 62
     6
 10
1446.941883
 20
402.604814
 11
1437.121883
 21
405.504814
  0
LINE
  8
CSLAYER1
  6
CONTINUOUS
 62
     6
 10
1346.121883
 20
395.044814
 11
1430.801883
 21
395.044814
  0
ARC
  8
CSLAYER1
  6
CONTINUOUS
 62
     6
 10
1331.541883
 20
397.804814
 40
5.000000
 50
106.380000
 51
180.000000
  0
ARC
  8
CSLAYER1
  6
CONTINUOUS
 62
     6
 10
1445.541883
 20
397.804814
 40
5.000000
 50
0.000000
 51
73.610000
  0
ARC
  8
CSLAYER1
  6
CONTINUOUS
 62
     6
 10
1338.541883
 20
410.304814
 40
5.000000
 50
286.380000
 51
360.000000
  0
ARC
  8
CSLAYER1
  6
CONTINUOUS
 62
     6
 10
1438.541883
 20
410.304814
 40
5.000000
 50
180.000000
 51
253.610000
  0
LINE
  8
CSLAYER1
  6
CONTINUOUS
 62
     6
 10
1508.541883
 20
346.544814
 11
1508.541883
 21
378.544814
  0
LINE
  8
CSLAYER1
  6
CONTINUOUS
 62
     6
 10
1453.541883
 20
378.544814
 11
1508.541883
 21
378.544814
  0
LINE
  8
CSLAYER1
  6
CONTINUOUS
 62
     6
 10
1463.108361
 20
346.544814
 11
1508.541883
 21
346.544814
  0
LINE
  8
CSLAYER1
  6
CONTINUOUS
 62
     6
 10
1453.541883
 20
380.044814
 11
1453.541883
 21
364.201709
  0
LINE
  8
CSLAYER1
  6
CONTINUOUS
 62
     6
 10
1450.541883
 20
380.044814
 11
1453.541883
 21
380.044814
  0
ARC
  8
CSLAYER1
  6
CONTINUOUS
 62
     6
 10
1388.541883
 20
317.564814
 40
64.000000
 50
44.670000
 51
45.320000
  0
LINE
  8
CSLAYER1
  6
CONTINUOUS
 62
     6
 10
1313.541883
 20
222.564814
 11
1358.541883
 21
222.564814
  0
LINE
  8
CSLAYER1
  6
CONTINUOUS
 62
     6
 10
1418.541883
 20
222.564814
 11
1463.541883
 21
222.564814
  0
LINE
  8
CSLAYER1
  6
CONTINUOUS
 62
     6
 10
1461.041883
 20
240.564814
 11
1437.541883
 21
240.564814
  0
LINE
  8
CSLAYER1
  6
CONTINUOUS
 62
     6
 10
1316.041883
 20
240.564814
 11
1339.541883
 21
240.564814
  0
LINE
  8
CSLAYER1
  6
CONTINUOUS
 62
     6
 10
1463.541883
 20
238.444814
 11
1463.541883
 21
222.564814
  0
LINE
  8
CSLAYER1
  6
CONTINUOUS
 62
     6
 10
1313.541883
 20
238.444814
 11
1313.541883
 21
222.564814
  0
LINE
  8
CSLAYER1
  6
CONTINUOUS
 62
     6
 10
1360.041883
 20
224.064814
 11
1417.041883
 21
224.064814
  0
LINE
  8
CSLAYER1
  6
CONTINUOUS
 62
     6
 10
1315.621883
 20
240.904814
 11
1341.041883
 21
245.144814
  0
LINE
  8
CSLAYER1
  6
CONTINUOUS
 62
     6
 10
1461.441883
 20
240.904814
 11
1436.041883
 21
245.144814
  0
ARC
  8
CSLAYER1
  6
CONTINUOUS
 62
     6
 10
1340.541883
 20
248.104814
 40
3.000000
 50
279.460000
 51
360.000000
  0
ARC
  8
CSLAYER1
  6
CONTINUOUS
 62
     6
 10
1339.541883
 20
244.544814
 40
4.000000
 50
270.000000
 51
360.000000
  0
ARC
  8
CSLAYER1
  6
CONTINUOUS
 62
     6
 10
1316.041883
 20
238.064814
 40
2.500000
 50
90.000000
 51
180.000000
  0
LINE
  8
CSLAYER1
  6
CONTINUOUS
 62
     6
 10
1358.541883
 20
222.564814
 11
1360.041883
 21
224.064814
  0
LINE
  8
CSLAYER1
  6
CONTINUOUS
 62
     6
 10
1418.541883
 20
222.564814
 11
1417.041883
 21
224.064814
  0
ARC
  8
CSLAYER1
  6
CONTINUOUS
 62
     6
 10
1436.541883
 20
248.104814
 40
3.000000
 50
180.000000
 51
260.530000
  0
ARC
  8
CSLAYER1
  6
CONTINUOUS
 62
     6
 10
1437.541883
 20
244.564814
 40
4.000000
 50
180.000000
 51
270.000000
  0
ARC
  8
CSLAYER1
  6
CONTINUOUS
 62
     6
 10
1461.041883
 20
238.064814
 40
2.500000
 50
0.000000
 51
90.000000
  0
ARC
  8
CSLAYER1
  6
CONTINUOUS
 62
     6
 10
1316.041883
 20
238.444814
 40
2.500000
 50
99.460000
 51
180.000000
  0
ARC
  8
CSLAYER1
  6
CONTINUOUS
 62
     6
 10
1461.041883
 20
238.444814
 40
2.500000
 50
0.000000
 51
80.530000
  0
LINE
  8
CSLAYER1
  6
DOT
 62
     6
 10
1455.041883
 20
240.564814
 11
1455.041883
 21
222.564814
  0
LINE
  8
CSLAYER1
  6
DOT
 62
     6
 10
1442.041883
 20
240.564814
 11
1442.041883
 21
222.564814
  0
LINE
  8
CSLAYER1
  6
DOT
 62
     6
 10
1335.041883
 20
240.564814
 11
1335.041883
 21
222.564814
  0
LINE
  8
CSLAYER1
  6
DOT
 62
     6
 10
1322.041883
 20
240.564814
 11
1322.041883
 21
222.564814
  0
LINE
  8
CSLAYER1
  6
CONTINUOUS
 62
     6
 10
1433.541883
 20
251.421031
 11
1433.541883
 21
222.564814
  0
LINE
  8
CSLAYER1
  6
CONTINUOUS
 62
     6
 10
1343.541883
 20
251.421031
 11
1343.541883
 21
222.564814
  0
LINE
  8
CSLAYER1
  6
CONTINUOUS
 62
     6
 10
1747.248083
 20
658.618660
 11
1619.548083
 21
658.618660
  0
LINE
  8
CSLAYER1
  6
CONTINUOUS
 62
     6
 10
1619.548083
 20
658.618660
 11
1619.548083
 21
568.618660
  0
LINE
  8
CSLAYER1
  6
CONTINUOUS
 62
     6
 10
1619.548083
 20
568.618660
 11
1747.248083
 21
568.618660
  0
LINE
  8
CSLAYER1
  6
CONTINUOUS
 62
     6
 10
1754.548083
 20
693.618660
 11
1754.548083
 21
533.618660
  0
LINE
  8
CSLAYER1
  6
CONTINUOUS
 62
     6
 10
1619.548083
 20
657.618630
 11
1618.073046
 21
657.618630
  0
LINE
  8
CSLAYER1
  6
CONTINUOUS
 62
     6
 10
1617.642199
 20
657.723122
 11
1618.339831
 21
651.085671
  0
ARC
  8
CSLAYER1
  6
CONTINUOUS
 62
     6
 10
1619.334338
 20
651.190163
 40
1.000000
 50
186.000026
 51
270.000001
  0
ARC
  8
CSLAYER1
  6
CONTINUOUS
 62
     6
 10
1619.284716
 20
655.662453
 40
1.000000
 50
186.000026
 51
270.000001
  0
LINE
  8
CSLAYER1
  6
CONTINUOUS
 62
     6
 10
1618.290148
 20
655.557900
 11
1617.642199
 21
661.723122
  0
ARC
  8
CSLAYER1
  6
CONTINUOUS
 62
     6
 10
1616.647631
 20
661.618630
 40
1.000000
 50
6.000003
 51
90.000016
  0
LINE
  8
CSLAYER1
  6
CONTINUOUS
 62
     6
 10
1616.647631
 20
662.618630
 11
1580.448474
 21
662.618630
  0
ARC
  8
CSLAYER1
  6
CONTINUOUS
 62
     6
 10
1580.448474
 20
661.618630
 40
1.000000
 50
90.000003
 51
173.999998
  0
LINE
  8
CSLAYER1
  6
CONTINUOUS
 62
     6
 10
1579.453967
 20
661.723122
 11
1578.805957
 21
655.557900
  0
ARC
  8
CSLAYER1
  6
CONTINUOUS
 62
     6
 10
1577.811450
 20
655.662453
 40
1.000000
 50
270.000001
 51
353.999989
  0
LINE
  8
CSLAYER1
  6
CONTINUOUS
 62
     6
 10
1579.022509
 20
657.618630
 11
1567.548083
 21
657.618630
  0
LINE
  8
CSLAYER1
  6
CONTINUOUS
 62
     6
 10
1567.548083
 20
657.618630
 11
1566.548083
 21
656.618630
  0
LINE
  8
CSLAYER1
  6
CONTINUOUS
 62
     6
 10
1566.548083
 20
656.618630
 11
1566.548083
 21
570.618630
  0
LINE
  8
CSLAYER1
  6
CONTINUOUS
 62
     6
 10
1566.548083
 20
570.618630
 11
1567.548083
 21
569.618630
  0
LINE
  8
CSLAYER1
  6
CONTINUOUS
 62
     6
 10
1567.548083
 20
569.618630
 11
1579.022509
 21
569.618630
  0
ARC
  8
CSLAYER1
  6
CONTINUOUS
 62
     6
 10
1580.448474
 20
569.618630
 40
1.000000
 50
186.000012
 51
270.000001
  0
LINE
  8
CSLAYER1
  6
CONTINUOUS
 62
     6
 10
1580.448474
 20
568.618630
 11
1616.647631
 21
568.618630
  0
ARC
  8
CSLAYER1
  6
CONTINUOUS
 62
     6
 10
1616.647631
 20
569.618630
 40
1.000000
 50
270.000001
 51
354.000017
  0
LINE
  8
CSLAYER1
  6
CONTINUOUS
 62
     6
 10
1617.642199
 20
569.514076
 11
1618.339831
 21
576.151589
  0
ARC
  8
CSLAYER1
  6
CONTINUOUS
 62
     6
 10
1619.334338
 20
576.047035
 40
1.000000
 50
90.000009
 51
173.999984
  0
ARC
  8
CSLAYER1
  6
CONTINUOUS
 62
     6
 10
1619.284716
 20
571.574806
 40
1.000000
 50
90.000009
 51
173.999984
  0
LINE
  8
CSLAYER1
  6
CONTINUOUS
 62
     6
 10
1618.290148
 20
571.679360
 11
1617.642199
 21
565.514076
  0
ARC
  8
CSLAYER1
  6
CONTINUOUS
 62
     6
 10
1616.647631
 20
565.618630
 40
1.000000
 50
270.000001
 51
354.000017
  0
LINE
  8
CSLAYER1
  6
CONTINUOUS
 62
     6
 10
1616.647631
 20
564.618630
 11
1580.448474
 21
564.618630
  0
ARC
  8
CSLAYER1
  6
CONTINUOUS
 62
     6
 10
1580.448474
 20
565.618630
 40
1.000000
 50
186.000012
 51
270.000001
  0
LINE
  8
CSLAYER1
  6
CONTINUOUS
 62
     6
 10
1579.453967
 20
565.514076
 11
1578.805957
 21
571.679360
  0
ARC
  8
CSLAYER1
  6
CONTINUOUS
 62
     6
 10
1577.811450
 20
571.574806
 40
1.000000
 50
6.000021
 51
90.000009
  0
LINE
  8
CSLAYER1
  6
CONTINUOUS
 62
     6
 10
1579.453967
 20
569.514076
 11
1578.756335
 21
576.151589
  0
ARC
  8
CSLAYER1
  6
CONTINUOUS
 62
     6
 10
1577.761767
 20
576.047035
 40
1.000000
 50
6.000021
 51
90.000009
  0
LINE
  8
CSLAYER1
  6
CONTINUOUS
 62
     6
 10
1582.234057
 20
577.225441
 11
1614.191149
 21
577.225441
  0
LINE
  8
CSLAYER1
  6
CONTINUOUS
 62
     6
 10
1618.073046
 20
569.618630
 11
1619.548083
 21
569.618630
  0
LINE
  8
CSLAYER1
  6
CONTINUOUS
 62
     6
 10
1567.548083
 20
569.618630
 11
1567.548083
 21
657.618630
  0
ARC
  8
CSLAYER1
  6
CONTINUOUS
 62
     6
 10
1580.448474
 20
657.618630
 40
1.000000
 50
90.000003
 51
173.999998
  0
LINE
  8
CSLAYER1
  6
CONTINUOUS
 62
     6
 10
1580.448474
 20
658.618630
 11
1616.647631
 21
658.618630
  0
ARC
  8
CSLAYER1
  6
CONTINUOUS
 62
     6
 10
1616.647631
 20
657.618630
 40
1.000000
 50
6.000003
 51
90.000016
  0
LINE
  8
CSLAYER1
  6
CONTINUOUS
 62
     6
 10
1614.191149
 20
650.011818
 11
1582.234057
 21
650.011818
  0
LINE
  8
CSLAYER1
  6
CONTINUOUS
 62
     6
 10
1578.756335
 20
651.085671
 11
1579.453967
 21
657.723122
  0
ARC
  8
CSLAYER1
  6
CONTINUOUS
 62
     6
 10
1577.761767
 20
651.190163
 40
1.000000
 50
270.000001
 51
353.999989
  0
LINE
  8
CSLAYER1
  6
CONTINUOUS
 62
     6
 10
1754.548083
 20
559.946720
 11
1752.548083
 21
559.946720
  0
LINE
  8
CSLAYER1
  6
CONTINUOUS
 62
     6
 10
1752.548083
 20
559.946720
 11
1752.548083
 21
575.346720
  0
LINE
  8
CSLAYER1
  6
CONTINUOUS
 62
     6
 10
1752.548083
 20
575.346720
 11
1754.548083
 21
575.346720
  0
LINE
  8
CSLAYER1
  6
CONTINUOUS
 62
     6
 10
1752.548083
 20
574.146720
 11
1747.248083
 21
574.146720
  0
LINE
  8
CSLAYER1
  6
CONTINUOUS
 62
     6
 10
1747.248083
 20
574.146720
 11
1747.248083
 21
561.146720
  0
LINE
  8
CSLAYER1
  6
CONTINUOUS
 62
     6
 10
1747.248083
 20
561.146720
 11
1752.548083
 21
561.146720
  0
ARC
  8
CSLAYER1
  6
CONTINUOUS
 62
     6
 10
1758.003637
 20
564.396720
 40
10.755553
 50
162.412046
 51
197.587954
  0
ARC
  8
CSLAYER1
  6
CONTINUOUS
 62
     6
 10
1758.003637
 20
570.896720
 40
10.755553
 50
162.412046
 51
197.587954
  0
ARC
  8
CSLAYER1
  6
CONTINUOUS
 62
     6
 10
1758.003637
 20
662.830601
 40
10.755553
 50
162.412046
 51
197.587954
  0
LINE
  8
CSLAYER1
  6
CONTINUOUS
 62
     6
 10
1747.248083
 20
666.080601
 11
1747.248083
 21
653.080601
  0
LINE
  8
CSLAYER1
  6
CONTINUOUS
 62
     6
 10
1747.248083
 20
653.080601
 11
1752.548083
 21
653.080601
  0
LINE
  8
CSLAYER1
  6
CONTINUOUS
 62
     6
 10
1752.548083
 20
651.880601
 11
1752.548083
 21
667.280601
  0
LINE
  8
CSLAYER1
  6
CONTINUOUS
 62
     6
 10
1752.548083
 20
667.280601
 11
1754.548083
 21
667.280601
  0
LINE
  8
CSLAYER1
  6
CONTINUOUS
 62
     6
 10
1752.548083
 20
666.080601
 11
1747.248083
 21
666.080601
  0
ARC
  8
CSLAYER1
  6
CONTINUOUS
 62
     6
 10
1758.003637
 20
656.330601
 40
10.755553
 50
162.412046
 51
197.587954
  0
LINE
  8
CSLAYER1
  6
CONTINUOUS
 62
     6
 10
1752.548083
 20
651.880601
 11
1754.548083
 21
651.880601
  0
LINE
  8
CSLAYER1
  6
CONTINUOUS
 62
     6
 10
1752.548083
 20
658.348601
 11
1754.548083
 21
658.964601
  0
LINE
  8
CSLAYER1
  6
CONTINUOUS
 62
     6
 10
1754.548083
 20
660.812601
 11
1752.548083
 21
660.196601
  0
LINE
  8
CSLAYER1
  6
CONTINUOUS
 62
     6
 10
1752.548083
 20
659.580601
 11
1747.750860
 21
659.580601
  0
LINE
  8
CSLAYER1
  6
CONTINUOUS
 62
     6
 10
1775.548083
 20
690.478660
 11
1775.548083
 21
536.758660
  0
ARC
  8
CSLAYER1
  6
CONTINUOUS
 62
     6
 10
1772.548083
 20
536.758660
 40
3.000000
 50
271.500000
 51
360.000000
  0
LINE
  8
CSLAYER1
  6
CONTINUOUS
 62
     6
 10
1772.628083
 20
533.758660
 11
1767.548083
 21
533.618660
  0
LINE
  8
CSLAYER1
  6
CONTINUOUS
 62
     6
 10
1767.548083
 20
533.618660
 11
1767.548083
 21
693.618660
  0
LINE
  8
CSLAYER1
  6
CONTINUOUS
 62
     6
 10
1767.548083
 20
693.618660
 11
1754.548083
 21
693.618660
  0
LINE
  8
CSLAYER1
  6
CONTINUOUS
 62
     6
 10
1754.548083
 20
533.618660
 11
1767.548083
 21
533.618660
  0
LINE
  8
CSLAYER1
  6
CONTINUOUS
 62
     6
 10
1754.548083
 20
567.030720
 11
1752.548083
 21
566.414720
  0
LINE
  8
CSLAYER1
  6
CONTINUOUS
 62
     6
 10
1752.548083
 20
567.646720
 11
1747.750860
 21
567.646720
  0
LINE
  8
CSLAYER1
  6
CONTINUOUS
 62
     6
 10
1752.548083
 20
568.262720
 11
1754.548083
 21
568.878720
  0
ARC
  8
CSLAYER1
  6
CONTINUOUS
 62
     6
 10
1772.548083
 20
690.478660
 40
3.000000
 50
0.000000
 51
88.500000
  0
LINE
  8
CSLAYER1
  6
CONTINUOUS
 62
     6
 10
1772.628083
 20
693.478660
 11
1767.548083
 21
693.618660
  0
LINE
  8
CSLAYER1
  6
CONTINUOUS
 62
     6
 10
1823.548083
 20
549.618660
 11
1823.548083
 21
677.598660
  0
LINE
  8
CSLAYER1
  6
CONTINUOUS
 62
     6
 10
1830.548083
 20
677.098660
 11
1823.548083
 21
677.098660
  0
LINE
  8
CSLAYER1
  6
CONTINUOUS
 62
     6
 10
1830.548083
 20
550.118660
 11
1823.548083
 21
550.118660
  0
LINE
  8
CSLAYER1
  6
CONTINUOUS
 62
     6
 10
1778.468083
 20
678.778660
 11
1823.548083
 21
677.598660
  0
ARC
  8
CSLAYER1
  6
CONTINUOUS
 62
     6
 10
1777.488083
 20
536.018660
 40
2.000000
 50
166.830000
 51
171.680000
  0
LINE
  8
CSLAYER1
  6
CONTINUOUS
 62
     6
 10
1783.588083
 20
680.658660
 11
1780.408083
 21
680.738660
  0
ARC
  8
CSLAYER1
  6
CONTINUOUS
 62
     6
 10
1780.548083
 20
685.738660
 40
5.000000
 50
180.000000
 51
268.500000
  0
ARC
  8
CSLAYER1
  6
CONTINUOUS
 62
     6
 10
1783.548083
 20
678.658660
 40
2.000000
 50
28.420000
 51
88.500000
  0
LINE
  8
CSLAYER1
  6
CONTINUOUS
 62
     6
 10
1778.468083
 20
548.438660
 11
1823.548083
 21
549.618660
  0
LINE
  8
CSLAYER1
  6
CONTINUOUS
 62
     6
 10
1783.588083
 20
546.558660
 11
1780.408083
 21
546.478660
  0
ARC
  8
CSLAYER1
  6
CONTINUOUS
 62
     6
 10
1780.548083
 20
541.478660
 40
5.000000
 50
91.490000
 51
180.000000
  0
ARC
  8
CSLAYER1
  6
CONTINUOUS
 62
     6
 10
1783.548083
 20
548.558660
 40
2.000000
 50
271.490000
 51
331.570000
  0
LINE
  8
CSLAYER1
  6
CONTINUOUS
 62
     6
 10
1785.548083
 20
607.618660
 11
1785.548083
 21
619.618660
  0
LINE
  8
CSLAYER1
  6
CONTINUOUS
 62
     6
 10
1800.048083
 20
572.778660
 11
1800.048083
 21
562.518660
  0
LINE
  8
CSLAYER1
  6
CONTINUOUS
 62
     6
 10
1800.048083
 20
664.698660
 11
1800.048083
 21
654.438660
  0
LINE
  8
CSLAYER1
  6
CONTINUOUS
 62
     6
 10
1783.548083
 20
621.618660
 11
1775.548083
 21
621.618660
  0
LINE
  8
CSLAYER1
  6
CONTINUOUS
 62
     6
 10
1783.548083
 20
605.618660
 11
1775.548083
 21
605.618660
  0
LINE
  8
CSLAYER1
  6
CONTINUOUS
 62
     6
 10
1795.168083
 20
669.698660
 11
1775.548083
 21
670.218660
  0
LINE
  8
CSLAYER1
  6
CONTINUOUS
 62
     6
 10
1795.168083
 20
649.438660
 11
1775.548083
 21
648.918660
  0
LINE
  8
CSLAYER1
  6
CONTINUOUS
 62
     6
 10
1795.168083
 20
577.778660
 11
1775.548083
 21
578.298660
  0
LINE
  8
CSLAYER1
  6
CONTINUOUS
 62
     6
 10
1795.168083
 20
557.518660
 11
1775.548083
 21
556.998660
  0
ARC
  8
CSLAYER1
  6
CONTINUOUS
 62
     6
 10
1795.048083
 20
572.778660
 40
5.000000
 50
0.000000
 51
88.500000
  0
ARC
  8
CSLAYER1
  6
CONTINUOUS
 62
     6
 10
1795.048083
 20
562.518660
 40
5.000000
 50
271.500000
 51
360.000000
  0
ARC
  8
CSLAYER1
  6
CONTINUOUS
 62
     6
 10
1795.048083
 20
664.698660
 40
5.000000
 50
0.000000
 51
88.490000
  0
ARC
  8
CSLAYER1
  6
CONTINUOUS
 62
     6
 10
1795.048083
 20
654.438660
 40
5.000000
 50
271.500000
 51
360.000000
  0
ARC
  8
CSLAYER1
  6
CONTINUOUS
 62
     6
 10
1783.548083
 20
619.618660
 40
2.000000
 50
0.000000
 51
90.000000
  0
ARC
  8
CSLAYER1
  6
CONTINUOUS
 62
     6
 10
1783.548083
 20
607.618660
 40
2.000000
 50
270.000000
 51
360.000000
  0
ARC
  8
CSLAYER1
  6
CONTINUOUS
 62
     6
 10
1778.548083
 20
681.778660
 40
3.000000
 50
180.000000
 51
268.500000
  0
ARC
  8
CSLAYER1
  6
CONTINUOUS
 62
     6
 10
1778.548083
 20
545.438660
 40
3.000000
 50
91.490000
 51
180.000000
  0
ARC
  8
CSLAYER1
  6
CONTINUOUS
 62
     6
 10
1787.068083
 20
680.558660
 40
2.000000
 50
208.420000
 51
268.500000
  0
ARC
  8
CSLAYER1
  6
CONTINUOUS
 62
     6
 10
1787.068083
 20
546.658660
 40
2.000000
 50
91.490000
 51
151.570000
  0
LINE
  8
CSLAYER1
  6
CONTINUOUS
 62
     6
 10
1835.548083
 20
555.118660
 11
1835.548083
 21
672.098660
  0
LINE
  8
CSLAYER1
  6
CONTINUOUS
 62
     6
 10
1984.548083
 20
658.618660
 11
1838.548083
 21
658.618660
  0
LINE
  8
CSLAYER1
  6
CONTINUOUS
 62
     6
 10
1984.548083
 20
568.618660
 11
1838.548083
 21
568.618660
  0
LINE
  8
CSLAYER1
  6
CONTINUOUS
 62
     6
 10
1946.788083
 20
675.618660
 11
1876.288083
 21
675.618660
  0
LINE
  8
CSLAYER1
  6
CONTINUOUS
 62
     6
 10
1871.488083
 20
672.018660
 11
1868.588083
 21
662.198660
  0
ARC
  8
CSLAYER1
  6
CONTINUOUS
 62
     6
 10
1876.288083
 20
670.618660
 40
5.000000
 50
90.000000
 51
163.610000
  0
ARC
  8
CSLAYER1
  6
CONTINUOUS
 62
     6
 10
1863.788083
 20
663.618660
 40
5.000000
 50
270.000000
 51
343.610000
  0
LINE
  8
CSLAYER1
  6
CONTINUOUS
 62
     6
 10
1951.608083
 20
672.018660
 11
1954.508083
 21
662.198660
  0
ARC
  8
CSLAYER1
  6
CONTINUOUS
 62
     6
 10
1946.808083
 20
670.618660
 40
5.000000
 50
16.390000
 51
90.000000
  0
ARC
  8
CSLAYER1
  6
CONTINUOUS
 62
     6
 10
1959.308083
 20
663.618660
 40
5.000000
 50
196.390000
 51
270.000000
  0
LINE
  8
CSLAYER1
  6
CONTINUOUS
 62
     6
 10
1946.788083
 20
551.618660
 11
1876.288083
 21
551.618660
  0
LINE
  8
CSLAYER1
  6
CONTINUOUS
 62
     6
 10
1871.488083
 20
555.218660
 11
1868.588083
 21
565.038660
  0
ARC
  8
CSLAYER1
  6
CONTINUOUS
 62
     6
 10
1876.288083
 20
556.618660
 40
5.000000
 50
196.390000
 51
270.000000
  0
ARC
  8
CSLAYER1
  6
CONTINUOUS
 62
     6
 10
1863.788083
 20
563.618660
 40
5.000000
 50
16.390000
 51
90.000000
  0
LINE
  8
CSLAYER1
  6
CONTINUOUS
 62
     6
 10
1951.608083
 20
555.218660
 11
1954.508083
 21
565.038660
  0
ARC
  8
CSLAYER1
  6
CONTINUOUS
 62
     6
 10
1946.808083
 20
556.618660
 40
5.000000
 50
270.000000
 51
343.610000
  0
ARC
  8
CSLAYER1
  6
CONTINUOUS
 62
     6
 10
1959.308083
 20
563.618660
 40
5.000000
 50
90.000000
 51
163.610000
  0
LINE
  8
CSLAYER1
  6
CONTINUOUS
 62
     6
 10
1987.548083
 20
571.618660
 11
1987.548083
 21
655.618660
  0
ARC
  8
CSLAYER1
  6
CONTINUOUS
 62
     6
 10
1984.548083
 20
655.618660
 40
3.000000
 50
0.000000
 51
90.000000
  0
ARC
  8
CSLAYER1
  6
CONTINUOUS
 62
     6
 10
1984.548083
 20
571.618660
 40
3.000000
 50
270.000000
 51
360.000000
  0
LINE
  8
CSLAYER1
  6
CONTINUOUS
 62
     6
 10
1971.905344
 20
538.618660
 11
1930.548083
 21
538.618660
  0
ARC
  8
CSLAYER1
  6
CONTINUOUS
 62
     6
 10
1959.048083
 20
673.618660
 40
6.500000
 50
-54.261617
 51
225.633385
  0
ARC
  8
CSLAYER1
  6
CONTINUOUS
 62
     6
 10
1864.048083
 20
673.618660
 40
6.500000
 50
-45.633385
 51
234.261617
  0
ARC
  8
CSLAYER1
  6
CONTINUOUS
 62
     6
 10
1959.048083
 20
553.618660
 40
6.500000
 50
-225.633385
 51
54.261617
  0
ARC
  8
CSLAYER1
  6
CONTINUOUS
 62
     6
 10
1864.048083
 20
553.618660
 40
6.500000
 50
-234.261617
 51
45.633385
  0
LINE
  8
CSLAYER1
  6
CONTINUOUS
 62
     6
 10
1987.301710
 20
570.428057
 11
1974.200033
 21
540.126491
  0
ARC
  8
CSLAYER1
  6
CONTINUOUS
 62
     6
 10
1838.548083
 20
655.618660
 40
3.000000
 50
90.000000
 51
180.000000
  0
ARC
  8
CSLAYER1
  6
CONTINUOUS
 62
     6
 10
1838.548083
 20
571.618660
 40
3.000000
 50
180.000000
 51
270.000000
  0
LINE
  8
CSLAYER1
  6
CONTINUOUS
 62
     6
 10
1835.794456
 20
570.428057
 11
1848.896133
 21
540.126491
  0
ARC
  8
CSLAYER1
  6
CONTINUOUS
 62
     6
 10
1971.905344
 20
541.118660
 40
2.500000
 50
270.000000
 51
336.617491
  0
ARC
  8
CSLAYER1
  6
CONTINUOUS
 62
     6
 10
1851.190822
 20
541.118660
 40
2.500000
 50
203.382509
 51
270.000000
  0
LINE
  8
CSLAYER1
  6
CONTINUOUS
 62
     6
 10
1857.089770
 20
562.218660
 11
1856.289770
 21
565.018660
  0
ARC
  8
CSLAYER1
  6
CONTINUOUS
 62
     6
 10
1861.889770
 20
563.618660
 40
5.000000
 50
196.180000
 51
270.000000
  0
ARC
  8
CSLAYER1
  6
CONTINUOUS
 62
     6
 10
1851.489770
 20
563.618660
 40
5.000000
 50
16.180000
 51
90.000000
  0
LINE
  8
CSLAYER1
  6
CONTINUOUS
 62
     6
 10
1861.889770
 20
558.618660
 11
1866.747117
 21
558.618660
  0
ARC
  8
CSLAYER1
  6
CONTINUOUS
 62
     6
 10
1866.747117
 20
553.618660
 40
5.000000
 50
16.452697
 51
90.000000
  0
LINE
  8
CSLAYER1
  6
CONTINUOUS
 62
     6
 10
1966.006396
 20
562.218660
 11
1966.806396
 21
565.018660
  0
ARC
  8
CSLAYER1
  6
CONTINUOUS
 62
     6
 10
1961.206396
 20
563.618660
 40
5.000000
 50
270.000000
 51
343.820000
  0
ARC
  8
CSLAYER1
  6
CONTINUOUS
 62
     6
 10
1971.606396
 20
563.618660
 40
5.000000
 50
90.000000
 51
163.820000
  0
LINE
  8
CSLAYER1
  6
CONTINUOUS
 62
     6
 10
1961.206396
 20
558.618660
 11
1956.349049
 21
558.618660
  0
ARC
  8
CSLAYER1
  6
CONTINUOUS
 62
     6
 10
1956.349049
 20
553.618660
 40
5.000000
 50
90.000000
 51
163.547303
  0
LINE
  8
CSLAYER1
  6
CONTINUOUS
 62
     6
 10
1857.089770
 20
665.018660
 11
1856.289770
 21
662.218660
  0
ARC
  8
CSLAYER1
  6
CONTINUOUS
 62
     6
 10
1861.889770
 20
663.618660
 40
5.000000
 50
90.000000
 51
163.820000
  0
ARC
  8
CSLAYER1
  6
CONTINUOUS
 62
     6
 10
1851.489770
 20
663.618660
 40
5.000000
 50
270.000000
 51
343.820000
  0
LINE
  8
CSLAYER1
  6
CONTINUOUS
 62
     6
 10
1861.889770
 20
668.618660
 11
1866.747117
 21
668.618660
  0
ARC
  8
CSLAYER1
  6
CONTINUOUS
 62
     6
 10
1866.747117
 20
673.618660
 40
5.000000
 50
270.000000
 51
343.547303
  0
LINE
  8
CSLAYER1
  6
CONTINUOUS
 62
     6
 10
1966.006396
 20
665.018660
 11
1966.806396
 21
662.218660
  0
ARC
  8
CSLAYER1
  6
CONTINUOUS
 62
     6
 10
1961.206396
 20
663.618660
 40
5.000000
 50
16.180000
 51
90.000000
  0
ARC
  8
CSLAYER1
  6
CONTINUOUS
 62
     6
 10
1971.606396
 20
663.618660
 40
5.000000
 50
196.180000
 51
270.000000
  0
LINE
  8
CSLAYER1
  6
CONTINUOUS
 62
     6
 10
1961.206396
 20
668.618660
 11
1956.349049
 21
668.618660
  0
ARC
  8
CSLAYER1
  6
CONTINUOUS
 62
     6
 10
1956.349049
 20
673.618660
 40
5.000000
 50
196.452697
 51
270.000000
  0
LINE
  8
CSLAYER1
  6
CONTINUOUS
 62
     6
 10
1971.905344
 20
688.618660
 11
1851.190822
 21
688.618660
  0
LINE
  8
CSLAYER1
  6
CONTINUOUS
 62
     6
 10
1987.301710
 20
656.809263
 11
1974.200033
 21
687.110829
  0
LINE
  8
CSLAYER1
  6
CONTINUOUS
 62
     6
 10
1835.794456
 20
656.809263
 11
1848.896133
 21
687.110829
  0
ARC
  8
CSLAYER1
  6
CONTINUOUS
 62
     6
 10
1971.905344
 20
686.118660
 40
2.500000
 50
23.382509
 51
90.000000
  0
ARC
  8
CSLAYER1
  6
CONTINUOUS
 62
     6
 10
1851.190822
 20
686.118660
 40
2.500000
 50
90.000000
 51
156.617491
  0
ARC
  8
CSLAYER1
  6
CONTINUOUS
 62
     6
 10
1830.548083
 20
672.098660
 40
5.000000
 50
0.000000
 51
90.000000
  0
ARC
  8
CSLAYER1
  6
CONTINUOUS
 62
     6
 10
1830.548083
 20
555.118660
 40
5.000000
 50
270.000000
 51
360.000000
  0
LINE
  8
CSLAYER1
  6
CONTINUOUS
 62
     6
 10
1930.548083
 20
493.618660
 11
1895.548083
 21
493.618660
  0
LINE
  8
CSLAYER1
  6
CONTINUOUS
 62
     6
 10
1895.548083
 20
493.618660
 11
1895.548083
 21
551.618660
  0
LINE
  8
CSLAYER1
  6
CONTINUOUS
 62
     6
 10
1927.548083
 20
493.618660
 11
1927.548083
 21
551.618660
  0
LINE
  8
CSLAYER1
  6
CONTINUOUS
 62
     6
 10
1895.548083
 20
538.618660
 11
1851.190822
 21
538.618660
  0
LINE
  8
CSLAYER1
  6
CONTINUOUS
 62
     6
 10
1930.548083
 20
493.618660
 11
1930.548083
 21
543.618660
  0
LINE
  8
CSLAYER1
  6
CONTINUOUS
 62
     6
 10
1930.548083
 20
543.618660
 11
1927.548083
 21
543.618660
  0
LINE
  8
CSLAYER1
  6
DASHED
 62
     6
 10
1927.548083
 20
543.618660
 11
1922.548083
 21
543.618660
  0
LINE
  8
CSLAYER1
  6
DASHED
 62
     6
 10
1922.548083
 20
543.618660
 11
1922.548083
 21
493.618660
  0
LINE
  8
CSLAYER1
  6
CONTINUOUS
 62
     6
 10
1940.343940
 20
573.618660
 11
1940.343940
 21
653.618660
  0
LINE
  8
CSLAYER1
  6
CONTINUOUS
 62
     6
 10
1882.752226
 20
573.618660
 11
1882.752226
 21
653.618660
  0
LINE
  8
CSLAYER1
  6
CONTINUOUS
 62
     6
 10
1936.548083
 20
541.618660
 11
1936.548083
 21
551.618660
  0
LINE
  8
CSLAYER1
  6
CONTINUOUS
 62
     6
 10
1886.548083
 20
541.618660
 11
1886.548083
 21
551.618660
  0
LINE
  8
CSLAYER1
  6
CONTINUOUS
 62
     6
 10
1936.548083
 20
685.618660
 11
1936.548083
 21
675.618660
  0
LINE
  8
CSLAYER1
  6
CONTINUOUS
 62
     6
 10
1886.548083
 20
685.618660
 11
1886.548083
 21
675.618660
  0
ENDSEC
  0
EOF
