  0
SECTION
  2
HEADER
  9
$ACADVER
  1
AC1006
  9
$INSBASE
 10
0.000000
 20
0.000000
 30
0.0
  9
$EXTMIN
 10
0.000000
 20
0.000000
  9
$EXTMAX
 10
1189.000000
 20
841.000000
  9
$LIMMIN
 10
0.000000
 20
0.000000
  9
$LIMMAX
 10
1189.000000
 20
841.000000
  9
$VIEWCTR
 10
594.500000
 20
420.500000
  9
$VIEWSIZE
 40
841.000000
  9
$SNAPMODE
 70
     0
  9
$SNAPUNIT
 10
1.0
 20
1.0
  9
$SNAPBASE
 10
0.0
 20
0.0
  9
$SNAPANG
 50
0.0
  9
$SNAPSTYLE
 70
     0
  9
$SNAPISOPAIR
 70
     0
  9
$GRIDMODE
 70
     0
  9
$GRIDUNIT
 10
0.0
 20
0.0
  9
$ORTHOMODE
 70
     0
  9
$REGENMODE
 70
     1
  9
$FILLMODE
 70
     1
  9
$QTEXTMODE
 70
     0
  9
$DRAGMODE
 70
     2
  9
$LTSCALE
 40
15.000000
  9
$OSMODE
 70
     0
  9
$ATTMODE
 70
     1
  9
$TEXTSIZE
 40
0.2
  9
$TRACEWID
 40
0.05
  9
$TEXTSTYLE
  7
STANDARD
  9
$CLAYER
  8
CSLAYER1
  9
$CELTYPE
  6
BYLAYER
  9
$CECOLOR
 62
   256
  9
$DIMSCALE
 40
1.0
  9
$DIMASZ
 40
0.18
  9
$DIMEXO
 40
0.0625
  9
$DIMDLI
 40
0.38
  9
$DIMRND
 40
0.0
  9
$DIMDLE
 40
0.0
  9
$DIMEXE
 40
0.18
  9
$DIMTP
 40
0.0
  9
$DIMTM
 40
0.0
  9
$DIMTXT
 40
0.18
  9
$DIMCEN
 40
0.09
  9
$DIMTSZ
 40
0.0
  9
$DIMTOL
 70
     0
  9
$DIMLIM
 70
     0
  9
$DIMTIH
 70
     1
  9
$DIMTOH
 70
     1
  9
$DIMSE1
 70
     0
  9
$DIMSE2
 70
     0
  9
$DIMTAD
 70
     0
  9
$DIMZIN
 70
     0
  9
$DIMBLK
  1

  9
$LUNITS
 70
     2
  9
$LUPREC
 70
     4
  9
$AXISMODE
 70
     0
  9
$AXISUNIT
 10
0.0
 20
0.0
  9
$SKETCHINC
 40
0.1
  9
$FILLETRAD
 40
0.0
  9
$AUNITS
 70
     0
  9
$AUPREC
 70
     0
  9
$MENU
  1
ACAD
  9
$ELEVATION
 40
0.0
  9
$THICKNESS
 40
0.0
  9
$VIEWDIR
 10
0.0
 20
0.0
 30
1.0
  9
$LIMCHECK
 70
     0
  9
$BLIPMODE
 70
     1
  9
$CHAMFERA
 40
0.0
  9
$CHAMFERB
 40
0.0
  9
$FASTZOOM
 70
     1
  9
$SKPOLY
 70
     0
  9
$TDCREATE
 40
0.000000
  9
$TDUPDATE
 40
0.000000
  9
$TDINDWG
 40
0.0
  9
$TDUSRTIMER
 40
0.0
  9
$USRTIMER
 70
     1
  9
$ANGBASE
 50
0.0
  9
$ANGDIR
 70
     0
  9
$PDMODE
 70
     0
  9
$PDSIZE
 40
0.0
  9
$PLINEWID
 40
0.0
  9
$COORDS
 70
     0
  9
$USERI1
 70
     0
  9
$USERI2
 70
     0
  9
$USERI3
 70
     0
  9
$USERI4
 70
     0
  9
$USERI5
 70
     0
  9
$USERR1
 40
0.0
  9
$USERR2
 40
0.0
  9
$USERR3
 40
0.0
  9
$USERR4
 40
0.0
  9
$USERR5
 40
0.0
  0
ENDSEC
  0
SECTION
  2
TABLES
  0
TABLE
  2
LTYPE
 70
     9
  0
LTYPE
  2
CONTINUOUS
 70
    64
  3
Solid line
 72
    65
 73
     0
 40
0.0
  0
LTYPE
  2
DASHED
 70
    64
  3
__ __ __ __ __ __ __ __ __ __ __ __ __ __ __
 72
    65
 73
     2
 40
0.75
 49
0.5
 49
-0.25
  0
LTYPE
  2
HIDDEN
 70
    64
  3
_ _ _ _ _ _ _ _ _ _ _ _ _ _ _ _ _ _ _ _ _ _ _
 72
    65
 73
     2
 40
0.375
 49
0.25
 49
-0.125
  0
LTYPE
  2
DOT
 70
    64
  3
...............................................
 72
    65
 73
     2
 40
0.25
 49
0.0
 49
-0.25
  0
LTYPE
  2
DASHDOT
 70
    64
  3
__ . __ . __ . __ . __ . __ . __ . __ . __ . __
 72
    65
 73
     4
 40
1.0
 49
0.5
 49
-0.25
 49
0.0
 49
-0.25
  0
LTYPE
  2
DIVIDE
 70
    64
  3
__ . . __ . . __ . . __ . . __ . . __ . . __
 72
    65
 73
     6
 40
1.25
 49
0.5
 49
-0.25
 49
0.0
 49
-0.25
 49
0.0
 49
-0.25
  0
LTYPE
  2
CENTER
 70
    64
  3
____ _ ____ _ ____ _ ____ _ ____ _ ____ _ ____ 
 72
    65
 73
     4
 40
2.0
 49
1.25
 49
-0.25
 49
0.25
 49
-0.25
  0
LTYPE
  2
PHANTOM
 70
    64
  3
______  __  __  ______  __  __  ______  __  __ 
 72
    65
 73
     6
 40
2.5
 49
1.25
 49
-0.25
 49
0.25
 49
-0.25
 49
0.25
 49
-0.25
  0
LTYPE
  2
BORDER
 70
    64
  3
__ __ . __ __ . __ __ . __ __ . __ __ . __ __ .
 72
    65
 73
     6
 40
1.75
 49
0.5
 49
-0.25
 49
0.5
 49
-0.25
 49
0.0
 49
-0.25
  0
ENDTAB
  0
TABLE
  2
LAYER
 70
    16
  0
LAYER
  2
CSLAYER1
 70
    64
 62
     7
  6
CONTINUOUS
  0
LAYER
  2
CSLAYER2
 70
    64
 62
     7
  6
CONTINUOUS
  0
LAYER
  2
CSLAYER3
 70
    64
 62
     7
  6
CONTINUOUS
  0
LAYER
  2
CSLAYER4
 70
    64
 62
     7
  6
CONTINUOUS
  0
LAYER
  2
CSLAYER5
 70
    64
 62
     7
  6
CONTINUOUS
  0
LAYER
  2
CSLAYER6
 70
    64
 62
     7
  6
CONTINUOUS
  0
LAYER
  2
CSLAYER7
 70
    64
 62
     7
  6
CONTINUOUS
  0
LAYER
  2
CSLAYER8
 70
    64
 62
     7
  6
CONTINUOUS
  0
LAYER
  2
CSLAYER9
 70
    64
 62
     7
  6
CONTINUOUS
  0
LAYER
  2
CSLAYER10
 70
    64
 62
     7
  6
CONTINUOUS
  0
LAYER
  2
CSLAYER11
 70
    64
 62
     7
  6
CONTINUOUS
  0
LAYER
  2
CSLAYER12
 70
    64
 62
     7
  6
CONTINUOUS
  0
LAYER
  2
CSLAYER13
 70
    64
 62
     7
  6
CONTINUOUS
  0
LAYER
  2
CSLAYER14
 70
    64
 62
     7
  6
CONTINUOUS
  0
LAYER
  2
CSLAYER15
 70
    64
 62
     7
  6
CONTINUOUS
  0
LAYER
  2
CSLAYER16
 70
    64
 62
     7
  6
CONTINUOUS
  0
ENDTAB
  0
TABLE
  2
STYLE
 70
     1
  0
STYLE
  2
JX_FONT
 70
     0
 40
1.0
 41
1.0
 50
0.0
 71
     0
 42
1.0
  3
monotxt
  4
bigfont
  0
ENDTAB
  0
TABLE
  2
VIEW
 70
     0
  0
ENDTAB
  0
ENDSEC
  0
SECTION
  2
BLOCKS
  0
ENDSEC
  0
SECTION
  2
ENTITIES
  0
LINE
  8
CSLAYER1
  6
CENTER
 62
     3
 10
148.541883
 20
218.064814
 11
148.541883
 21
249.144814
  0
LINE
  8
CSLAYER1
  6
CENTER
 62
     3
 10
152.905830
 20
261.928761
 11
172.254054
 21
281.276985
  0
ARC
  8
CSLAYER1
  6
CENTER
 62
     3
 10
208.541883
 20
317.564814
 40
65.000000
 50
212.917958
 51
237.082042
  0
LINE
  8
CSLAYER1
  6
CENTER
 62
     3
 10
122.541883
 20
317.564814
 11
294.541883
 21
317.564814
  0
ARC
  8
CSLAYER1
  6
CENTER
 62
     3
 10
208.541883
 20
317.564814
 40
65.000000
 50
32.917958
 51
57.082042
  0
LINE
  8
CSLAYER1
  6
CENTER
 62
     3
 10
244.829712
 20
353.852643
 11
264.177936
 21
373.200867
  0
LINE
  8
CSLAYER1
  6
CENTER
 62
     3
 10
267.547303
 20
362.544814
 11
334.934883
 21
362.544814
  0
LINE
  8
CSLAYER1
  6
CENTER
 62
     3
 10
380.560083
 20
317.564814
 11
666.531726
 21
317.564814
  0
LINE
  8
CSLAYER1
  6
CENTER
 62
     3
 10
678.868083
 20
362.564814
 11
784.228083
 21
362.564814
  0
LINE
  8
CSLAYER1
  6
CENTER
 62
     3
 10
870.155083
 20
362.544814
 11
1068.548083
 21
362.544814
  0
LINE
  8
CSLAYER1
  6
CENTER
 62
     3
 10
1083.255083
 20
317.564814
 11
909.955083
 21
317.564814
  0
LINE
  8
CSLAYER1
  6
CENTER
 62
     3
 10
936.548083
 20
249.144814
 11
936.548083
 21
215.764814
  0
LINE
  8
CSLAYER1
  6
CENTER
 62
     3
 10
996.548083
 20
215.764814
 11
996.548083
 21
437.164814
  0
LINE
  8
CSLAYER1
  6
CENTER
 62
     3
 10
1056.548083
 20
249.144814
 11
1056.548083
 21
215.764814
  0
LINE
  8
CSLAYER1
  6
CENTER
 62
     3
 10
779.048083
 20
213.964814
 11
779.048083
 21
247.824814
  0
LINE
  8
CSLAYER1
  6
CENTER
 62
     3
 10
731.548083
 20
211.924814
 11
731.548083
 21
438.564814
  0
LINE
  8
CSLAYER1
  6
CENTER
 62
     3
 10
731.548083
 20
487.225660
 11
731.548083
 21
700.325660
  0
LINE
  8
CSLAYER1
  6
CENTER
 62
     3
 10
767.548083
 20
673.618660
 11
790.548083
 21
673.618660
  0
LINE
  8
CSLAYER1
  6
CENTER
 62
     3
 10
779.048083
 20
662.118660
 11
779.048083
 21
685.118660
  0
LINE
  8
CSLAYER1
  6
CENTER
 62
     3
 10
695.548083
 20
673.618660
 11
672.548083
 21
673.618660
  0
LINE
  8
CSLAYER1
  6
CENTER
 62
     3
 10
684.048083
 20
685.118660
 11
684.048083
 21
662.118660
  0
LINE
  8
CSLAYER1
  6
CENTER
 62
     3
 10
604.548083
 20
659.580601
 11
561.248083
 21
659.580601
  0
ARC
  8
CSLAYER1
  6
CONTINUOUS
 62
     3
 10
526.548083
 20
637.118660
 40
2.000000
 50
0.000000
 51
90.000000
  0
LINE
  8
CSLAYER1
  6
CONTINUOUS
 62
     3
 10
526.548083
 20
639.118660
 11
498.548083
 21
639.118660
  0
ARC
  8
CSLAYER1
  6
CONTINUOUS
 62
     3
 10
498.548083
 20
637.118660
 40
2.000000
 50
90.000000
 51
180.000000
  0
LINE
  8
CSLAYER1
  6
CONTINUOUS
 62
     3
 10
496.548083
 20
637.118660
 11
496.548083
 21
590.118660
  0
ARC
  8
CSLAYER1
  6
CONTINUOUS
 62
     3
 10
498.548083
 20
590.118660
 40
2.000000
 50
180.000000
 51
270.000000
  0
LINE
  8
CSLAYER1
  6
CONTINUOUS
 62
     3
 10
498.548083
 20
588.118660
 11
526.548083
 21
588.118660
  0
ARC
  8
CSLAYER1
  6
CONTINUOUS
 62
     3
 10
526.548083
 20
590.118660
 40
2.000000
 50
270.000000
 51
360.000000
  0
LINE
  8
CSLAYER1
  6
CONTINUOUS
 62
     3
 10
528.548083
 20
590.118660
 11
528.548083
 21
637.118660
  0
LINE
  8
CSLAYER1
  6
CENTER
 62
     3
 10
418.548083
 20
645.011818
 11
418.548083
 21
667.618630
  0
LINE
  8
CSLAYER1
  6
CENTER
 62
     3
 10
380.560083
 20
613.618660
 11
817.548083
 21
613.618660
  0
LINE
  8
CSLAYER1
  6
CENTER
 62
     3
 10
779.048083
 20
565.118660
 11
779.048083
 21
542.118660
  0
LINE
  8
CSLAYER1
  6
CENTER
 62
     3
 10
767.548083
 20
553.618660
 11
790.548083
 21
553.618660
  0
LINE
  8
CSLAYER1
  6
CENTER
 62
     3
 10
695.548083
 20
553.618660
 11
672.548083
 21
553.618660
  0
LINE
  8
CSLAYER1
  6
CENTER
 62
     3
 10
684.048083
 20
542.118660
 11
684.048083
 21
565.118660
  0
LINE
  8
CSLAYER1
  6
CENTER
 62
     3
 10
604.548083
 20
567.646720
 11
561.248083
 21
567.646720
  0
LINE
  8
CSLAYER1
  6
CENTER
 62
     3
 10
418.548083
 20
559.618630
 11
418.548083
 21
582.225441
  0
LINE
  8
CSLAYER1
  6
CENTER
 62
     3
 10
418.548083
 20
349.564814
 11
418.548083
 21
285.564814
  0
LINE
  8
CSLAYER1
  6
CENTER
 62
     3
 10
413.548083
 20
280.564814
 11
413.548083
 21
269.864802
  0
LINE
  8
CSLAYER1
  6
CONTINUOUS
 62
     3
 10
498.548053
 20
353.970579
 11
526.548053
 21
353.970548
  0
ARC
  8
CSLAYER1
  6
CONTINUOUS
 62
     3
 10
526.548053
 20
355.970548
 40
2.000000
 50
270.000001
 51
359.942691
  0
LINE
  8
CSLAYER1
  6
CONTINUOUS
 62
     3
 10
528.548053
 20
355.970548
 11
528.548053
 21
362.564814
  0
ARC
  8
CSLAYER1
  6
CONTINUOUS
 62
     3
 10
498.548053
 20
355.970579
 40
2.000000
 50
180.000005
 51
270.000001
  0
LINE
  8
CSLAYER1
  6
CONTINUOUS
 62
     3
 10
496.548053
 20
355.970579
 11
496.548053
 21
362.564814
  0
LINE
  8
CSLAYER1
  6
CENTER
 62
     3
 10
562.055083
 20
363.526755
 11
626.055083
 21
363.526755
  0
LINE
  8
CSLAYER1
  6
CENTER
 62
     3
 10
626.055083
 20
271.602873
 11
562.055083
 21
271.602873
  0
LINE
  8
CSLAYER1
  6
CENTER
 62
     3
 10
684.048083
 20
247.824814
 11
684.048083
 21
213.664814
  0
LINE
  8
CSLAYER1
  6
CENTER
 62
     3
 10
268.541883
 20
218.064814
 11
268.541883
 21
249.144814
  0
LINE
  8
CSLAYER1
  6
CENTER
 62
     3
 10
264.177936
 20
261.928761
 11
244.829712
 21
281.276985
  0
ARC
  8
CSLAYER1
  6
CENTER
 62
     3
 10
208.541883
 20
317.564814
 40
65.000000
 50
302.917958
 51
327.082042
  0
LINE
  8
CSLAYER1
  6
CENTER
 62
     3
 10
208.541883
 20
218.064814
 11
208.541883
 21
433.544814
  0
ARC
  8
CSLAYER1
  6
CENTER
 62
     3
 10
208.541883
 20
317.564814
 40
65.000000
 50
122.917958
 51
147.082042
  0
LINE
  8
CSLAYER1
  6
CENTER
 62
     3
 10
172.254054
 20
353.852643
 11
152.905830
 21
373.200867
  0
TEXT
  8
CSLAYER1
 62
     3
 10
510.604858
 20
618.868713
 40
3.500000
 41
1.125000
  1
N P
 50
-90.000000
 51
10.000000
  7
JX_FONT
 72
     5
 11
510.604858
 21
608.368713
  0
LINE
  8
CSLAYER1
  6
CONTINUOUS
 62
     6
 10
133.541883
 20
222.564814
 11
178.541883
 21
222.564814
  0
LINE
  8
CSLAYER1
  6
CONTINUOUS
 62
     6
 10
178.541883
 20
222.564814
 11
180.041883
 21
224.064814
  0
LINE
  8
CSLAYER1
  6
CONTINUOUS
 62
     6
 10
180.041883
 20
224.064814
 11
237.041883
 21
224.064814
  0
LINE
  8
CSLAYER1
  6
CONTINUOUS
 62
     6
 10
237.041883
 20
224.064814
 11
238.541883
 21
222.564814
  0
LINE
  8
CSLAYER1
  6
CONTINUOUS
 62
     6
 10
238.541883
 20
222.564814
 11
283.541883
 21
222.564814
  0
LINE
  8
CSLAYER1
  6
CONTINUOUS
 62
     6
 10
283.541883
 20
222.564814
 11
283.541883
 21
238.444814
  0
ARC
  8
CSLAYER1
  6
CONTINUOUS
 62
     6
 10
281.041883
 20
238.444814
 40
2.500000
 50
0.000000
 51
80.530000
  0
LINE
  8
CSLAYER1
  6
CONTINUOUS
 62
     6
 10
281.441883
 20
240.904814
 11
256.041883
 21
245.144814
  0
ARC
  8
CSLAYER1
  6
CONTINUOUS
 62
     6
 10
256.541883
 20
248.104814
 40
3.000000
 50
180.000000
 51
260.530000
  0
LINE
  8
CSLAYER1
  6
CONTINUOUS
 62
     6
 10
253.541883
 20
251.421031
 11
253.541883
 21
222.564814
  0
LINE
  8
CSLAYER1
  6
DOT
 62
     6
 10
262.041883
 20
222.564814
 11
262.041883
 21
240.564814
  0
LINE
  8
CSLAYER1
  6
CONTINUOUS
 62
     6
 10
257.541883
 20
240.564814
 11
281.041883
 21
240.564814
  0
ARC
  8
CSLAYER1
  6
CONTINUOUS
 62
     6
 10
281.041883
 20
238.064814
 40
2.500000
 50
0.000000
 51
90.000000
  0
LINE
  8
CSLAYER1
  6
DOT
 62
     6
 10
275.041883
 20
240.564814
 11
275.041883
 21
222.564814
  0
ARC
  8
CSLAYER1
  6
CONTINUOUS
 62
     6
 10
257.541883
 20
244.564814
 40
4.000000
 50
180.000000
 51
270.000000
  0
LINE
  8
CSLAYER1
  6
CONTINUOUS
 62
     6
 10
254.503824
 20
264.097320
 11
248.003824
 21
267.850096
  0
LINE
  8
CSLAYER1
  6
CONTINUOUS
 62
     6
 10
248.003824
 20
267.850096
 11
248.003824
 21
275.355650
  0
LINE
  8
CSLAYER1
  6
CONTINUOUS
 62
     6
 10
248.003824
 20
275.355650
 11
254.503824
 21
279.108427
  0
LINE
  8
CSLAYER1
  6
CONTINUOUS
 62
     6
 10
254.503824
 20
279.108427
 11
261.003824
 21
275.355650
  0
LINE
  8
CSLAYER1
  6
CONTINUOUS
 62
     6
 10
261.003824
 20
275.355650
 11
261.003824
 21
267.850096
  0
LINE
  8
CSLAYER1
  6
CONTINUOUS
 62
     6
 10
261.003824
 20
267.850096
 11
254.503824
 21
264.097320
  0
CIRCLE
  8
CSLAYER1
  6
CONTINUOUS
 62
     6
 10
254.503824
 20
271.602873
 40
7.700000
  0
CIRCLE
  8
CSLAYER1
  6
CONTINUOUS
 62
     6
 10
254.503824
 20
271.602873
 40
6.305000
  0
ARC
  8
CSLAYER1
  6
CONTINUOUS
 62
     6
 10
252.541883
 20
292.564814
 40
1.000000
 50
270.000019
 51
360.000000
  0
LINE
  8
CSLAYER1
  6
CONTINUOUS
 62
     6
 10
253.541883
 20
292.564814
 11
253.541883
 21
293.564814
  0
ARC
  8
CSLAYER1
  6
CONTINUOUS
 62
     6
 10
252.556928
 20
293.564814
 40
1.000000
 50
0.000018
 51
89.999999
  0
LINE
  8
CSLAYER1
  6
CONTINUOUS
 62
     6
 10
252.556928
 20
294.564814
 11
248.982608
 21
294.752173
  0
ARC
  8
CSLAYER1
  6
CONTINUOUS
 62
     6
 10
249.071601
 20
296.449917
 40
1.700075
 50
92.999690
 51
266.999412
  0
LINE
  8
CSLAYER1
  6
CONTINUOUS
 62
     6
 10
248.982635
 20
298.147663
 11
256.562299
 21
298.544855
  0
ARC
  8
CSLAYER1
  6
CONTINUOUS
 62
     6
 10
256.541883
 20
299.544611
 40
1.000000
 50
271.169236
 51
359.999982
  0
LINE
  8
CSLAYER1
  6
CONTINUOUS
 62
     6
 10
257.541883
 20
299.544611
 11
257.541883
 21
335.585017
  0
ARC
  8
CSLAYER1
  6
CONTINUOUS
 62
     6
 10
256.541883
 20
335.585017
 40
1.000000
 50
0.000000
 51
88.830746
  0
LINE
  8
CSLAYER1
  6
CONTINUOUS
 62
     6
 10
256.562299
 20
336.584773
 11
248.982635
 21
336.981965
  0
ARC
  8
CSLAYER1
  6
CONTINUOUS
 62
     6
 10
249.071601
 20
338.679711
 40
1.700075
 50
93.000588
 51
267.000310
  0
LINE
  8
CSLAYER1
  6
CONTINUOUS
 62
     6
 10
248.982608
 20
340.377455
 11
252.556928
 21
340.564814
  0
ARC
  8
CSLAYER1
  6
CONTINUOUS
 62
     6
 10
252.556928
 20
341.564814
 40
1.000000
 50
270.000001
 51
359.999982
  0
LINE
  8
CSLAYER1
  6
CONTINUOUS
 62
     6
 10
253.541883
 20
341.564814
 11
253.541883
 21
342.564814
  0
ARC
  8
CSLAYER1
  6
CONTINUOUS
 62
     6
 10
252.541883
 20
342.564814
 40
1.000000
 50
0.000000
 51
89.999981
  0
LINE
  8
CSLAYER1
  6
CONTINUOUS
 62
     6
 10
252.541883
 20
343.564814
 11
243.694035
 21
344.028491
  0
ARC
  8
CSLAYER1
  6
CONTINUOUS
 62
     6
 10
208.541883
 20
317.564814
 40
45.000000
 50
35.914392
 51
144.085607
  0
LINE
  8
CSLAYER1
  6
CONTINUOUS
 62
     6
 10
173.389732
 20
344.028492
 11
164.541883
 21
343.564814
  0
ARC
  8
CSLAYER1
  6
CONTINUOUS
 62
     6
 10
164.541883
 20
342.564814
 40
1.000000
 50
90.000039
 51
180.000020
  0
LINE
  8
CSLAYER1
  6
CONTINUOUS
 62
     6
 10
163.541883
 20
342.564814
 11
163.541883
 21
341.564814
  0
ARC
  8
CSLAYER1
  6
CONTINUOUS
 62
     6
 10
164.526838
 20
341.564814
 40
1.000000
 50
180.000020
 51
270.000001
  0
LINE
  8
CSLAYER1
  6
CONTINUOUS
 62
     6
 10
164.526838
 20
340.564814
 11
168.101158
 21
340.377455
  0
ARC
  8
CSLAYER1
  6
CONTINUOUS
 62
     6
 10
168.012166
 20
338.679711
 40
1.700075
 50
-87.000310
 51
86.999412
  0
LINE
  8
CSLAYER1
  6
CONTINUOUS
 62
     6
 10
168.101132
 20
336.981965
 11
160.521467
 21
336.584773
  0
ARC
  8
CSLAYER1
  6
CONTINUOUS
 62
     6
 10
160.541883
 20
335.585017
 40
1.000000
 50
91.169216
 51
180.000020
  0
LINE
  8
CSLAYER1
  6
CONTINUOUS
 62
     6
 10
159.541883
 20
335.585017
 11
159.541883
 21
299.544611
  0
ARC
  8
CSLAYER1
  6
CONTINUOUS
 62
     6
 10
160.541883
 20
299.544611
 40
1.000000
 50
180.000020
 51
268.830766
  0
LINE
  8
CSLAYER1
  6
CONTINUOUS
 62
     6
 10
160.521467
 20
298.544855
 11
168.101132
 21
298.147663
  0
ARC
  8
CSLAYER1
  6
CONTINUOUS
 62
     6
 10
168.012166
 20
296.449917
 40
1.700075
 50
-86.999412
 51
87.000310
  0
LINE
  8
CSLAYER1
  6
CONTINUOUS
 62
     6
 10
168.101158
 20
294.752173
 11
164.526838
 21
294.564814
  0
ARC
  8
CSLAYER1
  6
CONTINUOUS
 62
     6
 10
164.526838
 20
293.564814
 40
1.000000
 50
90.000039
 51
180.000020
  0
LINE
  8
CSLAYER1
  6
CONTINUOUS
 62
     6
 10
163.541883
 20
293.564814
 11
163.541883
 21
292.564814
  0
ARC
  8
CSLAYER1
  6
CONTINUOUS
 62
     6
 10
164.541883
 20
292.564814
 40
1.000000
 50
180.000020
 51
270.000001
  0
LINE
  8
CSLAYER1
  6
CONTINUOUS
 62
     6
 10
164.541883
 20
291.564814
 11
173.389732
 21
291.101136
  0
ARC
  8
CSLAYER1
  6
CONTINUOUS
 62
     6
 10
208.541883
 20
317.564814
 40
45.000000
 50
215.914393
 51
266.815240
  0
LINE
  8
CSLAYER1
  6
CONTINUOUS
 62
     6
 10
206.041865
 20
273.635895
 11
206.041876
 21
264.377881
  0
ARC
  8
CSLAYER1
  6
CONTINUOUS
 62
     6
 10
206.666886
 20
265.460427
 40
1.250017
 50
239.999981
 51
299.999981
  0
ARC
  8
CSLAYER1
  6
CONTINUOUS
 62
     6
 10
207.916903
 20
265.460427
 40
1.250017
 50
239.999981
 51
299.999981
  0
ARC
  8
CSLAYER1
  6
CONTINUOUS
 62
     6
 10
207.916902
 20
263.295334
 40
1.250017
 50
59.999981
 51
119.999981
  0
LINE
  8
CSLAYER1
  6
CONTINUOUS
 62
     6
 10
208.541911
 20
264.377880
 11
208.541883
 21
272.564814
  0
ARC
  8
CSLAYER1
  6
CONTINUOUS
 62
     6
 10
208.541883
 20
317.564814
 40
45.000000
 50
273.184761
 51
324.085608
  0
LINE
  8
CSLAYER1
  6
CONTINUOUS
 62
     6
 10
243.694035
 20
291.101137
 11
252.541883
 21
291.564814
  0
ARC
  8
CSLAYER1
  6
CONTINUOUS
 62
     6
 10
208.541883
 20
317.564814
 40
45.000000
 50
330.524210
 51
334.456908
  0
LINE
  8
CSLAYER1
  6
CONTINUOUS
 62
     6
 10
240.541883
 20
298.990638
 11
240.541883
 21
305.564814
  0
ARC
  8
CSLAYER1
  6
CONTINUOUS
 62
     6
 10
238.541883
 20
305.564814
 40
2.000000
 50
0.000000
 51
90.000000
  0
LINE
  8
CSLAYER1
  6
CONTINUOUS
 62
     6
 10
238.541883
 20
307.564814
 11
232.541883
 21
307.564814
  0
ARC
  8
CSLAYER1
  6
CONTINUOUS
 62
     6
 10
232.541883
 20
304.564814
 40
3.000000
 50
90.000000
 51
180.000000
  0
LINE
  8
CSLAYER1
  6
CONTINUOUS
 62
     6
 10
229.541883
 20
304.564814
 11
229.541883
 21
291.183002
  0
ARC
  8
CSLAYER1
  6
CONTINUOUS
 62
     6
 10
231.541883
 20
291.183002
 40
2.000000
 50
180.000000
 51
311.082333
  0
ARC
  8
CSLAYER1
  6
CONTINUOUS
 62
     6
 10
208.541883
 20
317.564814
 40
37.000000
 50
311.082333
 51
329.867278
  0
LINE
  8
CSLAYER1
  6
CONTINUOUS
 62
     6
 10
222.541883
 20
297.943397
 11
222.541883
 21
287.564814
  0
ARC
  8
CSLAYER1
  6
CONTINUOUS
 62
     6
 10
220.541883
 20
287.564814
 40
2.000000
 50
270.000000
 51
360.000000
  0
LINE
  8
CSLAYER1
  6
CONTINUOUS
 62
     6
 10
220.541883
 20
285.564814
 11
215.541883
 21
285.564814
  0
ARC
  8
CSLAYER1
  6
CONTINUOUS
 62
     6
 10
215.541883
 20
287.564814
 40
2.000000
 50
180.000000
 51
270.000000
  0
LINE
  8
CSLAYER1
  6
CONTINUOUS
 62
     6
 10
213.541883
 20
287.564814
 11
213.541883
 21
295.655912
  0
ARC
  8
CSLAYER1
  6
CONTINUOUS
 62
     6
 10
215.541883
 20
295.655912
 40
2.000000
 50
107.718932
 51
180.000000
  0
ARC
  8
CSLAYER1
  6
CONTINUOUS
 62
     6
 10
208.541883
 20
317.564814
 40
21.000000
 50
287.718932
 51
301.448981
  0
ARC
  8
CSLAYER1
  6
CONTINUOUS
 62
     6
 10
220.541883
 20
297.943397
 40
2.000000
 50
0.000000
 51
121.448981
  0
LINE
  8
CSLAYER1
  6
CONTINUOUS
 62
     6
 10
212.935899
 20
303.222849
 11
212.353554
 21
305.123619
  0
ARC
  8
CSLAYER1
  6
CONTINUOUS
 62
     6
 10
215.034003
 20
306.288078
 40
2.922462
 50
50.235851
 51
203.481549
  0
ARC
  8
CSLAYER1
  6
CONTINUOUS
 62
     6
 10
217.775502
 20
309.582741
 40
1.363635
 50
230.236329
 51
322.096590
  0
ARC
  8
CSLAYER1
  6
CONTINUOUS
 62
     6
 10
208.541883
 20
316.771692
 40
13.065822
 50
-37.903067
 51
217.903051
  0
ARC
  8
CSLAYER1
  6
CONTINUOUS
 62
     6
 10
199.308252
 20
309.582741
 40
1.363635
 50
217.903413
 51
309.763730
  0
ARC
  8
CSLAYER1
  6
CONTINUOUS
 62
     6
 10
202.049754
 20
306.288078
 40
2.922462
 50
-23.481547
 51
129.764151
  0
LINE
  8
CSLAYER1
  6
CONTINUOUS
 62
     6
 10
204.730200
 20
305.123619
 11
204.147855
 21
303.222849
  0
CIRCLE
  8
CSLAYER1
  6
CONTINUOUS
 62
     6
 10
202.049754
 20
306.288078
 40
1.363635
  0
ARC
  8
CSLAYER1
  6
CONTINUOUS
 62
     6
 10
208.541883
 20
317.564814
 40
21.000000
 50
238.551019
 51
252.281068
  0
ARC
  8
CSLAYER1
  6
CONTINUOUS
 62
     6
 10
201.541883
 20
295.655912
 40
2.000000
 50
0.000000
 51
72.281068
  0
LINE
  8
CSLAYER1
  6
CONTINUOUS
 62
     6
 10
203.541883
 20
295.655912
 11
203.541883
 21
287.564814
  0
ARC
  8
CSLAYER1
  6
CONTINUOUS
 62
     6
 10
201.541883
 20
287.564814
 40
2.000000
 50
270.000000
 51
360.000000
  0
LINE
  8
CSLAYER1
  6
CONTINUOUS
 62
     6
 10
201.541883
 20
285.564814
 11
196.541883
 21
285.564814
  0
ARC
  8
CSLAYER1
  6
CONTINUOUS
 62
     6
 10
196.541883
 20
287.564814
 40
2.000000
 50
180.000000
 51
270.000000
  0
LINE
  8
CSLAYER1
  6
CONTINUOUS
 62
     6
 10
194.541883
 20
287.564814
 11
194.541883
 21
297.943397
  0
ARC
  8
CSLAYER1
  6
CONTINUOUS
 62
     6
 10
196.541883
 20
297.943397
 40
2.000000
 50
58.551019
 51
180.000000
  0
LINE
  8
CSLAYER1
  6
CONTINUOUS
 62
     6
 10
187.541883
 20
304.564814
 11
187.541883
 21
291.183002
  0
ARC
  8
CSLAYER1
  6
CONTINUOUS
 62
     6
 10
185.541883
 20
291.183002
 40
2.000000
 50
228.917667
 51
360.000000
  0
ARC
  8
CSLAYER1
  6
CONTINUOUS
 62
     6
 10
208.541883
 20
317.564814
 40
37.000000
 50
210.132722
 51
228.917667
  0
LINE
  8
CSLAYER1
  6
CONTINUOUS
 62
     6
 10
176.541883
 20
298.990638
 11
176.541883
 21
305.564814
  0
ARC
  8
CSLAYER1
  6
CONTINUOUS
 62
     6
 10
178.541883
 20
305.564814
 40
2.000000
 50
90.000000
 51
180.000000
  0
LINE
  8
CSLAYER1
  6
CONTINUOUS
 62
     6
 10
178.541883
 20
307.564814
 11
184.541883
 21
307.564814
  0
ARC
  8
CSLAYER1
  6
CONTINUOUS
 62
     6
 10
184.541883
 20
304.564814
 40
3.000000
 50
0.000000
 51
90.000000
  0
ARC
  8
CSLAYER1
  6
CONTINUOUS
 62
     6
 10
208.541883
 20
317.564814
 40
45.000000
 50
205.543092
 51
209.475790
  0
LINE
  8
CSLAYER1
  6
CONTINUOUS
 62
     6
 10
162.579942
 20
279.108427
 11
169.079942
 21
275.355650
  0
LINE
  8
CSLAYER1
  6
CONTINUOUS
 62
     6
 10
169.079942
 20
275.355650
 11
169.079942
 21
267.850096
  0
LINE
  8
CSLAYER1
  6
CONTINUOUS
 62
     6
 10
169.079942
 20
267.850096
 11
162.579942
 21
264.097320
  0
LINE
  8
CSLAYER1
  6
CONTINUOUS
 62
     6
 10
162.579942
 20
264.097320
 11
156.079942
 21
267.850096
  0
LINE
  8
CSLAYER1
  6
CONTINUOUS
 62
     6
 10
156.079942
 20
267.850096
 11
156.079942
 21
275.355650
  0
LINE
  8
CSLAYER1
  6
CONTINUOUS
 62
     6
 10
156.079942
 20
275.355650
 11
162.579942
 21
279.108427
  0
CIRCLE
  8
CSLAYER1
  6
CONTINUOUS
 62
     6
 10
162.579942
 20
271.602873
 40
7.700000
  0
CIRCLE
  8
CSLAYER1
  6
CONTINUOUS
 62
     6
 10
162.579942
 20
271.602873
 40
6.305000
  0
LINE
  8
CSLAYER1
  6
CONTINUOUS
 62
     6
 10
163.541883
 20
251.421031
 11
163.541883
 21
222.564814
  0
LINE
  8
CSLAYER1
  6
DOT
 62
     6
 10
155.041883
 20
222.564814
 11
155.041883
 21
240.564814
  0
LINE
  8
CSLAYER1
  6
CONTINUOUS
 62
     6
 10
159.541883
 20
240.564814
 11
136.041883
 21
240.564814
  0
ARC
  8
CSLAYER1
  6
CONTINUOUS
 62
     6
 10
136.041883
 20
238.064814
 40
2.500000
 50
90.000000
 51
180.000000
  0
LINE
  8
CSLAYER1
  6
CONTINUOUS
 62
     6
 10
133.541883
 20
238.444814
 11
133.541883
 21
222.564814
  0
LINE
  8
CSLAYER1
  6
DOT
 62
     6
 10
142.041883
 20
222.564814
 11
142.041883
 21
240.564814
  0
ARC
  8
CSLAYER1
  6
CONTINUOUS
 62
     6
 10
136.041883
 20
238.444814
 40
2.500000
 50
99.460000
 51
180.000000
  0
LINE
  8
CSLAYER1
  6
CONTINUOUS
 62
     6
 10
135.621883
 20
240.904814
 11
161.041883
 21
245.144814
  0
ARC
  8
CSLAYER1
  6
CONTINUOUS
 62
     6
 10
160.541883
 20
248.104814
 40
3.000000
 50
279.460000
 51
360.000000
  0
ARC
  8
CSLAYER1
  6
CONTINUOUS
 62
     6
 10
159.541883
 20
244.544814
 40
4.000000
 50
270.000000
 51
360.000000
  0
LINE
  8
CSLAYER1
  6
CONTINUOUS
 62
     6
 10
202.961555
 20
250.426280
 11
204.818785
 21
253.687946
  0
ARC
  8
CSLAYER1
  6
CONTINUOUS
 62
     6
 10
190.633984
 20
261.068520
 40
15.407880
 50
332.536225
 51
359.942687
  0
LINE
  8
CSLAYER1
  6
CONTINUOUS
 62
     6
 10
206.041857
 20
261.068578
 11
206.041857
 21
262.515392
  0
ARC
  8
CSLAYER1
  6
CONTINUOUS
 62
     6
 10
206.666846
 20
263.597927
 40
1.250008
 50
240.000345
 51
300.000345
  0
ARC
  8
CSLAYER1
  6
CONTINUOUS
 62
     6
 10
207.916867
 20
261.432857
 40
1.250008
 50
60.000345
 51
120.000345
  0
LINE
  8
CSLAYER1
  6
CONTINUOUS
 62
     6
 10
208.541884
 20
262.515384
 11
208.541854
 21
261.050607
  0
ARC
  8
CSLAYER1
  6
CONTINUOUS
 62
     6
 10
190.633984
 20
261.068520
 40
17.907879
 50
332.536225
 51
359.942687
  0
LINE
  8
CSLAYER1
  6
CONTINUOUS
 62
     6
 10
206.523690
 20
252.809638
 11
204.305413
 21
253.962632
  0
LINE
  8
CSLAYER1
  6
CONTINUOUS
 62
     6
 10
205.414551
 20
253.386135
 11
203.653630
 21
249.954632
  0
LINE
  8
CSLAYER1
  6
CONTINUOUS
 62
     6
 10
204.440349
 20
249.667417
 11
206.007137
 21
253.078127
  0
ARC
  8
CSLAYER1
  6
CONTINUOUS
 62
     6
 10
226.449782
 20
261.068578
 40
17.907879
 50
180.000020
 51
207.463892
  0
ARC
  8
CSLAYER1
  6
CONTINUOUS
 62
     6
 10
209.166895
 20
261.432849
 40
1.250008
 50
60.000345
 51
120.000345
  0
ARC
  8
CSLAYER1
  6
CONTINUOUS
 62
     6
 10
210.416903
 20
261.432857
 40
1.250008
 50
60.000345
 51
120.000345
  0
LINE
  8
CSLAYER1
  6
CONTINUOUS
 62
     6
 10
211.041911
 20
262.515392
 11
211.041911
 21
261.068578
  0
ARC
  8
CSLAYER1
  6
CONTINUOUS
 62
     6
 10
226.449782
 20
261.068520
 40
15.407880
 50
179.999963
 51
207.463892
  0
LINE
  8
CSLAYER1
  6
CONTINUOUS
 62
     6
 10
212.778373
 20
253.962593
 11
210.560096
 21
252.809638
  0
LINE
  8
CSLAYER1
  6
CONTINUOUS
 62
     6
 10
211.094407
 20
253.093390
 11
212.474110
 21
249.877642
  0
LINE
  8
CSLAYER1
  6
CONTINUOUS
 62
     6
 10
213.319037
 20
250.179409
 11
211.669235
 21
253.386116
  0
LINE
  8
CSLAYER1
  6
CONTINUOUS
 62
     6
 10
212.241610
 20
253.683609
 11
214.055806
 21
250.691401
  0
ARC
  8
CSLAYER1
  6
CONTINUOUS
 62
     6
 10
209.166882
 20
263.597927
 40
1.250008
 50
240.000345
 51
300.000345
  0
ARC
  8
CSLAYER1
  6
CONTINUOUS
 62
     6
 10
206.666859
 20
261.432849
 40
1.250008
 50
60.000345
 51
120.000345
  0
ARC
  8
CSLAYER1
  6
CONTINUOUS
 62
     6
 10
209.166922
 20
265.460427
 40
1.250017
 50
239.999981
 51
299.999981
  0
ARC
  8
CSLAYER1
  6
CONTINUOUS
 62
     6
 10
210.416939
 20
265.460427
 40
1.250017
 50
239.999981
 51
299.999981
  0
ARC
  8
CSLAYER1
  6
CONTINUOUS
 62
     6
 10
210.416938
 20
263.295334
 40
1.250017
 50
59.999981
 51
119.999981
  0
LINE
  8
CSLAYER1
  6
CONTINUOUS
 62
     6
 10
211.041911
 20
264.377881
 11
211.041900
 21
273.635895
  0
CIRCLE
  8
CSLAYER1
  6
CONTINUOUS
 62
     6
 10
215.034003
 20
306.288078
 40
1.363635
  0
CIRCLE
  8
CSLAYER1
  6
CONTINUOUS
 62
     6
 10
208.541883
 20
317.564814
 40
44.000000
  0
CIRCLE
  8
CSLAYER1
  6
CONTINUOUS
 62
     6
 10
208.541883
 20
317.564814
 40
15.000000
  0
CIRCLE
  8
CSLAYER1
  6
CONTINUOUS
 62
     6
 10
208.541883
 20
317.564814
 40
80.000000
  0
ARC
  8
CSLAYER1
  6
CONTINUOUS
 62
     6
 10
215.541883
 20
339.473716
 40
2.000000
 50
180.000000
 51
252.281068
  0
LINE
  8
CSLAYER1
  6
CONTINUOUS
 62
     6
 10
213.541883
 20
339.473716
 11
213.541883
 21
347.564814
  0
ARC
  8
CSLAYER1
  6
CONTINUOUS
 62
     6
 10
215.541883
 20
347.564814
 40
2.000000
 50
90.000000
 51
180.000000
  0
LINE
  8
CSLAYER1
  6
CONTINUOUS
 62
     6
 10
215.541883
 20
349.564814
 11
220.541883
 21
349.564814
  0
ARC
  8
CSLAYER1
  6
CONTINUOUS
 62
     6
 10
220.541883
 20
347.564814
 40
2.000000
 50
0.000000
 51
90.000000
  0
LINE
  8
CSLAYER1
  6
CONTINUOUS
 62
     6
 10
222.541883
 20
347.564814
 11
222.541883
 21
337.186231
  0
ARC
  8
CSLAYER1
  6
CONTINUOUS
 62
     6
 10
220.541883
 20
337.186231
 40
2.000000
 50
238.551019
 51
360.000000
  0
ARC
  8
CSLAYER1
  6
CONTINUOUS
 62
     6
 10
208.541883
 20
317.564814
 40
21.000000
 50
58.551019
 51
72.281068
  0
ARC
  8
CSLAYER1
  6
CONTINUOUS
 62
     6
 10
201.541883
 20
339.473716
 40
2.000000
 50
287.718932
 51
360.000000
  0
ARC
  8
CSLAYER1
  6
CONTINUOUS
 62
     6
 10
208.541883
 20
317.564814
 40
21.000000
 50
107.718932
 51
121.448981
  0
ARC
  8
CSLAYER1
  6
CONTINUOUS
 62
     6
 10
196.541883
 20
337.186231
 40
2.000000
 50
180.000000
 51
301.448981
  0
LINE
  8
CSLAYER1
  6
CONTINUOUS
 62
     6
 10
194.541883
 20
337.186231
 11
194.541883
 21
347.564814
  0
ARC
  8
CSLAYER1
  6
CONTINUOUS
 62
     6
 10
196.541883
 20
347.564814
 40
2.000000
 50
90.000000
 51
180.000000
  0
LINE
  8
CSLAYER1
  6
CONTINUOUS
 62
     6
 10
196.541883
 20
349.564814
 11
201.541883
 21
349.564814
  0
ARC
  8
CSLAYER1
  6
CONTINUOUS
 62
     6
 10
201.541883
 20
347.564814
 40
2.000000
 50
0.000000
 51
90.000000
  0
LINE
  8
CSLAYER1
  6
CONTINUOUS
 62
     6
 10
203.541883
 20
347.564814
 11
203.541883
 21
339.473716
  0
LINE
  8
CSLAYER1
  6
CONTINUOUS
 62
     6
 10
187.541883
 20
343.946626
 11
187.541883
 21
330.564814
  0
ARC
  8
CSLAYER1
  6
CONTINUOUS
 62
     6
 10
184.541883
 20
330.564814
 40
3.000000
 50
270.000000
 51
360.000000
  0
LINE
  8
CSLAYER1
  6
CONTINUOUS
 62
     6
 10
184.541883
 20
327.564814
 11
178.541883
 21
327.564814
  0
ARC
  8
CSLAYER1
  6
CONTINUOUS
 62
     6
 10
178.541883
 20
329.564814
 40
2.000000
 50
180.000000
 51
270.000000
  0
LINE
  8
CSLAYER1
  6
CONTINUOUS
 62
     6
 10
176.541883
 20
329.564814
 11
176.541883
 21
336.138990
  0
ARC
  8
CSLAYER1
  6
CONTINUOUS
 62
     6
 10
208.541883
 20
317.564814
 40
37.000000
 50
131.082333
 51
149.867278
  0
ARC
  8
CSLAYER1
  6
CONTINUOUS
 62
     6
 10
185.541883
 20
343.946626
 40
2.000000
 50
0.000000
 51
131.082333
  0
ARC
  8
CSLAYER1
  6
CONTINUOUS
 62
     6
 10
208.541883
 20
317.564814
 40
45.000000
 50
150.524210
 51
154.449420
  0
LINE
  8
CSLAYER1
  6
CONTINUOUS
 62
     6
 10
162.579942
 20
356.021201
 11
169.079942
 21
359.773978
  0
LINE
  8
CSLAYER1
  6
CONTINUOUS
 62
     6
 10
169.079942
 20
359.773978
 11
169.079942
 21
367.279532
  0
LINE
  8
CSLAYER1
  6
CONTINUOUS
 62
     6
 10
169.079942
 20
367.279532
 11
162.579942
 21
371.032308
  0
LINE
  8
CSLAYER1
  6
CONTINUOUS
 62
     6
 10
162.579942
 20
371.032308
 11
156.079942
 21
367.279532
  0
LINE
  8
CSLAYER1
  6
CONTINUOUS
 62
     6
 10
156.079942
 20
367.279532
 11
156.079942
 21
359.773978
  0
LINE
  8
CSLAYER1
  6
CONTINUOUS
 62
     6
 10
156.079942
 20
359.773978
 11
162.579942
 21
356.021201
  0
CIRCLE
  8
CSLAYER1
  6
CONTINUOUS
 62
     6
 10
162.579942
 20
363.526755
 40
7.700000
  0
CIRCLE
  8
CSLAYER1
  6
CONTINUOUS
 62
     6
 10
162.579942
 20
363.526755
 40
6.305000
  0
LINE
  8
CSLAYER1
  6
CONTINUOUS
 62
     6
 10
146.541883
 20
368.121713
 11
146.541883
 21
397.804814
  0
ARC
  8
CSLAYER1
  6
CONTINUOUS
 62
     6
 10
151.541883
 20
397.804814
 40
5.000000
 50
106.380000
 51
180.000000
  0
LINE
  8
CSLAYER1
  6
CONTINUOUS
 62
     6
 10
150.121883
 20
402.604814
 11
159.941883
 21
405.504814
  0
ARC
  8
CSLAYER1
  6
CONTINUOUS
 62
     6
 10
158.541883
 20
410.304814
 40
5.000000
 50
286.380000
 51
360.000000
  0
LINE
  8
CSLAYER1
  6
CONTINUOUS
 62
     6
 10
163.541883
 20
383.708597
 11
163.541883
 21
423.824814
  0
ARC
  8
CSLAYER1
  6
CONTINUOUS
 62
     6
 10
166.541883
 20
423.824814
 40
3.000000
 50
91.000000
 51
180.000000
  0
LINE
  8
CSLAYER1
  6
CONTINUOUS
 62
     6
 10
166.481883
 20
426.824814
 11
208.541883
 21
427.544814
  0
LINE
  8
CSLAYER1
  6
CONTINUOUS
 62
     6
 10
208.541883
 20
427.544814
 11
250.581883
 21
426.824814
  0
ARC
  8
CSLAYER1
  6
CONTINUOUS
 62
     6
 10
250.541883
 20
423.824814
 40
3.000000
 50
0.000000
 51
89.000000
  0
LINE
  8
CSLAYER1
  6
CONTINUOUS
 62
     6
 10
253.541883
 20
423.824814
 11
253.541883
 21
383.708597
  0
LINE
  8
CSLAYER1
  6
CONTINUOUS
 62
     6
 10
254.503824
 20
371.032308
 11
248.003824
 21
367.279532
  0
LINE
  8
CSLAYER1
  6
CONTINUOUS
 62
     6
 10
248.003824
 20
367.279532
 11
248.003824
 21
359.773978
  0
LINE
  8
CSLAYER1
  6
CONTINUOUS
 62
     6
 10
248.003824
 20
359.773978
 11
254.503824
 21
356.021201
  0
LINE
  8
CSLAYER1
  6
CONTINUOUS
 62
     6
 10
254.503824
 20
356.021201
 11
261.003824
 21
359.773978
  0
LINE
  8
CSLAYER1
  6
CONTINUOUS
 62
     6
 10
261.003824
 20
359.773978
 11
261.003824
 21
367.279532
  0
LINE
  8
CSLAYER1
  6
CONTINUOUS
 62
     6
 10
261.003824
 20
367.279532
 11
254.503824
 21
371.032308
  0
CIRCLE
  8
CSLAYER1
  6
CONTINUOUS
 62
     6
 10
254.503824
 20
363.526755
 40
7.700000
  0
CIRCLE
  8
CSLAYER1
  6
CONTINUOUS
 62
     6
 10
254.503824
 20
363.526755
 40
6.305000
  0
ARC
  8
CSLAYER1
  6
CONTINUOUS
 62
     6
 10
208.541883
 20
317.564814
 40
64.000000
 50
44.670000
 51
45.320000
  0
LINE
  8
CSLAYER1
  6
CONTINUOUS
 62
     6
 10
270.541883
 20
368.121713
 11
270.541883
 21
397.804814
  0
ARC
  8
CSLAYER1
  6
CONTINUOUS
 62
     6
 10
265.541883
 20
397.804814
 40
5.000000
 50
0.000000
 51
73.610000
  0
LINE
  8
CSLAYER1
  6
CONTINUOUS
 62
     6
 10
266.941883
 20
402.604814
 11
257.121883
 21
405.504814
  0
ARC
  8
CSLAYER1
  6
CONTINUOUS
 62
     6
 10
258.541883
 20
410.304814
 40
5.000000
 50
180.000000
 51
253.610000
  0
LINE
  8
CSLAYER1
  6
CONTINUOUS
 62
     6
 10
270.541883
 20
380.044814
 11
273.541883
 21
380.044814
  0
LINE
  8
CSLAYER1
  6
CONTINUOUS
 62
     6
 10
273.541883
 20
380.044814
 11
273.541883
 21
364.201709
  0
LINE
  8
CSLAYER1
  6
CONTINUOUS
 62
     6
 10
273.541883
 20
378.544814
 11
328.541883
 21
378.544814
  0
LINE
  8
CSLAYER1
  6
CONTINUOUS
 62
     6
 10
328.541883
 20
378.544814
 11
328.541883
 21
346.544814
  0
LINE
  8
CSLAYER1
  6
CONTINUOUS
 62
     6
 10
328.541883
 20
346.544814
 11
283.108361
 21
346.544814
  0
ARC
  8
CSLAYER1
  6
CONTINUOUS
 62
     6
 10
208.541883
 20
317.564814
 40
45.000000
 50
25.550580
 51
29.475790
  0
LINE
  8
CSLAYER1
  6
CONTINUOUS
 62
     6
 10
240.541883
 20
336.138990
 11
240.541883
 21
329.564814
  0
ARC
  8
CSLAYER1
  6
CONTINUOUS
 62
     6
 10
238.541883
 20
329.564814
 40
2.000000
 50
270.000000
 51
360.000000
  0
LINE
  8
CSLAYER1
  6
CONTINUOUS
 62
     6
 10
238.541883
 20
327.564814
 11
232.541883
 21
327.564814
  0
ARC
  8
CSLAYER1
  6
CONTINUOUS
 62
     6
 10
232.541883
 20
330.564814
 40
3.000000
 50
180.000000
 51
270.000000
  0
LINE
  8
CSLAYER1
  6
CONTINUOUS
 62
     6
 10
229.541883
 20
330.564814
 11
229.541883
 21
343.946626
  0
ARC
  8
CSLAYER1
  6
CONTINUOUS
 62
     6
 10
231.541883
 20
343.946626
 40
2.000000
 50
48.917667
 51
180.000000
  0
ARC
  8
CSLAYER1
  6
CONTINUOUS
 62
     6
 10
208.541883
 20
317.564814
 40
37.000000
 50
30.132722
 51
48.917667
  0
LINE
  8
CSLAYER1
  6
CONTINUOUS
 62
     6
 10
386.548083
 20
360.453272
 11
386.548083
 21
274.564814
  0
LINE
  8
CSLAYER1
  6
CONTINUOUS
 62
     6
 10
386.548083
 20
274.564814
 11
387.548083
 21
273.564814
  0
LINE
  8
CSLAYER1
  6
CONTINUOUS
 62
     6
 10
387.548083
 20
273.564814
 11
387.548083
 21
361.453272
  0
LINE
  8
CSLAYER1
  6
CONTINUOUS
 62
     6
 10
387.548083
 20
361.453272
 11
386.548083
 21
360.453272
  0
LINE
  8
CSLAYER1
  6
CONTINUOUS
 62
     6
 10
387.548083
 20
361.453272
 11
439.548083
 21
361.453272
  0
LINE
  8
CSLAYER1
  6
CONTINUOUS
 62
     6
 10
439.548083
 20
362.564814
 11
439.548083
 21
272.564814
  0
LINE
  8
CSLAYER1
  6
CONTINUOUS
 62
     6
 10
439.548083
 20
272.564814
 11
567.248083
 21
272.564814
  0
LINE
  8
CSLAYER1
  6
CONTINUOUS
 62
     6
 10
567.750860
 20
275.355650
 11
572.548083
 21
275.355650
  0
LINE
  8
CSLAYER1
  6
CONTINUOUS
 62
     6
 10
572.548083
 20
272.218873
 11
574.548083
 21
272.834873
  0
LINE
  8
CSLAYER1
  6
CONTINUOUS
 62
     6
 10
574.548083
 20
270.986873
 11
572.548083
 21
270.370873
  0
LINE
  8
CSLAYER1
  6
CONTINUOUS
 62
     6
 10
572.548083
 20
267.850096
 11
567.750860
 21
267.850096
  0
ARC
  8
CSLAYER1
  6
CONTINUOUS
 62
     6
 10
581.505025
 20
271.602873
 40
14.256942
 50
164.738520
 51
195.261480
  0
ARC
  8
CSLAYER1
  6
CONTINUOUS
 62
     6
 10
571.000860
 20
277.232038
 40
3.752777
 50
164.553352
 51
210.000000
  0
LINE
  8
CSLAYER1
  6
CONTINUOUS
 62
     6
 10
567.248083
 20
277.907873
 11
567.248083
 21
265.297873
  0
LINE
  8
CSLAYER1
  6
CONTINUOUS
 62
     6
 10
567.248083
 20
265.297873
 11
567.750860
 21
264.097320
  0
LINE
  8
CSLAYER1
  6
CONTINUOUS
 62
     6
 10
567.750860
 20
264.097320
 11
572.548083
 21
264.097320
  0
LINE
  8
CSLAYER1
  6
CONTINUOUS
 62
     6
 10
572.548083
 20
263.902873
 11
572.548083
 21
279.302873
  0
LINE
  8
CSLAYER1
  6
CONTINUOUS
 62
     6
 10
572.548083
 20
279.302873
 11
574.548083
 21
279.302873
  0
LINE
  8
CSLAYER1
  6
CONTINUOUS
 62
     6
 10
572.548083
 20
279.108427
 11
567.750860
 21
279.108427
  0
LINE
  8
CSLAYER1
  6
CONTINUOUS
 62
     6
 10
567.750860
 20
279.108427
 11
567.248083
 21
277.907873
  0
ARC
  8
CSLAYER1
  6
CONTINUOUS
 62
     6
 10
571.000860
 20
265.973708
 40
3.752777
 50
150.000000
 51
195.446648
  0
LINE
  8
CSLAYER1
  6
CONTINUOUS
 62
     6
 10
572.548083
 20
263.902873
 11
574.548083
 21
263.902873
  0
LINE
  8
CSLAYER1
  6
CONTINUOUS
 62
     6
 10
574.548083
 20
237.564814
 11
587.548083
 21
237.564814
  0
LINE
  8
CSLAYER1
  6
CONTINUOUS
 62
     6
 10
587.548083
 20
237.564814
 11
587.548083
 21
397.544814
  0
LINE
  8
CSLAYER1
  6
CONTINUOUS
 62
     6
 10
587.548083
 20
397.544814
 11
592.628083
 21
397.424814
  0
ARC
  8
CSLAYER1
  6
CONTINUOUS
 62
     6
 10
592.548083
 20
394.424814
 40
3.000000
 50
0.000000
 51
88.490000
  0
LINE
  8
CSLAYER1
  6
CONTINUOUS
 62
     6
 10
595.548083
 20
394.424814
 11
595.548083
 21
240.424814
  0
ARC
  8
CSLAYER1
  6
CONTINUOUS
 62
     6
 10
597.488083
 20
239.964814
 40
2.000000
 50
166.830000
 51
171.680000
  0
ARC
  8
CSLAYER1
  6
CONTINUOUS
 62
     6
 10
592.548083
 20
240.684814
 40
3.000000
 50
271.500000
 51
351.680000
  0
LINE
  8
CSLAYER1
  6
CONTINUOUS
 62
     6
 10
592.628083
 20
237.684814
 11
587.548083
 21
237.564814
  0
LINE
  8
CSLAYER1
  6
CONTINUOUS
 62
     6
 10
574.548083
 20
237.564814
 11
574.548083
 21
397.564814
  0
LINE
  8
CSLAYER1
  6
CONTINUOUS
 62
     6
 10
574.548083
 20
397.564814
 11
587.548083
 21
397.564814
  0
LINE
  8
CSLAYER1
  6
CONTINUOUS
 62
     6
 10
574.548083
 20
371.226755
 11
572.548083
 21
371.226755
  0
LINE
  8
CSLAYER1
  6
CONTINUOUS
 62
     6
 10
572.548083
 20
371.226755
 11
572.548083
 21
355.826755
  0
LINE
  8
CSLAYER1
  6
CONTINUOUS
 62
     6
 10
572.548083
 20
355.826755
 11
574.548083
 21
355.826755
  0
LINE
  8
CSLAYER1
  6
CONTINUOUS
 62
     6
 10
572.548083
 20
356.021201
 11
567.750860
 21
356.021201
  0
LINE
  8
CSLAYER1
  6
CONTINUOUS
 62
     6
 10
567.750860
 20
356.021201
 11
567.248083
 21
357.221755
  0
LINE
  8
CSLAYER1
  6
CONTINUOUS
 62
     6
 10
567.248083
 20
357.221755
 11
567.248083
 21
369.831755
  0
LINE
  8
CSLAYER1
  6
CONTINUOUS
 62
     6
 10
567.248083
 20
369.831755
 11
567.750860
 21
371.032308
  0
LINE
  8
CSLAYER1
  6
CONTINUOUS
 62
     6
 10
567.750860
 20
371.032308
 11
572.548083
 21
371.032308
  0
LINE
  8
CSLAYER1
  6
CONTINUOUS
 62
     6
 10
572.548083
 20
367.279532
 11
567.750860
 21
367.279532
  0
ARC
  8
CSLAYER1
  6
CONTINUOUS
 62
     6
 10
571.000860
 20
369.155920
 40
3.752777
 50
164.553352
 51
210.000000
  0
ARC
  8
CSLAYER1
  6
CONTINUOUS
 62
     6
 10
581.505025
 20
363.526755
 40
14.256942
 50
164.738520
 51
195.261480
  0
ARC
  8
CSLAYER1
  6
CONTINUOUS
 62
     6
 10
571.000860
 20
357.897590
 40
3.752777
 50
150.000000
 51
195.446648
  0
LINE
  8
CSLAYER1
  6
CONTINUOUS
 62
     6
 10
567.750860
 20
359.773978
 11
572.548083
 21
359.773978
  0
LINE
  8
CSLAYER1
  6
CONTINUOUS
 62
     6
 10
572.548083
 20
362.294755
 11
574.548083
 21
362.910755
  0
LINE
  8
CSLAYER1
  6
CONTINUOUS
 62
     6
 10
574.548083
 20
364.758755
 11
572.548083
 21
364.142755
  0
LINE
  8
CSLAYER1
  6
CONTINUOUS
 62
     6
 10
567.248083
 20
362.564814
 11
439.548083
 21
362.564814
  0
LINE
  8
CSLAYER1
  6
CONTINUOUS
 62
     6
 10
436.548083
 20
343.564814
 11
400.548083
 21
343.564814
  0
ARC
  8
CSLAYER1
  6
CONTINUOUS
 62
     6
 10
400.548083
 20
342.564814
 40
1.000000
 50
90.000016
 51
180.000005
  0
LINE
  8
CSLAYER1
  6
CONTINUOUS
 62
     6
 10
399.548083
 20
342.564814
 11
399.548083
 21
341.564814
  0
ARC
  8
CSLAYER1
  6
CONTINUOUS
 62
     6
 10
400.548083
 20
341.564814
 40
1.000000
 50
180.000019
 51
270.000001
  0
LINE
  8
CSLAYER1
  6
CONTINUOUS
 62
     6
 10
400.548083
 20
340.564814
 11
436.548083
 21
340.564814
  0
ARC
  8
CSLAYER1
  6
CONTINUOUS
 62
     6
 10
436.548083
 20
341.564814
 40
1.000000
 50
270.000001
 51
359.942691
  0
LINE
  8
CSLAYER1
  6
CONTINUOUS
 62
     6
 10
437.548083
 20
341.564814
 11
437.548083
 21
342.564814
  0
ARC
  8
CSLAYER1
  6
CONTINUOUS
 62
     6
 10
436.548083
 20
342.564814
 40
1.000000
 50
0.000000
 51
90.000003
  0
ARC
  8
CSLAYER1
  6
CONTINUOUS
 62
     6
 10
436.548083
 20
335.564814
 40
1.000000
 50
0.000000
 51
90.000003
  0
LINE
  8
CSLAYER1
  6
CONTINUOUS
 62
     6
 10
437.548083
 20
335.564814
 11
437.548083
 21
334.564814
  0
ARC
  8
CSLAYER1
  6
CONTINUOUS
 62
     6
 10
436.548083
 20
334.564814
 40
1.000000
 50
270.000001
 51
359.942691
  0
LINE
  8
CSLAYER1
  6
CONTINUOUS
 62
     6
 10
436.548083
 20
333.564814
 11
431.776843
 21
333.564814
  0
ARC
  8
CSLAYER1
  6
CONTINUOUS
 62
     6
 10
431.776843
 20
332.564814
 40
1.000000
 50
90.000003
 51
228.590367
  0
ARC
  8
CSLAYER1
  6
CONTINUOUS
 62
     6
 10
418.548083
 20
317.564814
 40
19.000000
 50
-48.590366
 51
48.590386
  0
ARC
  8
CSLAYER1
  6
CONTINUOUS
 62
     6
 10
431.776843
 20
302.564814
 40
1.000000
 50
131.409643
 51
270.000001
  0
LINE
  8
CSLAYER1
  6
CONTINUOUS
 62
     6
 10
431.776843
 20
301.564814
 11
436.548083
 21
301.564814
  0
ARC
  8
CSLAYER1
  6
CONTINUOUS
 62
     6
 10
436.548083
 20
300.564814
 40
1.000000
 50
0.057309
 51
89.999999
  0
LINE
  8
CSLAYER1
  6
CONTINUOUS
 62
     6
 10
437.548083
 20
300.564814
 11
437.548083
 21
299.564814
  0
ARC
  8
CSLAYER1
  6
CONTINUOUS
 62
     6
 10
436.548083
 20
299.564814
 40
1.000000
 50
269.999997
 51
360.000000
  0
LINE
  8
CSLAYER1
  6
CONTINUOUS
 62
     6
 10
436.548083
 20
298.564814
 11
400.548083
 21
298.564814
  0
ARC
  8
CSLAYER1
  6
CONTINUOUS
 62
     6
 10
400.548083
 20
299.564814
 40
1.000000
 50
179.999995
 51
269.999984
  0
LINE
  8
CSLAYER1
  6
CONTINUOUS
 62
     6
 10
399.548083
 20
299.564814
 11
399.548083
 21
300.564814
  0
ARC
  8
CSLAYER1
  6
CONTINUOUS
 62
     6
 10
400.548083
 20
300.564814
 40
1.000000
 50
89.999999
 51
179.999981
  0
LINE
  8
CSLAYER1
  6
CONTINUOUS
 62
     6
 10
400.548083
 20
301.564814
 11
405.319323
 21
301.564814
  0
ARC
  8
CSLAYER1
  6
CONTINUOUS
 62
     6
 10
405.319323
 20
302.564814
 40
1.000000
 50
-89.999999
 51
48.590386
  0
ARC
  8
CSLAYER1
  6
CONTINUOUS
 62
     6
 10
418.548083
 20
317.564814
 40
19.000000
 50
131.409657
 51
228.590367
  0
ARC
  8
CSLAYER1
  6
CONTINUOUS
 62
     6
 10
405.319323
 20
332.564814
 40
1.000000
 50
-48.590366
 51
90.000019
  0
LINE
  8
CSLAYER1
  6
CONTINUOUS
 62
     6
 10
405.319323
 20
333.564814
 11
400.548083
 21
333.564814
  0
ARC
  8
CSLAYER1
  6
CONTINUOUS
 62
     6
 10
400.548083
 20
334.564814
 40
1.000000
 50
180.000019
 51
270.000001
  0
LINE
  8
CSLAYER1
  6
CONTINUOUS
 62
     6
 10
399.548083
 20
334.564814
 11
399.548083
 21
335.564814
  0
ARC
  8
CSLAYER1
  6
CONTINUOUS
 62
     6
 10
400.548083
 20
335.564814
 40
1.000000
 50
90.000016
 51
180.000005
  0
LINE
  8
CSLAYER1
  6
CONTINUOUS
 62
     6
 10
400.548083
 20
336.564814
 11
436.548083
 21
336.564814
  0
LINE
  8
CSLAYER1
  6
CONTINUOUS
 62
     6
 10
424.548083
 20
318.464808
 11
412.548083
 21
318.464808
  0
LINE
  8
CSLAYER1
  6
CONTINUOUS
 62
     6
 10
412.548083
 20
318.464808
 11
412.548083
 21
316.664820
  0
LINE
  8
CSLAYER1
  6
CONTINUOUS
 62
     6
 10
412.548083
 20
316.664820
 11
424.548083
 21
316.664820
  0
LINE
  8
CSLAYER1
  6
CONTINUOUS
 62
     6
 10
424.548083
 20
316.664820
 11
424.548083
 21
318.464808
  0
CIRCLE
  8
CSLAYER1
  6
CONTINUOUS
 62
     6
 10
418.548083
 20
317.564814
 40
12.000000
  0
CIRCLE
  8
CSLAYER1
  6
CONTINUOUS
 62
     6
 10
418.548083
 20
317.564814
 40
15.000000
  0
CIRCLE
  8
CSLAYER1
  6
CONTINUOUS
 62
     6
 10
418.548083
 20
317.564814
 40
16.000000
  0
ARC
  8
CSLAYER1
  6
CONTINUOUS
 62
     6
 10
400.548083
 20
293.564814
 40
1.000000
 50
89.999999
 51
179.999981
  0
LINE
  8
CSLAYER1
  6
CONTINUOUS
 62
     6
 10
399.548083
 20
293.564814
 11
399.548083
 21
292.564814
  0
ARC
  8
CSLAYER1
  6
CONTINUOUS
 62
     6
 10
400.548083
 20
292.564814
 40
1.000000
 50
179.999995
 51
269.999984
  0
LINE
  8
CSLAYER1
  6
CONTINUOUS
 62
     6
 10
400.548083
 20
291.564814
 11
436.548083
 21
291.564814
  0
ARC
  8
CSLAYER1
  6
CONTINUOUS
 62
     6
 10
436.548083
 20
292.564814
 40
1.000000
 50
269.999997
 51
360.000000
  0
LINE
  8
CSLAYER1
  6
CONTINUOUS
 62
     6
 10
437.548083
 20
292.564814
 11
437.548083
 21
293.564814
  0
ARC
  8
CSLAYER1
  6
CONTINUOUS
 62
     6
 10
436.548083
 20
293.564814
 40
1.000000
 50
0.057309
 51
89.999999
  0
LINE
  8
CSLAYER1
  6
CONTINUOUS
 62
     6
 10
436.548083
 20
294.564814
 11
400.548083
 21
294.564814
  0
LINE
  8
CSLAYER1
  6
CONTINUOUS
 62
     6
 10
400.548083
 20
277.564814
 11
400.548083
 21
273.564814
  0
LINE
  8
CSLAYER1
  6
CONTINUOUS
 62
     6
 10
400.548083
 20
273.564814
 11
387.548083
 21
273.564814
  0
LINE
  8
CSLAYER1
  6
CONTINUOUS
 62
     6
 10
396.431922
 20
264.560997
 11
396.261027
 21
264.393986
  0
LINE
  8
CSLAYER1
  6
CONTINUOUS
 62
     6
 10
396.261027
 20
264.393986
 11
396.088024
 21
264.225870
  0
LINE
  8
CSLAYER1
  6
CONTINUOUS
 62
     6
 10
396.088024
 20
264.225870
 11
395.914689
 21
264.058975
  0
LINE
  8
CSLAYER1
  6
CONTINUOUS
 62
     6
 10
395.914689
 20
264.058975
 11
395.742797
 21
263.895626
  0
LINE
  8
CSLAYER1
  6
CONTINUOUS
 62
     6
 10
395.742797
 20
263.895626
 11
395.574124
 21
263.738147
  0
LINE
  8
CSLAYER1
  6
CONTINUOUS
 62
     6
 10
395.574124
 20
263.738147
 11
395.410447
 21
263.588862
  0
LINE
  8
CSLAYER1
  6
CONTINUOUS
 62
     6
 10
395.410447
 20
263.588862
 11
395.253541
 21
263.450098
  0
LINE
  8
CSLAYER1
  6
CONTINUOUS
 62
     6
 10
395.253541
 20
263.450098
 11
395.112310
 21
263.327301
  0
LINE
  8
CSLAYER1
  6
CONTINUOUS
 62
     6
 10
395.112310
 20
263.327301
 11
394.966127
 21
263.199415
  0
LINE
  8
CSLAYER1
  6
CONTINUOUS
 62
     6
 10
394.966127
 20
263.199415
 11
394.816134
 21
263.066908
  0
LINE
  8
CSLAYER1
  6
CONTINUOUS
 62
     6
 10
394.816134
 20
263.066908
 11
394.663472
 21
262.930249
  0
LINE
  8
CSLAYER1
  6
CONTINUOUS
 62
     6
 10
394.663472
 20
262.930249
 11
394.509285
 21
262.789904
  0
LINE
  8
CSLAYER1
  6
CONTINUOUS
 62
     6
 10
394.509285
 20
262.789904
 11
394.354715
 21
262.646341
  0
LINE
  8
CSLAYER1
  6
CONTINUOUS
 62
     6
 10
394.354715
 20
262.646341
 11
394.200904
 21
262.500029
  0
LINE
  8
CSLAYER1
  6
CONTINUOUS
 62
     6
 10
394.200904
 20
262.500029
 11
394.048993
 21
262.351434
  0
LINE
  8
CSLAYER1
  6
CONTINUOUS
 62
     6
 10
394.048993
 20
262.351434
 11
393.900126
 21
262.201024
  0
LINE
  8
CSLAYER1
  6
CONTINUOUS
 62
     6
 10
393.900126
 20
262.201024
 11
393.755444
 21
262.049268
  0
LINE
  8
CSLAYER1
  6
CONTINUOUS
 62
     6
 10
393.755444
 20
262.049268
 11
393.616090
 21
261.896632
  0
LINE
  8
CSLAYER1
  6
CONTINUOUS
 62
     6
 10
393.616090
 20
261.896632
 11
393.560566
 21
261.833688
  0
LINE
  8
CSLAYER1
  6
CONTINUOUS
 62
     6
 10
393.560566
 20
261.833688
 11
393.505638
 21
261.770188
  0
LINE
  8
CSLAYER1
  6
CONTINUOUS
 62
     6
 10
393.505638
 20
261.770188
 11
393.451247
 21
261.706186
  0
LINE
  8
CSLAYER1
  6
CONTINUOUS
 62
     6
 10
393.451247
 20
261.706186
 11
393.397334
 21
261.641740
  0
LINE
  8
CSLAYER1
  6
CONTINUOUS
 62
     6
 10
393.397334
 20
261.641740
 11
393.343838
 21
261.576904
  0
LINE
  8
CSLAYER1
  6
CONTINUOUS
 62
     6
 10
393.343838
 20
261.576904
 11
393.290700
 21
261.511734
  0
LINE
  8
CSLAYER1
  6
CONTINUOUS
 62
     6
 10
393.290700
 20
261.511734
 11
393.237860
 21
261.446286
  0
LINE
  8
CSLAYER1
  6
CONTINUOUS
 62
     6
 10
393.237860
 20
261.446286
 11
393.185259
 21
261.380616
  0
LINE
  8
CSLAYER1
  6
CONTINUOUS
 62
     6
 10
393.185259
 20
261.380616
 11
393.132837
 21
261.314778
  0
LINE
  8
CSLAYER1
  6
CONTINUOUS
 62
     6
 10
393.132837
 20
261.314778
 11
393.080534
 21
261.248830
  0
LINE
  8
CSLAYER1
  6
CONTINUOUS
 62
     6
 10
393.080534
 20
261.248830
 11
392.951979
 21
261.086412
  0
LINE
  8
CSLAYER1
  6
CONTINUOUS
 62
     6
 10
392.951979
 20
261.086412
 11
392.980717
 21
261.039557
  0
LINE
  8
CSLAYER1
  6
CONTINUOUS
 62
     6
 10
392.980717
 20
261.039557
 11
393.021309
 21
260.979676
  0
LINE
  8
CSLAYER1
  6
CONTINUOUS
 62
     6
 10
393.021309
 20
260.979676
 11
393.065591
 21
260.919808
  0
LINE
  8
CSLAYER1
  6
CONTINUOUS
 62
     6
 10
393.065591
 20
260.919808
 11
393.113042
 21
260.860535
  0
LINE
  8
CSLAYER1
  6
CONTINUOUS
 62
     6
 10
393.113042
 20
260.860535
 11
393.163141
 21
260.802437
  0
LINE
  8
CSLAYER1
  6
CONTINUOUS
 62
     6
 10
393.163141
 20
260.802437
 11
393.215365
 21
260.746097
  0
LINE
  8
CSLAYER1
  6
CONTINUOUS
 62
     6
 10
393.215365
 20
260.746097
 11
393.269194
 21
260.692093
  0
LINE
  8
CSLAYER1
  6
CONTINUOUS
 62
     6
 10
393.269194
 20
260.692093
 11
393.324104
 21
260.641008
  0
LINE
  8
CSLAYER1
  6
CONTINUOUS
 62
     6
 10
393.324104
 20
260.641008
 11
393.379575
 21
260.593422
  0
LINE
  8
CSLAYER1
  6
CONTINUOUS
 62
     6
 10
393.379575
 20
260.593422
 11
393.435086
 21
260.549917
  0
LINE
  8
CSLAYER1
  6
CONTINUOUS
 62
     6
 10
393.435086
 20
260.549917
 11
393.490113
 21
260.511072
  0
LINE
  8
CSLAYER1
  6
CONTINUOUS
 62
     6
 10
393.490113
 20
260.511072
 11
393.546599
 21
260.476778
  0
LINE
  8
CSLAYER1
  6
CONTINUOUS
 62
     6
 10
393.546599
 20
260.476778
 11
393.607201
 21
260.445811
  0
LINE
  8
CSLAYER1
  6
CONTINUOUS
 62
     6
 10
393.607201
 20
260.445811
 11
393.671362
 21
260.417822
  0
LINE
  8
CSLAYER1
  6
CONTINUOUS
 62
     6
 10
393.671362
 20
260.417822
 11
393.738524
 21
260.392461
  0
LINE
  8
CSLAYER1
  6
CONTINUOUS
 62
     6
 10
393.738524
 20
260.392461
 11
393.808130
 21
260.369379
  0
LINE
  8
CSLAYER1
  6
CONTINUOUS
 62
     6
 10
393.808130
 20
260.369379
 11
393.879624
 21
260.348225
  0
LINE
  8
CSLAYER1
  6
CONTINUOUS
 62
     6
 10
393.879624
 20
260.348225
 11
393.952449
 21
260.328651
  0
LINE
  8
CSLAYER1
  6
CONTINUOUS
 62
     6
 10
393.952449
 20
260.328651
 11
394.026047
 21
260.310306
  0
LINE
  8
CSLAYER1
  6
CONTINUOUS
 62
     6
 10
394.026047
 20
260.310306
 11
394.099862
 21
260.292840
  0
LINE
  8
CSLAYER1
  6
CONTINUOUS
 62
     6
 10
394.099862
 20
260.292840
 11
394.173336
 21
260.275905
  0
LINE
  8
CSLAYER1
  6
CONTINUOUS
 62
     6
 10
394.173336
 20
260.275905
 11
394.245912
 21
260.259150
  0
LINE
  8
CSLAYER1
  6
CONTINUOUS
 62
     6
 10
394.245912
 20
260.259150
 11
394.320136
 21
260.241550
  0
LINE
  8
CSLAYER1
  6
CONTINUOUS
 62
     6
 10
394.320136
 20
260.241550
 11
394.393872
 21
260.223525
  0
LINE
  8
CSLAYER1
  6
CONTINUOUS
 62
     6
 10
394.393872
 20
260.223525
 11
394.467168
 21
260.205119
  0
LINE
  8
CSLAYER1
  6
CONTINUOUS
 62
     6
 10
394.467168
 20
260.205119
 11
394.540074
 21
260.186374
  0
LINE
  8
CSLAYER1
  6
CONTINUOUS
 62
     6
 10
394.540074
 20
260.186374
 11
394.612638
 21
260.167331
  0
LINE
  8
CSLAYER1
  6
CONTINUOUS
 62
     6
 10
394.612638
 20
260.167331
 11
394.684909
 21
260.148035
  0
LINE
  8
CSLAYER1
  6
CONTINUOUS
 62
     6
 10
394.684909
 20
260.148035
 11
394.756936
 21
260.128526
  0
LINE
  8
CSLAYER1
  6
CONTINUOUS
 62
     6
 10
394.756936
 20
260.128526
 11
394.828768
 21
260.108848
  0
LINE
  8
CSLAYER1
  6
CONTINUOUS
 62
     6
 10
394.828768
 20
260.108848
 11
394.900453
 21
260.089042
  0
LINE
  8
CSLAYER1
  6
CONTINUOUS
 62
     6
 10
394.900453
 20
260.089042
 11
394.972041
 21
260.069152
  0
LINE
  8
CSLAYER1
  6
CONTINUOUS
 62
     6
 10
394.972041
 20
260.069152
 11
395.052660
 21
260.046689
  0
LINE
  8
CSLAYER1
  6
CONTINUOUS
 62
     6
 10
395.052660
 20
260.046689
 11
395.179916
 21
260.218839
  0
LINE
  8
CSLAYER1
  6
CONTINUOUS
 62
     6
 10
395.179916
 20
260.218839
 11
395.274696
 21
260.346002
  0
LINE
  8
CSLAYER1
  6
CONTINUOUS
 62
     6
 10
395.274696
 20
260.346002
 11
395.370347
 21
260.472233
  0
LINE
  8
CSLAYER1
  6
CONTINUOUS
 62
     6
 10
395.370347
 20
260.472233
 11
395.467306
 21
260.597069
  0
LINE
  8
CSLAYER1
  6
CONTINUOUS
 62
     6
 10
395.467306
 20
260.597069
 11
395.566008
 21
260.720044
  0
LINE
  8
CSLAYER1
  6
CONTINUOUS
 62
     6
 10
395.566008
 20
260.720044
 11
395.666889
 21
260.840692
  0
LINE
  8
CSLAYER1
  6
CONTINUOUS
 62
     6
 10
395.666889
 20
260.840692
 11
395.770386
 21
260.958549
  0
LINE
  8
CSLAYER1
  6
CONTINUOUS
 62
     6
 10
395.770386
 20
260.958549
 11
395.876933
 21
261.073149
  0
LINE
  8
CSLAYER1
  6
CONTINUOUS
 62
     6
 10
395.876933
 20
261.073149
 11
395.986967
 21
261.184027
  0
LINE
  8
CSLAYER1
  6
CONTINUOUS
 62
     6
 10
395.986967
 20
261.184027
 11
396.100924
 21
261.290718
  0
LINE
  8
CSLAYER1
  6
CONTINUOUS
 62
     6
 10
396.100924
 20
261.290718
 11
396.219239
 21
261.392756
  0
LINE
  8
CSLAYER1
  6
CONTINUOUS
 62
     6
 10
396.219239
 20
261.392756
 11
396.370664
 21
261.511794
  0
LINE
  8
CSLAYER1
  6
CONTINUOUS
 62
     6
 10
396.370664
 20
261.511794
 11
396.528904
 21
261.626306
  0
LINE
  8
CSLAYER1
  6
CONTINUOUS
 62
     6
 10
396.528904
 20
261.626306
 11
396.692024
 21
261.737246
  0
LINE
  8
CSLAYER1
  6
CONTINUOUS
 62
     6
 10
396.692024
 20
261.737246
 11
396.858093
 21
261.845565
  0
LINE
  8
CSLAYER1
  6
CONTINUOUS
 62
     6
 10
396.858093
 20
261.845565
 11
397.025174
 21
261.952214
  0
LINE
  8
CSLAYER1
  6
CONTINUOUS
 62
     6
 10
397.025174
 20
261.952214
 11
397.191335
 21
262.058147
  0
LINE
  8
CSLAYER1
  6
CONTINUOUS
 62
     6
 10
397.191335
 20
262.058147
 11
397.354642
 21
262.164314
  0
LINE
  8
CSLAYER1
  6
CONTINUOUS
 62
     6
 10
397.354642
 20
262.164314
 11
397.513160
 21
262.271669
  0
LINE
  8
CSLAYER1
  6
CONTINUOUS
 62
     6
 10
397.513160
 20
262.271669
 11
397.664956
 21
262.381163
  0
LINE
  8
CSLAYER1
  6
CONTINUOUS
 62
     6
 10
397.664956
 20
262.381163
 11
397.808095
 21
262.493749
  0
LINE
  8
CSLAYER1
  6
CONTINUOUS
 62
     6
 10
397.808095
 20
262.493749
 11
397.940644
 21
262.610377
  0
LINE
  8
CSLAYER1
  6
CONTINUOUS
 62
     6
 10
397.940644
 20
262.610377
 11
398.043649
 21
262.713392
  0
LINE
  8
CSLAYER1
  6
CONTINUOUS
 62
     6
 10
398.043649
 20
262.713392
 11
398.145313
 21
262.826828
  0
LINE
  8
CSLAYER1
  6
CONTINUOUS
 62
     6
 10
398.145313
 20
262.826828
 11
398.245067
 21
262.948995
  0
LINE
  8
CSLAYER1
  6
CONTINUOUS
 62
     6
 10
398.245067
 20
262.948995
 11
398.342346
 21
263.078204
  0
LINE
  8
CSLAYER1
  6
CONTINUOUS
 62
     6
 10
398.342346
 20
263.078204
 11
398.436580
 21
263.212764
  0
LINE
  8
CSLAYER1
  6
CONTINUOUS
 62
     6
 10
398.436580
 20
263.212764
 11
398.527205
 21
263.350986
  0
LINE
  8
CSLAYER1
  6
CONTINUOUS
 62
     6
 10
398.527205
 20
263.350986
 11
398.613651
 21
263.491179
  0
LINE
  8
CSLAYER1
  6
CONTINUOUS
 62
     6
 10
398.613651
 20
263.491179
 11
398.695352
 21
263.631653
  0
LINE
  8
CSLAYER1
  6
CONTINUOUS
 62
     6
 10
398.695352
 20
263.631653
 11
398.771741
 21
263.770720
  0
LINE
  8
CSLAYER1
  6
CONTINUOUS
 62
     6
 10
398.771741
 20
263.770720
 11
398.842250
 21
263.906688
  0
LINE
  8
CSLAYER1
  6
CONTINUOUS
 62
     6
 10
398.842250
 20
263.906688
 11
398.947510
 21
264.122228
  0
ARC
  8
CSLAYER1
  6
CONTINUOUS
 62
     6
 10
398.021399
 20
263.566150
 40
1.080690
 50
30.945197
 51
90.945197
  0
ARC
  8
CSLAYER1
  6
CONTINUOUS
 62
     6
 10
397.985745
 20
265.727236
 40
1.080690
 50
210.945197
 51
270.945197
  0
ARC
  8
CSLAYER1
  6
CONTINUOUS
 62
     6
 10
397.076708
 20
264.090983
 40
1.080690
 50
30.945197
 51
90.945197
  0
LINE
  8
CSLAYER1
  6
CONTINUOUS
 62
     6
 10
397.058900
 20
265.171503
 11
396.914198
 21
265.032157
  0
LINE
  8
CSLAYER1
  6
CONTINUOUS
 62
     6
 10
396.914198
 20
265.032157
 11
396.760283
 21
264.882407
  0
LINE
  8
CSLAYER1
  6
CONTINUOUS
 62
     6
 10
396.760283
 20
264.882407
 11
396.598932
 21
264.724579
  0
LINE
  8
CSLAYER1
  6
CONTINUOUS
 62
     6
 10
396.598932
 20
264.724579
 11
396.431922
 21
264.560997
  0
ARC
  8
CSLAYER1
  6
CONTINUOUS
 62
     6
 10
399.532841
 20
266.575351
 40
1.095863
 50
203.568976
 51
263.568976
  0
ARC
  8
CSLAYER1
  6
CONTINUOUS
 62
     6
 10
400.414542
 20
265.924568
 40
1.095863
 50
203.568976
 51
263.568976
  0
ARC
  8
CSLAYER1
  6
CONTINUOUS
 62
     6
 10
399.287352
 20
264.397417
 40
1.095863
 50
23.568976
 51
83.568976
  0
LINE
  8
CSLAYER1
  6
CONTINUOUS
 62
     6
 10
398.781525
 20
266.317138
 11
398.528413
 21
266.137171
  0
LINE
  8
CSLAYER1
  6
CONTINUOUS
 62
     6
 10
398.781525
 20
266.317138
 11
399.034386
 21
266.497458
  0
LINE
  8
CSLAYER1
  6
CONTINUOUS
 62
     6
 10
399.034386
 20
266.497458
 11
399.286746
 21
266.678484
  0
LINE
  8
CSLAYER1
  6
CONTINUOUS
 62
     6
 10
399.286746
 20
266.678484
 11
399.538354
 21
266.860568
  0
LINE
  8
CSLAYER1
  6
CONTINUOUS
 62
     6
 10
399.538354
 20
266.860568
 11
399.788959
 21
267.044063
  0
LINE
  8
CSLAYER1
  6
CONTINUOUS
 62
     6
 10
399.788959
 20
267.044063
 11
400.038312
 21
267.229322
  0
LINE
  8
CSLAYER1
  6
CONTINUOUS
 62
     6
 10
400.038312
 20
267.229322
 11
400.286161
 21
267.416697
  0
LINE
  8
CSLAYER1
  6
CONTINUOUS
 62
     6
 10
400.286161
 20
267.416697
 11
400.532256
 21
267.606542
  0
LINE
  8
CSLAYER1
  6
CONTINUOUS
 62
     6
 10
400.532256
 20
267.606542
 11
400.776346
 21
267.799210
  0
LINE
  8
CSLAYER1
  6
CONTINUOUS
 62
     6
 10
400.776346
 20
267.799210
 11
401.018180
 21
267.995052
  0
LINE
  8
CSLAYER1
  6
CONTINUOUS
 62
     6
 10
401.018180
 20
267.995052
 11
401.257508
 21
268.194422
  0
LINE
  8
CSLAYER1
  6
CONTINUOUS
 62
     6
 10
401.257508
 20
268.194422
 11
401.414773
 21
268.328719
  0
LINE
  8
CSLAYER1
  6
CONTINUOUS
 62
     6
 10
401.414773
 20
268.328719
 11
401.571822
 21
268.465743
  0
LINE
  8
CSLAYER1
  6
CONTINUOUS
 62
     6
 10
401.571822
 20
268.465743
 11
401.727913
 21
268.605303
  0
LINE
  8
CSLAYER1
  6
CONTINUOUS
 62
     6
 10
401.727913
 20
268.605303
 11
401.882303
 21
268.747205
  0
LINE
  8
CSLAYER1
  6
CONTINUOUS
 62
     6
 10
401.882303
 20
268.747205
 11
402.034247
 21
268.891258
  0
LINE
  8
CSLAYER1
  6
CONTINUOUS
 62
     6
 10
402.034247
 20
268.891258
 11
402.183004
 21
269.037268
  0
LINE
  8
CSLAYER1
  6
CONTINUOUS
 62
     6
 10
402.183004
 20
269.037268
 11
402.327830
 21
269.185043
  0
LINE
  8
CSLAYER1
  6
CONTINUOUS
 62
     6
 10
402.327830
 20
269.185043
 11
402.467983
 21
269.334390
  0
LINE
  8
CSLAYER1
  6
CONTINUOUS
 62
     6
 10
402.467983
 20
269.334390
 11
402.602719
 21
269.485118
  0
LINE
  8
CSLAYER1
  6
CONTINUOUS
 62
     6
 10
402.602719
 20
269.485118
 11
402.731294
 21
269.637033
  0
LINE
  8
CSLAYER1
  6
CONTINUOUS
 62
     6
 10
402.731294
 20
269.637033
 11
402.852967
 21
269.789942
  0
LINE
  8
CSLAYER1
  6
CONTINUOUS
 62
     6
 10
402.852967
 20
269.789942
 11
402.967422
 21
269.941268
  0
LINE
  8
CSLAYER1
  6
CONTINUOUS
 62
     6
 10
402.967422
 20
269.941268
 11
403.082723
 21
270.098522
  0
LINE
  8
CSLAYER1
  6
CONTINUOUS
 62
     6
 10
403.082723
 20
270.098522
 11
403.198336
 21
270.260580
  0
LINE
  8
CSLAYER1
  6
CONTINUOUS
 62
     6
 10
403.198336
 20
270.260580
 11
403.313729
 21
270.426320
  0
LINE
  8
CSLAYER1
  6
CONTINUOUS
 62
     6
 10
403.313729
 20
270.426320
 11
403.428369
 21
270.594619
  0
LINE
  8
CSLAYER1
  6
CONTINUOUS
 62
     6
 10
403.428369
 20
270.594619
 11
403.541723
 21
270.764355
  0
LINE
  8
CSLAYER1
  6
CONTINUOUS
 62
     6
 10
403.541723
 20
270.764355
 11
403.653258
 21
270.934406
  0
LINE
  8
CSLAYER1
  6
CONTINUOUS
 62
     6
 10
403.653258
 20
270.934406
 11
403.762443
 21
271.103648
  0
LINE
  8
CSLAYER1
  6
CONTINUOUS
 62
     6
 10
403.762443
 20
271.103648
 11
403.868742
 21
271.270960
  0
LINE
  8
CSLAYER1
  6
CONTINUOUS
 62
     6
 10
403.868742
 20
271.270960
 11
403.971625
 21
271.435219
  0
LINE
  8
CSLAYER1
  6
CONTINUOUS
 62
     6
 10
403.971625
 20
271.435219
 11
404.070558
 21
271.595301
  0
LINE
  8
CSLAYER1
  6
CONTINUOUS
 62
     6
 10
404.070558
 20
271.595301
 11
404.157032
 21
271.733527
  0
LINE
  8
CSLAYER1
  6
CONTINUOUS
 62
     6
 10
404.157032
 20
271.733527
 11
404.248984
 21
271.875985
  0
LINE
  8
CSLAYER1
  6
CONTINUOUS
 62
     6
 10
404.248984
 20
271.875985
 11
404.345184
 21
272.021465
  0
LINE
  8
CSLAYER1
  6
CONTINUOUS
 62
     6
 10
404.345184
 20
272.021465
 11
404.444403
 21
272.168755
  0
LINE
  8
CSLAYER1
  6
CONTINUOUS
 62
     6
 10
404.444403
 20
272.168755
 11
404.545411
 21
272.316645
  0
LINE
  8
CSLAYER1
  6
CONTINUOUS
 62
     6
 10
404.545411
 20
272.316645
 11
404.646979
 21
272.463924
  0
LINE
  8
CSLAYER1
  6
CONTINUOUS
 62
     6
 10
404.646979
 20
272.463924
 11
404.747877
 21
272.609380
  0
LINE
  8
CSLAYER1
  6
CONTINUOUS
 62
     6
 10
404.747877
 20
272.609380
 11
404.846876
 21
272.751804
  0
LINE
  8
CSLAYER1
  6
CONTINUOUS
 62
     6
 10
404.846876
 20
272.751804
 11
404.942745
 21
272.889984
  0
LINE
  8
CSLAYER1
  6
CONTINUOUS
 62
     6
 10
404.942745
 20
272.889984
 11
405.063287
 21
273.064814
  0
ARC
  8
CSLAYER1
  6
CONTINUOUS
 62
     6
 10
402.798083
 20
275.064814
 40
2.000000
 50
180.000000
 51
270.000000
  0
LINE
  8
CSLAYER1
  6
CONTINUOUS
 62
     6
 10
400.798083
 20
275.064814
 11
400.798083
 21
275.564814
  0
LINE
  8
CSLAYER1
  6
CONTINUOUS
 62
     6
 10
400.548083
 20
275.564814
 11
426.548083
 21
275.564814
  0
LINE
  8
CSLAYER1
  6
CONTINUOUS
 62
     6
 10
426.548083
 20
277.564814
 11
400.548083
 21
277.564814
  0
LINE
  8
CSLAYER1
  6
CONTINUOUS
 62
     6
 10
402.798083
 20
273.064814
 11
411.886708
 21
273.064814
  0
ARC
  8
CSLAYER1
  6
CONTINUOUS
 62
     6
 10
413.548083
 20
279.864802
 40
7.000000
 50
253.743003
 51
286.257026
  0
ARC
  8
CSLAYER1
  6
CONTINUOUS
 62
     6
 10
415.227740
 20
274.104731
 40
1.000000
 50
286.257408
 51
354.999902
  0
LINE
  8
CSLAYER1
  6
CONTINUOUS
 62
     6
 10
416.223925
 20
274.017573
 11
416.279040
 21
274.647395
  0
ARC
  8
CSLAYER1
  6
CONTINUOUS
 62
     6
 10
416.079821
 20
274.664820
 40
0.200000
 50
-5.000126
 51
90.000019
  0
LINE
  8
CSLAYER1
  6
CONTINUOUS
 62
     6
 10
416.348071
 20
274.864832
 11
413.548083
 21
274.864802
  0
LINE
  8
CSLAYER1
  6
CONTINUOUS
 62
     6
 10
413.548083
 20
274.864802
 11
410.748095
 21
274.864802
  0
ARC
  8
CSLAYER1
  6
CONTINUOUS
 62
     6
 10
410.748095
 20
274.964808
 40
0.100000
 50
180.000005
 51
270.000001
  0
LINE
  8
CSLAYER1
  6
CONTINUOUS
 62
     6
 10
410.648059
 20
274.964808
 11
410.648059
 21
275.464808
  0
ARC
  8
CSLAYER1
  6
CONTINUOUS
 62
     6
 10
410.748095
 20
275.464808
 40
0.100000
 50
90.000003
 51
180.000005
  0
ARC
  8
CSLAYER1
  6
CONTINUOUS
 62
     6
 10
411.016345
 20
274.664820
 40
0.200000
 50
90.000003
 51
185.000154
  0
LINE
  8
CSLAYER1
  6
CONTINUOUS
 62
     6
 10
410.817096
 20
274.647395
 11
410.872180
 21
274.017573
  0
ARC
  8
CSLAYER1
  6
CONTINUOUS
 62
     6
 10
411.868396
 20
274.104731
 40
1.000000
 50
185.000113
 51
253.742620
  0
LINE
  8
CSLAYER1
  6
CONTINUOUS
 62
     6
 10
409.976706
 20
273.064814
 11
409.811588
 21
272.046770
  0
LINE
  8
CSLAYER1
  6
CONTINUOUS
 62
     6
 10
409.811588
 20
272.046770
 11
409.753453
 21
271.724343
  0
LINE
  8
CSLAYER1
  6
CONTINUOUS
 62
     6
 10
409.753453
 20
271.724343
 11
409.688600
 21
271.392534
  0
LINE
  8
CSLAYER1
  6
CONTINUOUS
 62
     6
 10
409.688600
 20
271.392534
 11
409.618224
 21
271.054737
  0
LINE
  8
CSLAYER1
  6
CONTINUOUS
 62
     6
 10
409.618224
 20
271.054737
 11
409.543521
 21
270.714350
  0
LINE
  8
CSLAYER1
  6
CONTINUOUS
 62
     6
 10
409.543521
 20
270.714350
 11
409.465685
 21
270.374766
  0
LINE
  8
CSLAYER1
  6
CONTINUOUS
 62
     6
 10
409.465685
 20
270.374766
 11
409.385911
 21
270.039380
  0
LINE
  8
CSLAYER1
  6
CONTINUOUS
 62
     6
 10
409.385911
 20
270.039380
 11
409.305395
 21
269.711589
  0
LINE
  8
CSLAYER1
  6
CONTINUOUS
 62
     6
 10
409.305395
 20
269.711589
 11
409.225330
 21
269.394788
  0
LINE
  8
CSLAYER1
  6
CONTINUOUS
 62
     6
 10
409.225330
 20
269.394788
 11
409.146913
 21
269.092371
  0
LINE
  8
CSLAYER1
  6
CONTINUOUS
 62
     6
 10
409.146913
 20
269.092371
 11
409.063541
 21
268.792621
  0
LINE
  8
CSLAYER1
  6
CONTINUOUS
 62
     6
 10
409.063541
 20
268.792621
 11
408.969628
 21
268.487097
  0
LINE
  8
CSLAYER1
  6
CONTINUOUS
 62
     6
 10
408.969628
 20
268.487097
 11
408.866042
 21
268.177058
  0
LINE
  8
CSLAYER1
  6
CONTINUOUS
 62
     6
 10
408.866042
 20
268.177058
 11
408.753654
 21
267.863762
  0
LINE
  8
CSLAYER1
  6
CONTINUOUS
 62
     6
 10
408.753654
 20
267.863762
 11
408.633332
 21
267.548471
  0
LINE
  8
CSLAYER1
  6
CONTINUOUS
 62
     6
 10
408.633332
 20
267.548471
 11
408.505945
 21
267.232443
  0
LINE
  8
CSLAYER1
  6
CONTINUOUS
 62
     6
 10
408.505945
 20
267.232443
 11
408.372363
 21
266.916937
  0
LINE
  8
CSLAYER1
  6
CONTINUOUS
 62
     6
 10
408.372363
 20
266.916937
 11
408.233454
 21
266.603213
  0
LINE
  8
CSLAYER1
  6
CONTINUOUS
 62
     6
 10
408.233454
 20
266.603213
 11
408.090087
 21
266.292531
  0
LINE
  8
CSLAYER1
  6
CONTINUOUS
 62
     6
 10
408.090087
 20
266.292531
 11
407.943132
 21
265.986149
  0
LINE
  8
CSLAYER1
  6
CONTINUOUS
 62
     6
 10
407.943132
 20
265.986149
 11
407.793458
 21
265.685328
  0
LINE
  8
CSLAYER1
  6
CONTINUOUS
 62
     6
 10
407.793458
 20
265.685328
 11
407.666114
 21
265.437708
  0
LINE
  8
CSLAYER1
  6
CONTINUOUS
 62
     6
 10
407.666114
 20
265.437708
 11
407.535962
 21
265.191674
  0
LINE
  8
CSLAYER1
  6
CONTINUOUS
 62
     6
 10
407.535962
 20
265.191674
 11
407.403283
 21
264.947068
  0
LINE
  8
CSLAYER1
  6
CONTINUOUS
 62
     6
 10
407.403283
 20
264.947068
 11
407.268358
 21
264.703731
  0
LINE
  8
CSLAYER1
  6
CONTINUOUS
 62
     6
 10
407.268358
 20
264.703731
 11
407.131468
 21
264.461504
  0
LINE
  8
CSLAYER1
  6
CONTINUOUS
 62
     6
 10
407.131468
 20
264.461504
 11
406.992893
 21
264.220229
  0
LINE
  8
CSLAYER1
  6
CONTINUOUS
 62
     6
 10
406.992893
 20
264.220229
 11
406.852915
 21
263.979747
  0
LINE
  8
CSLAYER1
  6
CONTINUOUS
 62
     6
 10
406.852915
 20
263.979747
 11
406.711813
 21
263.739900
  0
LINE
  8
CSLAYER1
  6
CONTINUOUS
 62
     6
 10
406.711813
 20
263.739900
 11
406.569869
 21
263.500528
  0
LINE
  8
CSLAYER1
  6
CONTINUOUS
 62
     6
 10
406.569869
 20
263.500528
 11
406.427364
 21
263.261474
  0
LINE
  8
CSLAYER1
  6
CONTINUOUS
 62
     6
 10
406.427364
 20
263.261474
 11
406.284578
 21
263.022578
  0
ARC
  8
CSLAYER1
  6
CONTINUOUS
 62
     6
 10
405.250207
 20
262.414222
 40
1.200008
 50
30.461486
 51
90.461486
  0
ARC
  8
CSLAYER1
  6
CONTINUOUS
 62
     6
 10
405.230876
 20
264.814160
 40
1.200008
 50
210.461486
 51
270.461486
  0
LINE
  8
CSLAYER1
  6
CONTINUOUS
 62
     6
 10
404.196473
 20
264.205805
 11
404.331755
 21
264.431727
  0
LINE
  8
CSLAYER1
  6
CONTINUOUS
 62
     6
 10
404.331755
 20
264.431727
 11
404.466761
 21
264.657803
  0
LINE
  8
CSLAYER1
  6
CONTINUOUS
 62
     6
 10
404.466761
 20
264.657803
 11
404.601218
 21
264.884189
  0
LINE
  8
CSLAYER1
  6
CONTINUOUS
 62
     6
 10
404.601218
 20
264.884189
 11
404.734848
 21
265.111039
  0
LINE
  8
CSLAYER1
  6
CONTINUOUS
 62
     6
 10
404.734848
 20
265.111039
 11
404.867378
 21
265.338507
  0
LINE
  8
CSLAYER1
  6
CONTINUOUS
 62
     6
 10
404.867378
 20
265.338507
 11
404.998531
 21
265.566749
  0
LINE
  8
CSLAYER1
  6
CONTINUOUS
 62
     6
 10
404.998531
 20
265.566749
 11
405.128033
 21
265.795919
  0
LINE
  8
CSLAYER1
  6
CONTINUOUS
 62
     6
 10
405.128033
 20
265.795919
 11
405.255609
 21
266.026171
  0
LINE
  8
CSLAYER1
  6
CONTINUOUS
 62
     6
 10
405.255609
 20
266.026171
 11
405.380983
 21
266.257661
  0
LINE
  8
CSLAYER1
  6
CONTINUOUS
 62
     6
 10
405.380983
 20
266.257661
 11
405.503880
 21
266.490542
  0
LINE
  8
CSLAYER1
  6
CONTINUOUS
 62
     6
 10
405.503880
 20
266.490542
 11
405.624025
 21
266.724970
  0
LINE
  8
CSLAYER1
  6
CONTINUOUS
 62
     6
 10
405.624025
 20
266.724970
 11
405.758266
 21
266.995776
  0
LINE
  8
CSLAYER1
  6
CONTINUOUS
 62
     6
 10
405.758266
 20
266.995776
 11
405.890129
 21
267.271541
  0
LINE
  8
CSLAYER1
  6
CONTINUOUS
 62
     6
 10
405.890129
 20
267.271541
 11
406.018837
 21
267.551134
  0
LINE
  8
CSLAYER1
  6
CONTINUOUS
 62
     6
 10
406.018837
 20
267.551134
 11
406.143611
 21
267.833424
  0
LINE
  8
CSLAYER1
  6
CONTINUOUS
 62
     6
 10
406.143611
 20
267.833424
 11
406.263674
 21
268.117280
  0
LINE
  8
CSLAYER1
  6
CONTINUOUS
 62
     6
 10
406.263674
 20
268.117280
 11
406.378249
 21
268.401570
  0
LINE
  8
CSLAYER1
  6
CONTINUOUS
 62
     6
 10
406.378249
 20
268.401570
 11
406.486558
 21
268.685163
  0
LINE
  8
CSLAYER1
  6
CONTINUOUS
 62
     6
 10
406.486558
 20
268.685163
 11
406.587823
 21
268.966928
  0
LINE
  8
CSLAYER1
  6
CONTINUOUS
 62
     6
 10
406.587823
 20
268.966928
 11
406.681268
 21
269.245734
  0
LINE
  8
CSLAYER1
  6
CONTINUOUS
 62
     6
 10
406.681268
 20
269.245734
 11
406.766114
 21
269.520449
  0
LINE
  8
CSLAYER1
  6
CONTINUOUS
 62
     6
 10
406.766114
 20
269.520449
 11
406.841584
 21
269.789942
  0
LINE
  8
CSLAYER1
  6
CONTINUOUS
 62
     6
 10
406.841584
 20
269.789942
 11
406.916124
 21
270.075381
  0
LINE
  8
CSLAYER1
  6
CONTINUOUS
 62
     6
 10
406.916124
 20
270.075381
 11
406.992132
 21
270.374560
  0
LINE
  8
CSLAYER1
  6
CONTINUOUS
 62
     6
 10
406.992132
 20
270.374560
 11
407.068476
 21
270.684225
  0
LINE
  8
CSLAYER1
  6
CONTINUOUS
 62
     6
 10
407.068476
 20
270.684225
 11
407.144022
 21
271.001125
  0
LINE
  8
CSLAYER1
  6
CONTINUOUS
 62
     6
 10
407.144022
 20
271.001125
 11
407.217638
 21
271.322007
  0
LINE
  8
CSLAYER1
  6
CONTINUOUS
 62
     6
 10
407.217638
 20
271.322007
 11
407.288190
 21
271.643618
  0
LINE
  8
CSLAYER1
  6
CONTINUOUS
 62
     6
 10
407.288190
 20
271.643618
 11
407.354547
 21
271.962706
  0
LINE
  8
CSLAYER1
  6
CONTINUOUS
 62
     6
 10
407.354547
 20
271.962706
 11
407.415576
 21
272.276017
  0
LINE
  8
CSLAYER1
  6
CONTINUOUS
 62
     6
 10
407.415576
 20
272.276017
 11
407.470142
 21
272.580300
  0
LINE
  8
CSLAYER1
  6
CONTINUOUS
 62
     6
 10
407.470142
 20
272.580300
 11
407.548083
 21
273.064814
  0
LINE
  8
CSLAYER1
  6
CONTINUOUS
 62
     6
 10
407.419683
 20
272.298920
 11
407.371436
 21
272.211086
  0
LINE
  8
CSLAYER1
  6
CONTINUOUS
 62
     6
 10
407.371436
 20
272.211086
 11
407.261549
 21
272.019277
  0
LINE
  8
CSLAYER1
  6
CONTINUOUS
 62
     6
 10
407.261549
 20
272.019277
 11
407.143295
 21
271.819790
  0
LINE
  8
CSLAYER1
  6
CONTINUOUS
 62
     6
 10
407.143295
 20
271.819790
 11
407.018257
 21
271.614810
  0
LINE
  8
CSLAYER1
  6
CONTINUOUS
 62
     6
 10
407.018257
 20
271.614810
 11
406.888015
 21
271.406525
  0
LINE
  8
CSLAYER1
  6
CONTINUOUS
 62
     6
 10
406.888015
 20
271.406525
 11
406.754153
 21
271.197119
  0
LINE
  8
CSLAYER1
  6
CONTINUOUS
 62
     6
 10
406.754153
 20
271.197119
 11
406.618251
 21
270.988779
  0
LINE
  8
CSLAYER1
  6
CONTINUOUS
 62
     6
 10
406.618251
 20
270.988779
 11
406.481890
 21
270.783692
  0
LINE
  8
CSLAYER1
  6
CONTINUOUS
 62
     6
 10
406.481890
 20
270.783692
 11
406.346654
 21
270.584042
  0
LINE
  8
CSLAYER1
  6
CONTINUOUS
 62
     6
 10
406.346654
 20
270.584042
 11
406.214123
 21
270.392017
  0
LINE
  8
CSLAYER1
  6
CONTINUOUS
 62
     6
 10
406.214123
 20
270.392017
 11
406.085878
 21
270.209803
  0
LINE
  8
CSLAYER1
  6
CONTINUOUS
 62
     6
 10
406.085878
 20
270.209803
 11
405.980798
 21
270.065624
  0
LINE
  8
CSLAYER1
  6
CONTINUOUS
 62
     6
 10
405.980798
 20
270.065624
 11
405.868907
 21
269.918574
  0
LINE
  8
CSLAYER1
  6
CONTINUOUS
 62
     6
 10
405.868907
 20
269.918574
 11
405.751339
 21
269.769552
  0
LINE
  8
CSLAYER1
  6
CONTINUOUS
 62
     6
 10
405.751339
 20
269.769552
 11
405.629225
 21
269.619458
  0
LINE
  8
CSLAYER1
  6
CONTINUOUS
 62
     6
 10
405.629225
 20
269.619458
 11
405.503699
 21
269.469190
  0
LINE
  8
CSLAYER1
  6
CONTINUOUS
 62
     6
 10
405.503699
 20
269.469190
 11
405.375894
 21
269.319647
  0
LINE
  8
CSLAYER1
  6
CONTINUOUS
 62
     6
 10
405.375894
 20
269.319647
 11
405.246941
 21
269.171729
  0
LINE
  8
CSLAYER1
  6
CONTINUOUS
 62
     6
 10
405.246941
 20
269.171729
 11
405.117974
 21
269.026334
  0
LINE
  8
CSLAYER1
  6
CONTINUOUS
 62
     6
 10
405.117974
 20
269.026334
 11
404.990125
 21
268.884362
  0
LINE
  8
CSLAYER1
  6
CONTINUOUS
 62
     6
 10
404.990125
 20
268.884362
 11
404.864526
 21
268.746712
  0
LINE
  8
CSLAYER1
  6
CONTINUOUS
 62
     6
 10
404.864526
 20
268.746712
 11
404.742311
 21
268.614283
  0
LINE
  8
CSLAYER1
  6
CONTINUOUS
 62
     6
 10
404.742311
 20
268.614283
 11
404.597335
 21
268.462123
  0
LINE
  8
CSLAYER1
  6
CONTINUOUS
 62
     6
 10
404.597335
 20
268.462123
 11
404.444160
 21
268.308172
  0
LINE
  8
CSLAYER1
  6
CONTINUOUS
 62
     6
 10
404.444160
 20
268.308172
 11
404.284751
 21
268.152739
  0
LINE
  8
CSLAYER1
  6
CONTINUOUS
 62
     6
 10
404.284751
 20
268.152739
 11
404.121074
 21
267.996131
  0
LINE
  8
CSLAYER1
  6
CONTINUOUS
 62
     6
 10
404.121074
 20
267.996131
 11
403.955094
 21
267.838657
  0
LINE
  8
CSLAYER1
  6
CONTINUOUS
 62
     6
 10
403.955094
 20
267.838657
 11
403.788776
 21
267.680626
  0
LINE
  8
CSLAYER1
  6
CONTINUOUS
 62
     6
 10
403.788776
 20
267.680626
 11
403.624086
 21
267.522346
  0
LINE
  8
CSLAYER1
  6
CONTINUOUS
 62
     6
 10
403.624086
 20
267.522346
 11
403.462989
 21
267.364126
  0
LINE
  8
CSLAYER1
  6
CONTINUOUS
 62
     6
 10
403.462989
 20
267.364126
 11
403.307450
 21
267.206274
  0
LINE
  8
CSLAYER1
  6
CONTINUOUS
 62
     6
 10
403.307450
 20
267.206274
 11
403.159434
 21
267.049098
  0
LINE
  8
CSLAYER1
  6
CONTINUOUS
 62
     6
 10
403.159434
 20
267.049098
 11
403.020906
 21
266.892908
  0
LINE
  8
CSLAYER1
  6
CONTINUOUS
 62
     6
 10
403.020906
 20
266.892908
 11
402.894991
 21
266.746326
  0
LINE
  8
CSLAYER1
  6
CONTINUOUS
 62
     6
 10
402.894991
 20
266.746326
 11
402.764182
 21
266.596148
  0
LINE
  8
CSLAYER1
  6
CONTINUOUS
 62
     6
 10
402.764182
 20
266.596148
 11
402.628579
 21
266.443928
  0
LINE
  8
CSLAYER1
  6
CONTINUOUS
 62
     6
 10
402.628579
 20
266.443928
 11
402.488286
 21
266.291223
  0
LINE
  8
CSLAYER1
  6
CONTINUOUS
 62
     6
 10
402.488286
 20
266.291223
 11
402.343403
 21
266.139590
  0
LINE
  8
CSLAYER1
  6
CONTINUOUS
 62
     6
 10
402.343403
 20
266.139590
 11
402.194032
 21
265.990583
  0
LINE
  8
CSLAYER1
  6
CONTINUOUS
 62
     6
 10
402.194032
 20
265.990583
 11
402.040276
 21
265.845759
  0
LINE
  8
CSLAYER1
  6
CONTINUOUS
 62
     6
 10
402.040276
 20
265.845759
 11
401.882235
 21
265.706674
  0
LINE
  8
CSLAYER1
  6
CONTINUOUS
 62
     6
 10
401.882235
 20
265.706674
 11
401.720011
 21
265.574884
  0
LINE
  8
CSLAYER1
  6
CONTINUOUS
 62
     6
 10
401.720011
 20
265.574884
 11
401.553707
 21
265.451944
  0
LINE
  8
CSLAYER1
  6
CONTINUOUS
 62
     6
 10
401.553707
 20
265.451944
 11
401.383424
 21
265.339411
  0
LINE
  8
CSLAYER1
  6
CONTINUOUS
 62
     6
 10
401.383424
 20
265.339411
 11
401.290690
 21
265.283985
  0
LINE
  8
CSLAYER1
  6
CONTINUOUS
 62
     6
 10
401.290690
 20
265.283985
 11
401.196098
 21
265.231308
  0
LINE
  8
CSLAYER1
  6
CONTINUOUS
 62
     6
 10
401.196098
 20
265.231308
 11
401.099833
 21
265.181107
  0
LINE
  8
CSLAYER1
  6
CONTINUOUS
 62
     6
 10
401.099833
 20
265.181107
 11
401.002082
 21
265.133106
  0
LINE
  8
CSLAYER1
  6
CONTINUOUS
 62
     6
 10
401.002082
 20
265.133106
 11
400.903030
 21
265.087029
  0
LINE
  8
CSLAYER1
  6
CONTINUOUS
 62
     6
 10
400.903030
 20
265.087029
 11
400.802864
 21
265.042603
  0
LINE
  8
CSLAYER1
  6
CONTINUOUS
 62
     6
 10
400.802864
 20
265.042603
 11
400.701768
 21
264.999552
  0
LINE
  8
CSLAYER1
  6
CONTINUOUS
 62
     6
 10
400.701768
 20
264.999552
 11
400.599929
 21
264.957600
  0
LINE
  8
CSLAYER1
  6
CONTINUOUS
 62
     6
 10
400.599929
 20
264.957600
 11
400.497532
 21
264.916474
  0
LINE
  8
CSLAYER1
  6
CONTINUOUS
 62
     6
 10
400.497532
 20
264.916474
 11
400.394764
 21
264.875897
  0
LINE
  8
CSLAYER1
  6
CONTINUOUS
 62
     6
 10
400.394764
 20
264.875897
 11
400.291810
 21
264.835596
  0
LINE
  8
CSLAYER1
  6
CONTINUOUS
 62
     6
 10
403.190575
 20
262.514964
 11
403.055773
 21
262.349652
  0
LINE
  8
CSLAYER1
  6
CONTINUOUS
 62
     6
 10
403.055773
 20
262.349652
 11
402.917216
 21
262.178000
  0
LINE
  8
CSLAYER1
  6
CONTINUOUS
 62
     6
 10
402.917216
 20
262.178000
 11
402.776941
 21
262.001578
  0
LINE
  8
CSLAYER1
  6
CONTINUOUS
 62
     6
 10
402.776941
 20
262.001578
 11
402.636983
 21
261.821960
  0
LINE
  8
CSLAYER1
  6
CONTINUOUS
 62
     6
 10
402.636983
 20
261.821960
 11
402.499380
 21
261.640717
  0
LINE
  8
CSLAYER1
  6
CONTINUOUS
 62
     6
 10
402.499380
 20
261.640717
 11
402.366168
 21
261.459420
  0
LINE
  8
CSLAYER1
  6
CONTINUOUS
 62
     6
 10
402.366168
 20
261.459420
 11
402.239384
 21
261.279643
  0
LINE
  8
CSLAYER1
  6
CONTINUOUS
 62
     6
 10
402.239384
 20
261.279643
 11
402.121065
 21
261.102957
  0
LINE
  8
CSLAYER1
  6
CONTINUOUS
 62
     6
 10
402.121065
 20
261.102957
 11
402.013246
 21
260.930933
  0
LINE
  8
CSLAYER1
  6
CONTINUOUS
 62
     6
 10
402.013246
 20
260.930933
 11
401.915607
 21
260.767172
  0
LINE
  8
CSLAYER1
  6
CONTINUOUS
 62
     6
 10
401.915607
 20
260.767172
 11
401.815978
 21
260.597905
  0
LINE
  8
CSLAYER1
  6
CONTINUOUS
 62
     6
 10
401.815978
 20
260.597905
 11
401.714152
 21
260.424434
  0
LINE
  8
CSLAYER1
  6
CONTINUOUS
 62
     6
 10
401.714152
 20
260.424434
 11
401.609922
 21
260.248061
  0
LINE
  8
CSLAYER1
  6
CONTINUOUS
 62
     6
 10
401.609922
 20
260.248061
 11
401.503082
 21
260.070088
  0
LINE
  8
CSLAYER1
  6
CONTINUOUS
 62
     6
 10
401.503082
 20
260.070088
 11
401.393424
 21
259.891819
  0
LINE
  8
CSLAYER1
  6
CONTINUOUS
 62
     6
 10
401.393424
 20
259.891819
 11
401.280744
 21
259.714554
  0
LINE
  8
CSLAYER1
  6
CONTINUOUS
 62
     6
 10
401.280744
 20
259.714554
 11
401.164833
 21
259.539596
  0
LINE
  8
CSLAYER1
  6
CONTINUOUS
 62
     6
 10
401.164833
 20
259.539596
 11
401.045486
 21
259.368248
  0
LINE
  8
CSLAYER1
  6
CONTINUOUS
 62
     6
 10
401.045486
 20
259.368248
 11
400.922496
 21
259.201812
  0
LINE
  8
CSLAYER1
  6
CONTINUOUS
 62
     6
 10
400.922496
 20
259.201812
 11
400.795655
 21
259.041590
  0
LINE
  8
CSLAYER1
  6
CONTINUOUS
 62
     6
 10
400.795655
 20
259.041590
 11
400.696834
 21
258.925077
  0
LINE
  8
CSLAYER1
  6
CONTINUOUS
 62
     6
 10
400.696834
 20
258.925077
 11
400.594622
 21
258.811318
  0
LINE
  8
CSLAYER1
  6
CONTINUOUS
 62
     6
 10
400.594622
 20
258.811318
 11
400.489358
 21
258.700037
  0
LINE
  8
CSLAYER1
  6
CONTINUOUS
 62
     6
 10
400.489358
 20
258.700037
 11
400.381381
 21
258.590959
  0
LINE
  8
CSLAYER1
  6
CONTINUOUS
 62
     6
 10
400.381381
 20
258.590959
 11
400.271030
 21
258.483808
  0
LINE
  8
CSLAYER1
  6
CONTINUOUS
 62
     6
 10
400.271030
 20
258.483808
 11
400.158644
 21
258.378310
  0
LINE
  8
CSLAYER1
  6
CONTINUOUS
 62
     6
 10
400.158644
 20
258.378310
 11
400.044563
 21
258.274188
  0
LINE
  8
CSLAYER1
  6
CONTINUOUS
 62
     6
 10
400.044563
 20
258.274188
 11
399.929126
 21
258.171168
  0
LINE
  8
CSLAYER1
  6
CONTINUOUS
 62
     6
 10
399.929126
 20
258.171168
 11
399.812671
 21
258.068973
  0
LINE
  8
CSLAYER1
  6
CONTINUOUS
 62
     6
 10
399.812671
 20
258.068973
 11
399.716644
 21
257.985645
  0
LINE
  8
CSLAYER1
  6
CONTINUOUS
 62
     6
 10
399.716644
 20
257.985645
 11
399.785792
 21
257.951117
  0
LINE
  8
CSLAYER1
  6
CONTINUOUS
 62
     6
 10
399.785792
 20
257.951117
 11
399.870268
 21
257.903500
  0
LINE
  8
CSLAYER1
  6
CONTINUOUS
 62
     6
 10
399.870268
 20
257.903500
 11
399.956200
 21
257.849750
  0
LINE
  8
CSLAYER1
  6
CONTINUOUS
 62
     6
 10
399.956200
 20
257.849750
 11
400.042320
 21
257.790526
  0
LINE
  8
CSLAYER1
  6
CONTINUOUS
 62
     6
 10
400.042320
 20
257.790526
 11
400.127355
 21
257.726488
  0
LINE
  8
CSLAYER1
  6
CONTINUOUS
 62
     6
 10
400.127355
 20
257.726488
 11
400.210038
 21
257.658297
  0
LINE
  8
CSLAYER1
  6
CONTINUOUS
 62
     6
 10
400.210038
 20
257.658297
 11
400.289097
 21
257.586614
  0
LINE
  8
CSLAYER1
  6
CONTINUOUS
 62
     6
 10
400.289097
 20
257.586614
 11
400.363263
 21
257.512098
  0
LINE
  8
CSLAYER1
  6
CONTINUOUS
 62
     6
 10
400.363263
 20
257.512098
 11
400.431266
 21
257.435411
  0
LINE
  8
CSLAYER1
  6
CONTINUOUS
 62
     6
 10
400.431266
 20
257.435411
 11
400.491836
 21
257.357212
  0
LINE
  8
CSLAYER1
  6
CONTINUOUS
 62
     6
 10
400.491836
 20
257.357212
 11
400.543702
 21
257.278162
  0
LINE
  8
CSLAYER1
  6
CONTINUOUS
 62
     6
 10
400.543702
 20
257.278162
 11
400.559609
 21
257.250556
  0
LINE
  8
CSLAYER1
  6
CONTINUOUS
 62
     6
 10
400.559609
 20
257.250556
 11
400.575262
 21
257.221862
  0
LINE
  8
CSLAYER1
  6
CONTINUOUS
 62
     6
 10
400.575262
 20
257.221862
 11
400.590704
 21
257.192249
  0
LINE
  8
CSLAYER1
  6
CONTINUOUS
 62
     6
 10
400.590704
 20
257.192249
 11
400.605977
 21
257.161883
  0
LINE
  8
CSLAYER1
  6
CONTINUOUS
 62
     6
 10
400.605977
 20
257.161883
 11
400.621123
 21
257.130931
  0
LINE
  8
CSLAYER1
  6
CONTINUOUS
 62
     6
 10
400.621123
 20
257.130931
 11
400.636183
 21
257.099561
  0
LINE
  8
CSLAYER1
  6
CONTINUOUS
 62
     6
 10
400.636183
 20
257.099561
 11
400.651200
 21
257.067939
  0
LINE
  8
CSLAYER1
  6
CONTINUOUS
 62
     6
 10
400.651200
 20
257.067939
 11
400.666215
 21
257.036234
  0
LINE
  8
CSLAYER1
  6
CONTINUOUS
 62
     6
 10
400.666215
 20
257.036234
 11
400.681271
 21
257.004612
  0
LINE
  8
CSLAYER1
  6
CONTINUOUS
 62
     6
 10
400.681271
 20
257.004612
 11
400.696409
 21
256.973240
  0
LINE
  8
CSLAYER1
  6
CONTINUOUS
 62
     6
 10
400.696409
 20
256.973240
 11
400.711671
 21
256.942286
  0
LINE
  8
CSLAYER1
  6
CONTINUOUS
 62
     6
 10
400.711671
 20
256.942286
 11
400.752492
 21
256.864149
  0
LINE
  8
CSLAYER1
  6
CONTINUOUS
 62
     6
 10
400.752492
 20
256.864149
 11
400.795828
 21
256.787617
  0
LINE
  8
CSLAYER1
  6
CONTINUOUS
 62
     6
 10
400.795828
 20
256.787617
 11
400.841426
 21
256.712528
  0
LINE
  8
CSLAYER1
  6
CONTINUOUS
 62
     6
 10
400.841426
 20
256.712528
 11
400.889036
 21
256.638724
  0
LINE
  8
CSLAYER1
  6
CONTINUOUS
 62
     6
 10
400.889036
 20
256.638724
 11
400.938406
 21
256.566042
  0
LINE
  8
CSLAYER1
  6
CONTINUOUS
 62
     6
 10
400.938406
 20
256.566042
 11
400.989285
 21
256.494324
  0
LINE
  8
CSLAYER1
  6
CONTINUOUS
 62
     6
 10
400.989285
 20
256.494324
 11
401.041421
 21
256.423407
  0
LINE
  8
CSLAYER1
  6
CONTINUOUS
 62
     6
 10
401.041421
 20
256.423407
 11
401.094563
 21
256.353133
  0
LINE
  8
CSLAYER1
  6
CONTINUOUS
 62
     6
 10
401.094563
 20
256.353133
 11
401.148459
 21
256.283340
  0
LINE
  8
CSLAYER1
  6
CONTINUOUS
 62
     6
 10
401.148459
 20
256.283340
 11
401.202858
 21
256.213868
  0
LINE
  8
CSLAYER1
  6
CONTINUOUS
 62
     6
 10
401.202858
 20
256.213868
 11
401.254931
 21
256.147825
  0
LINE
  8
CSLAYER1
  6
CONTINUOUS
 62
     6
 10
401.254931
 20
256.147825
 11
401.382278
 21
256.257126
  0
LINE
  8
CSLAYER1
  6
CONTINUOUS
 62
     6
 10
401.382278
 20
256.257126
 11
401.518993
 21
256.375159
  0
LINE
  8
CSLAYER1
  6
CONTINUOUS
 62
     6
 10
401.518993
 20
256.375159
 11
401.654881
 21
256.493863
  0
LINE
  8
CSLAYER1
  6
CONTINUOUS
 62
     6
 10
401.654881
 20
256.493863
 11
401.789527
 21
256.613574
  0
LINE
  8
CSLAYER1
  6
CONTINUOUS
 62
     6
 10
401.789527
 20
256.613574
 11
401.922518
 21
256.734629
  0
LINE
  8
CSLAYER1
  6
CONTINUOUS
 62
     6
 10
401.922518
 20
256.734629
 11
402.053441
 21
256.857362
  0
LINE
  8
CSLAYER1
  6
CONTINUOUS
 62
     6
 10
402.053441
 20
256.857362
 11
402.181881
 21
256.982110
  0
LINE
  8
CSLAYER1
  6
CONTINUOUS
 62
     6
 10
402.181881
 20
256.982110
 11
402.307424
 21
257.109208
  0
LINE
  8
CSLAYER1
  6
CONTINUOUS
 62
     6
 10
402.307424
 20
257.109208
 11
402.429657
 21
257.238991
  0
LINE
  8
CSLAYER1
  6
CONTINUOUS
 62
     6
 10
402.429657
 20
257.238991
 11
402.548167
 21
257.371797
  0
LINE
  8
CSLAYER1
  6
CONTINUOUS
 62
     6
 10
402.548167
 20
257.371797
 11
402.662538
 21
257.507960
  0
LINE
  8
CSLAYER1
  6
CONTINUOUS
 62
     6
 10
402.662538
 20
257.507960
 11
402.799034
 21
257.682186
  0
LINE
  8
CSLAYER1
  6
CONTINUOUS
 62
     6
 10
402.799034
 20
257.682186
 11
402.931377
 21
257.862862
  0
LINE
  8
CSLAYER1
  6
CONTINUOUS
 62
     6
 10
402.931377
 20
257.862862
 11
403.059849
 21
258.048632
  0
LINE
  8
CSLAYER1
  6
CONTINUOUS
 62
     6
 10
403.059849
 20
258.048632
 11
403.184730
 21
258.238140
  0
LINE
  8
CSLAYER1
  6
CONTINUOUS
 62
     6
 10
403.184730
 20
258.238140
 11
403.306302
 21
258.430028
  0
LINE
  8
CSLAYER1
  6
CONTINUOUS
 62
     6
 10
403.306302
 20
258.430028
 11
403.424847
 21
258.622941
  0
LINE
  8
CSLAYER1
  6
CONTINUOUS
 62
     6
 10
403.424847
 20
258.622941
 11
403.540645
 21
258.815521
  0
LINE
  8
CSLAYER1
  6
CONTINUOUS
 62
     6
 10
403.540645
 20
258.815521
 11
403.653977
 21
259.006412
  0
LINE
  8
CSLAYER1
  6
CONTINUOUS
 62
     6
 10
403.653977
 20
259.006412
 11
403.765126
 21
259.194257
  0
LINE
  8
CSLAYER1
  6
CONTINUOUS
 62
     6
 10
403.765126
 20
259.194257
 11
403.874372
 21
259.377700
  0
LINE
  8
CSLAYER1
  6
CONTINUOUS
 62
     6
 10
403.874372
 20
259.377700
 11
403.981996
 21
259.555384
  0
LINE
  8
CSLAYER1
  6
CONTINUOUS
 62
     6
 10
403.981996
 20
259.555384
 11
404.087322
 21
259.721071
  0
LINE
  8
CSLAYER1
  6
CONTINUOUS
 62
     6
 10
404.087322
 20
259.721071
 11
404.202051
 21
259.890960
  0
LINE
  8
CSLAYER1
  6
CONTINUOUS
 62
     6
 10
404.202051
 20
259.890960
 11
404.324351
 21
260.063623
  0
LINE
  8
CSLAYER1
  6
CONTINUOUS
 62
     6
 10
404.324351
 20
260.063623
 11
404.452393
 21
260.237633
  0
LINE
  8
CSLAYER1
  6
CONTINUOUS
 62
     6
 10
404.452393
 20
260.237633
 11
404.584345
 21
260.411563
  0
LINE
  8
CSLAYER1
  6
CONTINUOUS
 62
     6
 10
404.584345
 20
260.411563
 11
404.718377
 21
260.583984
  0
LINE
  8
CSLAYER1
  6
CONTINUOUS
 62
     6
 10
404.718377
 20
260.583984
 11
404.852658
 21
260.753469
  0
LINE
  8
CSLAYER1
  6
CONTINUOUS
 62
     6
 10
404.852658
 20
260.753469
 11
404.985357
 21
260.918591
  0
LINE
  8
CSLAYER1
  6
CONTINUOUS
 62
     6
 10
404.985357
 20
260.918591
 11
405.114643
 21
261.077921
  0
LINE
  8
CSLAYER1
  6
CONTINUOUS
 62
     6
 10
405.114643
 20
261.077921
 11
405.238685
 21
261.230033
  0
LINE
  8
CSLAYER1
  6
CONTINUOUS
 62
     6
 10
405.238685
 20
261.230033
 11
405.407942
 21
261.437634
  0
ARC
  8
CSLAYER1
  6
CONTINUOUS
 62
     6
 10
404.325692
 20
261.007862
 40
1.164461
 50
21.658505
 51
86.024005
  0
ARC
  8
CSLAYER1
  6
CONTINUOUS
 62
     6
 10
403.360038
 20
261.658616
 40
1.164461
 50
26.024005
 51
86.024005
  0
ARC
  8
CSLAYER1
  6
CONTINUOUS
 62
     6
 10
404.487176
 20
263.331178
 40
1.164461
 50
206.024005
 51
266.024005
  0
LINE
  8
CSLAYER1
  6
CONTINUOUS
 62
     6
 10
403.440766
 20
262.820277
 11
403.319585
 21
262.672363
  0
LINE
  8
CSLAYER1
  6
CONTINUOUS
 62
     6
 10
403.319585
 20
262.672363
 11
403.190575
 21
262.514964
  0
ARC
  8
CSLAYER1
  6
CONTINUOUS
 62
     6
 10
406.274912
 20
264.222546
 40
1.200008
 50
210.461486
 51
270.461486
  0
LINE
  8
CSLAYER1
  6
CONTINUOUS
 62
     6
 10
400.481693
 20
257.370307
 11
398.038697
 21
254.975672
  0
LINE
  8
CSLAYER1
  6
CONTINUOUS
 62
     6
 10
397.424348
 20
255.188319
 11
400.170195
 21
257.691157
  0
LINE
  8
CSLAYER1
  6
CONTINUOUS
 62
     6
 10
400.762163
 20
256.847070
 11
398.511232
 21
254.408564
  0
LINE
  8
CSLAYER1
  6
CONTINUOUS
 62
     6
 10
392.084352
 20
257.267603
 11
394.310474
 21
260.243841
  0
LINE
  8
CSLAYER1
  6
CONTINUOUS
 62
     6
 10
393.744641
 20
260.390433
 11
391.399110
 21
257.716547
  0
LINE
  8
CSLAYER1
  6
CONTINUOUS
 62
     6
 10
390.855653
 20
258.236353
 11
393.327423
 21
260.638161
  0
LINE
  8
CSLAYER1
  6
CONTINUOUS
 62
     6
 10
413.644000
 20
274.864832
 11
413.200122
 21
275.564814
  0
LINE
  8
CSLAYER1
  6
CONTINUOUS
 62
     6
 10
413.700122
 20
275.564814
 11
414.144000
 21
274.864832
  0
ARC
  8
CSLAYER1
  6
CONTINUOUS
 62
     6
 10
416.348071
 20
274.964808
 40
0.100000
 50
270.000001
 51
359.942691
  0
LINE
  8
CSLAYER1
  6
CONTINUOUS
 62
     6
 10
416.448047
 20
274.964808
 11
416.448047
 21
275.464808
  0
ARC
  8
CSLAYER1
  6
CONTINUOUS
 62
     6
 10
416.348071
 20
275.464808
 40
0.100000
 50
0.000010
 51
90.000016
  0
LINE
  8
CSLAYER1
  6
CONTINUOUS
 62
     6
 10
426.548083
 20
273.564814
 11
426.548083
 21
277.564814
  0
LINE
  8
CSLAYER1
  6
CONTINUOUS
 62
     6
 10
426.548083
 20
273.564814
 11
439.548083
 21
273.564814
  0
LINE
  8
CSLAYER1
  6
CONTINUOUS
 62
     6
 10
595.548083
 20
282.244814
 11
615.168083
 21
281.724814
  0
ARC
  8
CSLAYER1
  6
CONTINUOUS
 62
     6
 10
615.048083
 20
276.724814
 40
5.000000
 50
0.000000
 51
88.500000
  0
LINE
  8
CSLAYER1
  6
CONTINUOUS
 62
     6
 10
620.048083
 20
276.724814
 11
620.048083
 21
266.464814
  0
ARC
  8
CSLAYER1
  6
CONTINUOUS
 62
     6
 10
615.048083
 20
266.464814
 40
5.000000
 50
271.500000
 51
360.000000
  0
LINE
  8
CSLAYER1
  6
CONTINUOUS
 62
     6
 10
615.168083
 20
261.464814
 11
595.548083
 21
260.944814
  0
LINE
  8
CSLAYER1
  6
CONTINUOUS
 62
     6
 10
598.468083
 20
252.384814
 11
643.548083
 21
253.564814
  0
LINE
  8
CSLAYER1
  6
CONTINUOUS
 62
     6
 10
643.548083
 20
253.564814
 11
643.548083
 21
381.544814
  0
LINE
  8
CSLAYER1
  6
CONTINUOUS
 62
     6
 10
643.548083
 20
381.544814
 11
598.468083
 21
382.724814
  0
ARC
  8
CSLAYER1
  6
CONTINUOUS
 62
     6
 10
598.548083
 20
385.724814
 40
3.000000
 50
180.000000
 51
268.500000
  0
ARC
  8
CSLAYER1
  6
CONTINUOUS
 62
     6
 10
600.548083
 20
389.684814
 40
5.000000
 50
180.000000
 51
268.500000
  0
LINE
  8
CSLAYER1
  6
CONTINUOUS
 62
     6
 10
600.408083
 20
384.684814
 11
603.588083
 21
384.604814
  0
ARC
  8
CSLAYER1
  6
CONTINUOUS
 62
     6
 10
603.548083
 20
382.604814
 40
2.000000
 50
28.420000
 51
88.500000
  0
ARC
  8
CSLAYER1
  6
CONTINUOUS
 62
     6
 10
607.068083
 20
384.504814
 40
2.000000
 50
208.420000
 51
268.500000
  0
LINE
  8
CSLAYER1
  6
CONTINUOUS
 62
     6
 10
615.168083
 20
373.644814
 11
595.548083
 21
374.164814
  0
ARC
  8
CSLAYER1
  6
CONTINUOUS
 62
     6
 10
615.048083
 20
368.644814
 40
5.000000
 50
0.000000
 51
88.490000
  0
LINE
  8
CSLAYER1
  6
CONTINUOUS
 62
     6
 10
620.048083
 20
368.644814
 11
620.048083
 21
358.384814
  0
ARC
  8
CSLAYER1
  6
CONTINUOUS
 62
     6
 10
615.048083
 20
358.384814
 40
5.000000
 50
271.500000
 51
360.000000
  0
LINE
  8
CSLAYER1
  6
CONTINUOUS
 62
     6
 10
615.168083
 20
353.384814
 11
595.548083
 21
352.864814
  0
LINE
  8
CSLAYER1
  6
CONTINUOUS
 62
     6
 10
595.548083
 20
325.564814
 11
603.548083
 21
325.564814
  0
ARC
  8
CSLAYER1
  6
CONTINUOUS
 62
     6
 10
603.548083
 20
323.564814
 40
2.000000
 50
0.000000
 51
90.000000
  0
LINE
  8
CSLAYER1
  6
CONTINUOUS
 62
     6
 10
605.548083
 20
323.564814
 11
605.548083
 21
311.564814
  0
ARC
  8
CSLAYER1
  6
CONTINUOUS
 62
     6
 10
603.548083
 20
311.564814
 40
2.000000
 50
270.000000
 51
360.000000
  0
LINE
  8
CSLAYER1
  6
CONTINUOUS
 62
     6
 10
603.548083
 20
309.564814
 11
595.548083
 21
309.564814
  0
ARC
  8
CSLAYER1
  6
CONTINUOUS
 62
     6
 10
598.548083
 20
249.384814
 40
3.000000
 50
91.490000
 51
180.000000
  0
ARC
  8
CSLAYER1
  6
CONTINUOUS
 62
     6
 10
600.548083
 20
245.424814
 40
5.000000
 50
91.490000
 51
180.000000
  0
LINE
  8
CSLAYER1
  6
CONTINUOUS
 62
     6
 10
600.408083
 20
250.424814
 11
603.588083
 21
250.504814
  0
ARC
  8
CSLAYER1
  6
CONTINUOUS
 62
     6
 10
603.548083
 20
252.504814
 40
2.000000
 50
271.490000
 51
331.570000
  0
ARC
  8
CSLAYER1
  6
CONTINUOUS
 62
     6
 10
607.068083
 20
250.604814
 40
2.000000
 50
91.490000
 51
151.570000
  0
LINE
  8
CSLAYER1
  6
CONTINUOUS
 62
     6
 10
643.548083
 20
254.064814
 11
650.548083
 21
254.064814
  0
ARC
  8
CSLAYER1
  6
CONTINUOUS
 62
     6
 10
650.548083
 20
249.044814
 40
5.000000
 50
0.000000
 51
90.000000
  0
LINE
  8
CSLAYER1
  6
CONTINUOUS
 62
     6
 10
655.548083
 20
240.564814
 11
807.548083
 21
240.564814
  0
LINE
  8
CSLAYER1
  6
CONTINUOUS
 62
     6
 10
793.548083
 20
238.484814
 11
793.548083
 21
222.564814
  0
LINE
  8
CSLAYER1
  6
DOT
 62
     6
 10
785.548083
 20
222.564814
 11
785.548083
 21
240.564814
  0
LINE
  8
CSLAYER1
  6
DOT
 62
     6
 10
772.548083
 20
240.564814
 11
772.548083
 21
222.564814
  0
ARC
  8
CSLAYER1
  6
CONTINUOUS
 62
     6
 10
763.608083
 20
245.564814
 40
5.000000
 50
225.000000
 51
270.000000
  0
LINE
  8
CSLAYER1
  6
CONTINUOUS
 62
     6
 10
760.088083
 20
242.024814
 11
757.428083
 21
244.684814
  0
ARC
  8
CSLAYER1
  6
CONTINUOUS
 62
     6
 10
755.308083
 20
242.564814
 40
3.000000
 50
45.000000
 51
90.000000
  0
LINE
  8
CSLAYER1
  6
CONTINUOUS
 62
     6
 10
755.308083
 20
245.564814
 11
707.788083
 21
245.564814
  0
ARC
  8
CSLAYER1
  6
CONTINUOUS
 62
     6
 10
707.788083
 20
242.564814
 40
3.000000
 50
90.000000
 51
135.000000
  0
LINE
  8
CSLAYER1
  6
CONTINUOUS
 62
     6
 10
705.668083
 20
244.684814
 11
703.008083
 21
242.024814
  0
ARC
  8
CSLAYER1
  6
CONTINUOUS
 62
     6
 10
699.468083
 20
245.564814
 40
5.000000
 50
270.000000
 51
315.000000
  0
ARC
  8
CSLAYER1
  6
CONTINUOUS
 62
     6
 10
705.548083
 20
241.564814
 40
1.000000
 50
270.000000
 51
360.000000
  0
LINE
  8
CSLAYER1
  6
CONTINUOUS
 62
     6
 10
706.548083
 20
241.564814
 11
706.548083
 21
244.624814
  0
LINE
  8
CSLAYER1
  6
DOT
 62
     6
 10
690.548083
 20
240.564814
 11
690.548083
 21
222.564814
  0
LINE
  8
CSLAYER1
  6
DOT
 62
     6
 10
677.548083
 20
222.564814
 11
677.548083
 21
240.564814
  0
LINE
  8
CSLAYER1
  6
CONTINUOUS
 62
     6
 10
669.548083
 20
238.484814
 11
669.548083
 21
222.564814
  0
LINE
  8
CSLAYER1
  6
CONTINUOUS
 62
     6
 10
655.548083
 20
222.564814
 11
807.548083
 21
222.564814
  0
LINE
  8
CSLAYER1
  6
CONTINUOUS
 62
     6
 10
807.548083
 20
222.564814
 11
807.548083
 21
390.884814
  0
ARC
  8
CSLAYER1
  6
CONTINUOUS
 62
     6
 10
799.548083
 20
390.884814
 40
8.000000
 50
0.000000
 51
55.330000
  0
LINE
  8
CSLAYER1
  6
CONTINUOUS
 62
     6
 10
804.088083
 20
397.464814
 11
762.608083
 21
426.164814
  0
ARC
  8
CSLAYER1
  6
CONTINUOUS
 62
     6
 10
758.048083
 20
419.564814
 40
8.000000
 50
55.330000
 51
90.000000
  0
LINE
  8
CSLAYER1
  6
CONTINUOUS
 62
     6
 10
758.048083
 20
427.564814
 11
705.048083
 21
427.564814
  0
ARC
  8
CSLAYER1
  6
CONTINUOUS
 62
     6
 10
705.048083
 20
419.564814
 40
8.000000
 50
90.000000
 51
124.660000
  0
LINE
  8
CSLAYER1
  6
CONTINUOUS
 62
     6
 10
700.488083
 20
426.164814
 11
658.988083
 21
397.464814
  0
ARC
  8
CSLAYER1
  6
CONTINUOUS
 62
     6
 10
663.548083
 20
390.884814
 40
8.000000
 50
124.660000
 51
180.000000
  0
LINE
  8
CSLAYER1
  6
CONTINUOUS
 62
     6
 10
655.548083
 20
390.884814
 11
655.548083
 21
222.564814
  0
ARC
  8
CSLAYER1
  6
CONTINUOUS
 62
     6
 10
835.248083
 20
317.564814
 40
185.200000
 50
166.000000
 51
193.990000
  0
LINE
  8
CSLAYER1
  6
CONTINUOUS
 62
     6
 10
650.548083
 20
381.044814
 11
643.548083
 21
381.044814
  0
ARC
  8
CSLAYER1
  6
CONTINUOUS
 62
     6
 10
650.548083
 20
386.044814
 40
5.000000
 50
270.000000
 51
360.000000
  0
LINE
  8
CSLAYER1
  6
CONTINUOUS
 62
     6
 10
688.588083
 20
372.124814
 11
674.908083
 21
310.484814
  0
ARC
  8
CSLAYER1
  6
CONTINUOUS
 62
     6
 10
706.048083
 20
303.584814
 40
31.880000
 50
167.470000
 51
270.000000
  0
LINE
  8
CSLAYER1
  6
CONTINUOUS
 62
     6
 10
706.048083
 20
271.684814
 11
757.048083
 21
271.684814
  0
ARC
  8
CSLAYER1
  6
CONTINUOUS
 62
     6
 10
757.048083
 20
303.584814
 40
31.880000
 50
-90.000000
 51
12.520000
  0
LINE
  8
CSLAYER1
  6
CONTINUOUS
 62
     6
 10
788.188083
 20
310.484814
 11
774.508083
 21
372.124814
  0
ARC
  8
CSLAYER1
  6
CONTINUOUS
 62
     6
 10
731.548083
 20
362.564814
 40
44.000000
 50
12.520000
 51
167.470000
  0
LINE
  8
CSLAYER1
  6
CONTINUOUS
 62
     6
 10
691.428083
 20
371.484814
 11
677.728083
 21
309.864814
  0
ARC
  8
CSLAYER1
  6
CONTINUOUS
 62
     6
 10
706.048083
 20
303.584814
 40
29.000000
 50
167.470000
 51
270.000000
  0
LINE
  8
CSLAYER1
  6
CONTINUOUS
 62
     6
 10
706.048083
 20
274.584814
 11
757.048083
 21
274.584814
  0
ARC
  8
CSLAYER1
  6
CONTINUOUS
 62
     6
 10
757.048083
 20
303.584814
 40
29.000000
 50
-90.000000
 51
12.520000
  0
LINE
  8
CSLAYER1
  6
CONTINUOUS
 62
     6
 10
785.348083
 20
309.864814
 11
771.668083
 21
371.484814
  0
ARC
  8
CSLAYER1
  6
CONTINUOUS
 62
     6
 10
731.548083
 20
362.564814
 40
41.080000
 50
-192.530000
 51
12.520000
  0
CIRCLE
  8
CSLAYER1
  6
CONTINUOUS
 62
     6
 10
731.548083
 20
362.564814
 40
39.000000
  0
LINE
  8
CSLAYER1
  6
CONTINUOUS
 62
     6
 10
742.548083
 20
357.584814
 11
742.548083
 21
367.584814
  0
LINE
  8
CSLAYER1
  6
CONTINUOUS
 62
     6
 10
742.548083
 20
367.584814
 11
750.548083
 21
367.584814
  0
LINE
  8
CSLAYER1
  6
CONTINUOUS
 62
     6
 10
750.548083
 20
367.584814
 11
750.548083
 21
357.584814
  0
LINE
  8
CSLAYER1
  6
CONTINUOUS
 62
     6
 10
750.548083
 20
357.584814
 11
742.548083
 21
357.584814
  0
ARC
  8
CSLAYER1
  6
CONTINUOUS
 62
     6
 10
731.548083
 20
362.564814
 40
16.000000
 50
18.200000
 51
341.790000
  0
LINE
  8
CSLAYER1
  6
CONTINUOUS
 62
     6
 10
756.548083
 20
244.624814
 11
756.548083
 21
241.564814
  0
ARC
  8
CSLAYER1
  6
CONTINUOUS
 62
     6
 10
757.548083
 20
241.564814
 40
1.000000
 50
180.000000
 51
270.000000
  0
LINE
  8
CSLAYER1
  6
CONTINUOUS
 62
     6
 10
876.548083
 20
346.544814
 11
876.548083
 21
378.544814
  0
LINE
  8
CSLAYER1
  6
CONTINUOUS
 62
     6
 10
876.548083
 20
378.544814
 11
931.548083
 21
378.544814
  0
LINE
  8
CSLAYER1
  6
CONTINUOUS
 62
     6
 10
931.548083
 20
380.044814
 11
931.548083
 21
345.044814
  0
LINE
  8
CSLAYER1
  6
CONTINUOUS
 62
     6
 10
931.548083
 20
345.044814
 11
934.548083
 21
345.044814
  0
LINE
  8
CSLAYER1
  6
CONTINUOUS
 62
     6
 10
931.548083
 20
346.544814
 11
876.548083
 21
346.544814
  0
LINE
  8
CSLAYER1
  6
CONTINUOUS
 62
     6
 10
876.548083
 20
357.544814
 11
921.548083
 21
357.544814
  0
ARC
  8
CSLAYER1
  6
CONTINUOUS
 62
     6
 10
921.548083
 20
362.544814
 40
5.000000
 50
-90.000000
 51
90.000000
  0
LINE
  8
CSLAYER1
  6
CONTINUOUS
 62
     6
 10
921.548083
 20
367.544814
 11
876.548083
 21
367.544814
  0
ARC
  8
CSLAYER1
  6
CONTINUOUS
 62
     6
 10
996.548083
 20
317.564814
 40
80.000000
 50
158.740000
 51
235.770000
  0
ARC
  8
CSLAYER1
  6
CONTINUOUS
 62
     6
 10
948.548083
 20
248.104814
 40
3.000000
 50
279.460000
 51
360.000000
  0
LINE
  8
CSLAYER1
  6
CONTINUOUS
 62
     6
 10
949.048083
 20
245.144814
 11
923.628083
 21
240.904814
  0
ARC
  8
CSLAYER1
  6
CONTINUOUS
 62
     6
 10
924.048083
 20
238.444814
 40
2.500000
 50
99.460000
 51
180.000000
  0
LINE
  8
CSLAYER1
  6
CONTINUOUS
 62
     6
 10
921.548083
 20
238.444814
 11
921.548083
 21
222.564814
  0
LINE
  8
CSLAYER1
  6
CONTINUOUS
 62
     6
 10
921.548083
 20
222.564814
 11
966.548083
 21
222.564814
  0
LINE
  8
CSLAYER1
  6
CONTINUOUS
 62
     6
 10
966.548083
 20
222.564814
 11
968.048083
 21
224.064814
  0
LINE
  8
CSLAYER1
  6
CONTINUOUS
 62
     6
 10
968.048083
 20
224.064814
 11
1025.048083
 21
224.064814
  0
LINE
  8
CSLAYER1
  6
CONTINUOUS
 62
     6
 10
1025.048083
 20
224.064814
 11
1026.548083
 21
222.564814
  0
LINE
  8
CSLAYER1
  6
CONTINUOUS
 62
     6
 10
1026.548083
 20
222.564814
 11
1071.548083
 21
222.564814
  0
LINE
  8
CSLAYER1
  6
CONTINUOUS
 62
     6
 10
1071.548083
 20
222.564814
 11
1071.548083
 21
238.444814
  0
ARC
  8
CSLAYER1
  6
CONTINUOUS
 62
     6
 10
1069.048083
 20
238.444814
 40
2.500000
 50
0.000000
 51
80.530000
  0
LINE
  8
CSLAYER1
  6
CONTINUOUS
 62
     6
 10
1069.448083
 20
240.904814
 11
1044.048083
 21
245.144814
  0
ARC
  8
CSLAYER1
  6
CONTINUOUS
 62
     6
 10
1044.548083
 20
248.104814
 40
3.000000
 50
180.000000
 51
260.530000
  0
ARC
  8
CSLAYER1
  6
CONTINUOUS
 62
     6
 10
996.548083
 20
317.564814
 40
80.000000
 50
-55.780000
 51
39.194967
  0
LINE
  8
CSLAYER1
  6
CONTINUOUS
 62
     6
 10
1051.548083
 20
366.464814
 11
1051.548083
 21
278.304814
  0
ARC
  8
CSLAYER1
  6
CONTINUOUS
 62
     6
 10
1046.548083
 20
278.304814
 40
5.000000
 50
286.170000
 51
360.000000
  0
LINE
  8
CSLAYER1
  6
CONTINUOUS
 62
     6
 10
1047.948083
 20
273.504814
 11
1045.148083
 21
272.704814
  0
ARC
  8
CSLAYER1
  6
CONTINUOUS
 62
     6
 10
1046.548083
 20
267.904814
 40
5.000000
 50
106.170000
 51
180.000000
  0
ARC
  8
CSLAYER1
  6
CONTINUOUS
 62
     6
 10
1042.508083
 20
271.584814
 40
10.000000
 50
-95.530000
 51
25.890000
  0
ARC
  8
CSLAYER1
  6
CONTINUOUS
 62
     6
 10
1060.508083
 20
280.324814
 40
10.000000
 50
202.070000
 51
205.890000
  0
ARC
  8
CSLAYER1
  6
CONTINUOUS
 62
     6
 10
1060.508083
 20
280.324814
 40
10.000000
 50
149.790000
 51
153.560000
  0
ARC
  8
CSLAYER1
  6
CONTINUOUS
 62
     6
 10
996.548083
 20
317.564814
 40
63.500000
 50
-29.990000
 51
12.470000
  0
ARC
  8
CSLAYER1
  6
CONTINUOUS
 62
     6
 10
996.548083
 20
317.564814
 40
64.000000
 50
-30.760000
 51
14.360000
  0
ARC
  8
CSLAYER1
  6
CONTINUOUS
 62
     6
 10
1062.628083
 20
306.524814
 40
3.000000
 50
140.920000
 51
170.520000
  0
ARC
  8
CSLAYER1
  6
CONTINUOUS
 62
     6
 10
1049.048083
 20
317.564814
 40
14.500000
 50
-39.080000
 51
39.070000
  0
ARC
  8
CSLAYER1
  6
CONTINUOUS
 62
     6
 10
1062.628083
 20
328.584814
 40
3.000000
 50
189.470000
 51
219.070000
  0
LINE
  8
CSLAYER1
  6
CONTINUOUS
 62
     6
 10
1058.548083
 20
327.304814
 11
1058.548083
 21
397.804814
  0
ARC
  8
CSLAYER1
  6
CONTINUOUS
 62
     6
 10
1053.548083
 20
397.804814
 40
5.000000
 50
0.000000
 51
73.610000
  0
LINE
  8
CSLAYER1
  6
CONTINUOUS
 62
     6
 10
1054.948083
 20
402.604814
 11
1045.128083
 21
405.504814
  0
ARC
  8
CSLAYER1
  6
CONTINUOUS
 62
     6
 10
1046.548083
 20
410.304814
 40
5.000000
 50
180.000000
 51
253.610000
  0
LINE
  8
CSLAYER1
  6
CONTINUOUS
 62
     6
 10
1038.808083
 20
395.044814
 11
954.128083
 21
395.044814
  0
ARC
  8
CSLAYER1
  6
CONTINUOUS
 62
     6
 10
946.548083
 20
410.304814
 40
5.000000
 50
286.380000
 51
360.000000
  0
LINE
  8
CSLAYER1
  6
CONTINUOUS
 62
     6
 10
947.948083
 20
405.504814
 11
938.128083
 21
402.604814
  0
ARC
  8
CSLAYER1
  6
CONTINUOUS
 62
     6
 10
939.548083
 20
397.804814
 40
5.000000
 50
106.380000
 51
180.000000
  0
LINE
  8
CSLAYER1
  6
CONTINUOUS
 62
     6
 10
934.548083
 20
397.804814
 11
934.548083
 21
327.304814
  0
ARC
  8
CSLAYER1
  6
CONTINUOUS
 62
     6
 10
939.548083
 20
327.304814
 40
5.000000
 50
180.000000
 51
253.610000
  0
LINE
  8
CSLAYER1
  6
CONTINUOUS
 62
     6
 10
938.128083
 20
322.504814
 11
938.668083
 21
322.344814
  0
ARC
  8
CSLAYER1
  6
CONTINUOUS
 62
     6
 10
937.548083
 20
318.504814
 40
4.000000
 50
0.000000
 51
73.610000
  0
ARC
  8
CSLAYER1
  6
CONTINUOUS
 62
     6
 10
930.468083
 20
328.584814
 40
3.000000
 50
320.920000
 51
350.520000
  0
ARC
  8
CSLAYER1
  6
CONTINUOUS
 62
     6
 10
944.048083
 20
317.564814
 40
14.500000
 50
140.920000
 51
219.070000
  0
ARC
  8
CSLAYER1
  6
CONTINUOUS
 62
     6
 10
930.468083
 20
306.524814
 40
3.000000
 50
9.470000
 51
39.070000
  0
ARC
  8
CSLAYER1
  6
CONTINUOUS
 62
     6
 10
996.548083
 20
317.564814
 40
63.500000
 50
167.520000
 51
209.980000
  0
ARC
  8
CSLAYER1
  6
CONTINUOUS
 62
     6
 10
996.548083
 20
317.564814
 40
64.000000
 50
165.630000
 51
210.750000
  0
ARC
  8
CSLAYER1
  6
CONTINUOUS
 62
     6
 10
932.588083
 20
280.324814
 40
10.000000
 50
26.420000
 51
30.200000
  0
LINE
  8
CSLAYER1
  6
CONTINUOUS
 62
     6
 10
941.548083
 20
278.304814
 11
941.548083
 21
366.464814
  0
LINE
  8
CSLAYER1
  6
CONTINUOUS
 62
     6
 10
934.548083
 20
380.044814
 11
931.548083
 21
380.044814
  0
ARC
  8
CSLAYER1
  6
CONTINUOUS
 62
     6
 10
946.548083
 20
278.304814
 40
5.000000
 50
180.000000
 51
253.820000
  0
LINE
  8
CSLAYER1
  6
CONTINUOUS
 62
     6
 10
945.148083
 20
273.504814
 11
947.948083
 21
272.704814
  0
ARC
  8
CSLAYER1
  6
CONTINUOUS
 62
     6
 10
946.548083
 20
267.904814
 40
5.000000
 50
0.000000
 51
73.820000
  0
ARC
  8
CSLAYER1
  6
CONTINUOUS
 62
     6
 10
950.588083
 20
271.584814
 40
10.000000
 50
154.100000
 51
275.520000
  0
ARC
  8
CSLAYER1
  6
CONTINUOUS
 62
     6
 10
932.588083
 20
280.324814
 40
10.000000
 50
334.100000
 51
337.930000
  0
ARC
  8
CSLAYER1
  6
CONTINUOUS
 62
     6
 10
947.548083
 20
244.544814
 40
4.000000
 50
270.000000
 51
360.000000
  0
LINE
  8
CSLAYER1
  6
CONTINUOUS
 62
     6
 10
947.548083
 20
240.564814
 11
924.048083
 21
240.564814
  0
ARC
  8
CSLAYER1
  6
CONTINUOUS
 62
     6
 10
924.048083
 20
238.064814
 40
2.500000
 50
90.000000
 51
180.000000
  0
LINE
  8
CSLAYER1
  6
DOT
 62
     6
 10
930.048083
 20
240.564814
 11
930.048083
 21
222.564814
  0
LINE
  8
CSLAYER1
  6
DOT
 62
     6
 10
943.048083
 20
222.564814
 11
943.048083
 21
240.564814
  0
LINE
  8
CSLAYER1
  6
CONTINUOUS
 62
     6
 10
951.548083
 20
222.564814
 11
951.548083
 21
423.824814
  0
ARC
  8
CSLAYER1
  6
CONTINUOUS
 62
     6
 10
954.548083
 20
423.824814
 40
3.000000
 50
91.000000
 51
180.000000
  0
LINE
  8
CSLAYER1
  6
CONTINUOUS
 62
     6
 10
954.488083
 20
426.824814
 11
996.548083
 21
427.544814
  0
LINE
  8
CSLAYER1
  6
CONTINUOUS
 62
     6
 10
996.548083
 20
427.544814
 11
1038.588083
 21
426.824814
  0
ARC
  8
CSLAYER1
  6
CONTINUOUS
 62
     6
 10
1038.548083
 20
423.824814
 40
3.000000
 50
0.000000
 51
89.000000
  0
LINE
  8
CSLAYER1
  6
CONTINUOUS
 62
     6
 10
1041.548083
 20
423.824814
 11
1041.548083
 21
222.564814
  0
LINE
  8
CSLAYER1
  6
DOT
 62
     6
 10
1050.048083
 20
222.564814
 11
1050.048083
 21
240.564814
  0
LINE
  8
CSLAYER1
  6
CONTINUOUS
 62
     6
 10
1045.548083
 20
240.564814
 11
1069.048083
 21
240.564814
  0
ARC
  8
CSLAYER1
  6
CONTINUOUS
 62
     6
 10
1069.048083
 20
238.064814
 40
2.500000
 50
0.000000
 51
90.000000
  0
LINE
  8
CSLAYER1
  6
DOT
 62
     6
 10
1063.048083
 20
240.564814
 11
1063.048083
 21
222.564814
  0
ARC
  8
CSLAYER1
  6
CONTINUOUS
 62
     6
 10
1045.548083
 20
244.564814
 40
4.000000
 50
180.000000
 51
270.000000
  0
ARC
  8
CSLAYER1
  6
CONTINUOUS
 62
     6
 10
1055.548083
 20
318.504814
 40
4.000000
 50
106.380000
 51
180.000000
  0
LINE
  8
CSLAYER1
  6
CONTINUOUS
 62
     6
 10
1054.408083
 20
322.344814
 11
1054.948083
 21
322.504814
  0
ARC
  8
CSLAYER1
  6
CONTINUOUS
 62
     6
 10
1053.548083
 20
327.304814
 40
5.000000
 50
286.380000
 51
360.000000
  0
ARC
  8
CSLAYER1
  6
CONTINUOUS
 62
     6
 10
996.548083
 20
317.564814
 40
64.000000
 50
44.670000
 51
45.320000
  0
LINE
  8
CSLAYER1
  6
CONTINUOUS
 62
     6
 10
794.200033
 20
540.126491
 11
807.301710
 21
570.428057
  0
ARC
  8
CSLAYER1
  6
CONTINUOUS
 62
     6
 10
804.548083
 20
571.618660
 40
3.000000
 50
270.000000
 51
360.000000
  0
LINE
  8
CSLAYER1
  6
CONTINUOUS
 62
     6
 10
804.548083
 20
568.618660
 11
658.548083
 21
568.618660
  0
ARC
  8
CSLAYER1
  6
CONTINUOUS
 62
     6
 10
658.548083
 20
571.618660
 40
3.000000
 50
180.000000
 51
270.000000
  0
LINE
  8
CSLAYER1
  6
CONTINUOUS
 62
     6
 10
655.794456
 20
570.428057
 11
668.896133
 21
540.126491
  0
ARC
  8
CSLAYER1
  6
CONTINUOUS
 62
     6
 10
671.190822
 20
541.118660
 40
2.500000
 50
203.382509
 51
270.000000
  0
LINE
  8
CSLAYER1
  6
CONTINUOUS
 62
     6
 10
671.190822
 20
538.618660
 11
715.548083
 21
538.618660
  0
LINE
  8
CSLAYER1
  6
CONTINUOUS
 62
     6
 10
706.548083
 20
541.618660
 11
706.548083
 21
551.618660
  0
LINE
  8
CSLAYER1
  6
CONTINUOUS
 62
     6
 10
715.548083
 20
551.618660
 11
715.548083
 21
493.618660
  0
LINE
  8
CSLAYER1
  6
CONTINUOUS
 62
     6
 10
715.548083
 20
493.618660
 11
750.548083
 21
493.618660
  0
LINE
  8
CSLAYER1
  6
CONTINUOUS
 62
     6
 10
750.548083
 20
493.618660
 11
750.548083
 21
543.618660
  0
LINE
  8
CSLAYER1
  6
CONTINUOUS
 62
     6
 10
750.548083
 20
543.618660
 11
747.548083
 21
543.618660
  0
LINE
  8
CSLAYER1
  6
DASHED
 62
     6
 10
747.548083
 20
543.618660
 11
742.548083
 21
543.618660
  0
LINE
  8
CSLAYER1
  6
DASHED
 62
     6
 10
742.548083
 20
543.618660
 11
742.548083
 21
493.618660
  0
LINE
  8
CSLAYER1
  6
CONTINUOUS
 62
     6
 10
747.548083
 20
493.618660
 11
747.548083
 21
551.618660
  0
LINE
  8
CSLAYER1
  6
CONTINUOUS
 62
     6
 10
756.548083
 20
551.618660
 11
756.548083
 21
541.618660
  0
LINE
  8
CSLAYER1
  6
CONTINUOUS
 62
     6
 10
750.548083
 20
538.618660
 11
791.905344
 21
538.618660
  0
ARC
  8
CSLAYER1
  6
CONTINUOUS
 62
     6
 10
791.905344
 20
541.118660
 40
2.500000
 50
270.000000
 51
336.617491
  0
ARC
  8
CSLAYER1
  6
CONTINUOUS
 62
     6
 10
779.048083
 20
553.618660
 40
6.500000
 50
-225.633385
 51
54.261617
  0
LINE
  8
CSLAYER1
  6
CONTINUOUS
 62
     6
 10
776.349049
 20
558.618660
 11
781.206396
 21
558.618660
  0
ARC
  8
CSLAYER1
  6
CONTINUOUS
 62
     6
 10
781.206396
 20
563.618660
 40
5.000000
 50
270.000000
 51
343.820000
  0
LINE
  8
CSLAYER1
  6
CONTINUOUS
 62
     6
 10
786.006396
 20
562.218660
 11
786.806396
 21
565.018660
  0
ARC
  8
CSLAYER1
  6
CONTINUOUS
 62
     6
 10
791.606396
 20
563.618660
 40
5.000000
 50
90.000000
 51
163.820000
  0
ARC
  8
CSLAYER1
  6
CONTINUOUS
 62
     6
 10
779.308083
 20
563.618660
 40
5.000000
 50
90.000000
 51
163.610000
  0
LINE
  8
CSLAYER1
  6
CONTINUOUS
 62
     6
 10
774.508083
 20
565.038660
 11
771.608083
 21
555.218660
  0
ARC
  8
CSLAYER1
  6
CONTINUOUS
 62
     6
 10
766.808083
 20
556.618660
 40
5.000000
 50
270.000000
 51
343.610000
  0
LINE
  8
CSLAYER1
  6
CONTINUOUS
 62
     6
 10
766.788083
 20
551.618660
 11
696.288083
 21
551.618660
  0
ARC
  8
CSLAYER1
  6
CONTINUOUS
 62
     6
 10
696.288083
 20
556.618660
 40
5.000000
 50
196.390000
 51
270.000000
  0
LINE
  8
CSLAYER1
  6
CONTINUOUS
 62
     6
 10
691.488083
 20
555.218660
 11
688.588083
 21
565.038660
  0
ARC
  8
CSLAYER1
  6
CONTINUOUS
 62
     6
 10
683.788083
 20
563.618660
 40
5.000000
 50
16.390000
 51
90.000000
  0
LINE
  8
CSLAYER1
  6
CONTINUOUS
 62
     6
 10
676.289770
 20
565.018660
 11
677.089770
 21
562.218660
  0
ARC
  8
CSLAYER1
  6
CONTINUOUS
 62
     6
 10
681.889770
 20
563.618660
 40
5.000000
 50
196.180000
 51
270.000000
  0
LINE
  8
CSLAYER1
  6
CONTINUOUS
 62
     6
 10
681.889770
 20
558.618660
 11
686.747117
 21
558.618660
  0
ARC
  8
CSLAYER1
  6
CONTINUOUS
 62
     6
 10
686.747117
 20
553.618660
 40
5.000000
 50
16.452697
 51
90.000000
  0
ARC
  8
CSLAYER1
  6
CONTINUOUS
 62
     6
 10
684.048083
 20
553.618660
 40
6.500000
 50
-234.261617
 51
45.633385
  0
ARC
  8
CSLAYER1
  6
CONTINUOUS
 62
     6
 10
671.489770
 20
563.618660
 40
5.000000
 50
16.180000
 51
90.000000
  0
LINE
  8
CSLAYER1
  6
CONTINUOUS
 62
     6
 10
655.548083
 20
555.118660
 11
655.548083
 21
672.098660
  0
ARC
  8
CSLAYER1
  6
CONTINUOUS
 62
     6
 10
650.548083
 20
672.098660
 40
5.000000
 50
0.000000
 51
90.000000
  0
LINE
  8
CSLAYER1
  6
CONTINUOUS
 62
     6
 10
650.548083
 20
677.098660
 11
643.548083
 21
677.098660
  0
LINE
  8
CSLAYER1
  6
CONTINUOUS
 62
     6
 10
643.548083
 20
677.598660
 11
643.548083
 21
549.618660
  0
LINE
  8
CSLAYER1
  6
CONTINUOUS
 62
     6
 10
643.548083
 20
549.618660
 11
598.468083
 21
548.438660
  0
ARC
  8
CSLAYER1
  6
CONTINUOUS
 62
     6
 10
598.548083
 20
545.438660
 40
3.000000
 50
91.490000
 51
180.000000
  0
ARC
  8
CSLAYER1
  6
CONTINUOUS
 62
     6
 10
600.548083
 20
541.478660
 40
5.000000
 50
91.490000
 51
180.000000
  0
LINE
  8
CSLAYER1
  6
CONTINUOUS
 62
     6
 10
600.408083
 20
546.478660
 11
603.588083
 21
546.558660
  0
ARC
  8
CSLAYER1
  6
CONTINUOUS
 62
     6
 10
603.548083
 20
548.558660
 40
2.000000
 50
271.490000
 51
331.570000
  0
ARC
  8
CSLAYER1
  6
CONTINUOUS
 62
     6
 10
607.068083
 20
546.658660
 40
2.000000
 50
91.490000
 51
151.570000
  0
LINE
  8
CSLAYER1
  6
CONTINUOUS
 62
     6
 10
615.168083
 20
557.518660
 11
595.548083
 21
556.998660
  0
ARC
  8
CSLAYER1
  6
CONTINUOUS
 62
     6
 10
615.048083
 20
562.518660
 40
5.000000
 50
271.500000
 51
360.000000
  0
LINE
  8
CSLAYER1
  6
CONTINUOUS
 62
     6
 10
620.048083
 20
562.518660
 11
620.048083
 21
572.778660
  0
ARC
  8
CSLAYER1
  6
CONTINUOUS
 62
     6
 10
615.048083
 20
572.778660
 40
5.000000
 50
0.000000
 51
88.500000
  0
LINE
  8
CSLAYER1
  6
CONTINUOUS
 62
     6
 10
615.168083
 20
577.778660
 11
595.548083
 21
578.298660
  0
LINE
  8
CSLAYER1
  6
CONTINUOUS
 62
     6
 10
595.548083
 20
605.618660
 11
603.548083
 21
605.618660
  0
ARC
  8
CSLAYER1
  6
CONTINUOUS
 62
     6
 10
603.548083
 20
607.618660
 40
2.000000
 50
270.000000
 51
360.000000
  0
LINE
  8
CSLAYER1
  6
CONTINUOUS
 62
     6
 10
605.548083
 20
607.618660
 11
605.548083
 21
619.618660
  0
ARC
  8
CSLAYER1
  6
CONTINUOUS
 62
     6
 10
603.548083
 20
619.618660
 40
2.000000
 50
0.000000
 51
90.000000
  0
LINE
  8
CSLAYER1
  6
CONTINUOUS
 62
     6
 10
603.548083
 20
621.618660
 11
595.548083
 21
621.618660
  0
LINE
  8
CSLAYER1
  6
CONTINUOUS
 62
     6
 10
595.548083
 20
536.758660
 11
595.548083
 21
690.478660
  0
ARC
  8
CSLAYER1
  6
CONTINUOUS
 62
     6
 10
592.548083
 20
690.478660
 40
3.000000
 50
0.000000
 51
88.500000
  0
LINE
  8
CSLAYER1
  6
CONTINUOUS
 62
     6
 10
592.628083
 20
693.478660
 11
587.548083
 21
693.618660
  0
LINE
  8
CSLAYER1
  6
CONTINUOUS
 62
     6
 10
587.548083
 20
693.618660
 11
587.548083
 21
533.618660
  0
LINE
  8
CSLAYER1
  6
CONTINUOUS
 62
     6
 10
587.548083
 20
533.618660
 11
592.628083
 21
533.758660
  0
ARC
  8
CSLAYER1
  6
CONTINUOUS
 62
     6
 10
592.548083
 20
536.758660
 40
3.000000
 50
271.500000
 51
360.000000
  0
ARC
  8
CSLAYER1
  6
CONTINUOUS
 62
     6
 10
597.488083
 20
536.018660
 40
2.000000
 50
166.830000
 51
171.680000
  0
LINE
  8
CSLAYER1
  6
CONTINUOUS
 62
     6
 10
643.548083
 20
550.118660
 11
650.548083
 21
550.118660
  0
ARC
  8
CSLAYER1
  6
CONTINUOUS
 62
     6
 10
650.548083
 20
555.118660
 40
5.000000
 50
270.000000
 51
360.000000
  0
LINE
  8
CSLAYER1
  6
CONTINUOUS
 62
     6
 10
702.752226
 20
573.618660
 11
702.752226
 21
653.618660
  0
LINE
  8
CSLAYER1
  6
CONTINUOUS
 62
     6
 10
688.588083
 20
662.198660
 11
691.488083
 21
672.018660
  0
ARC
  8
CSLAYER1
  6
CONTINUOUS
 62
     6
 10
696.288083
 20
670.618660
 40
5.000000
 50
90.000000
 51
163.610000
  0
LINE
  8
CSLAYER1
  6
CONTINUOUS
 62
     6
 10
696.288083
 20
675.618660
 11
766.788083
 21
675.618660
  0
ARC
  8
CSLAYER1
  6
CONTINUOUS
 62
     6
 10
766.808083
 20
670.618660
 40
5.000000
 50
16.390000
 51
90.000000
  0
LINE
  8
CSLAYER1
  6
CONTINUOUS
 62
     6
 10
771.608083
 20
672.018660
 11
774.508083
 21
662.198660
  0
ARC
  8
CSLAYER1
  6
CONTINUOUS
 62
     6
 10
779.308083
 20
663.618660
 40
5.000000
 50
196.390000
 51
270.000000
  0
LINE
  8
CSLAYER1
  6
CONTINUOUS
 62
     6
 10
786.806396
 20
662.218660
 11
786.006396
 21
665.018660
  0
ARC
  8
CSLAYER1
  6
CONTINUOUS
 62
     6
 10
781.206396
 20
663.618660
 40
5.000000
 50
16.180000
 51
90.000000
  0
LINE
  8
CSLAYER1
  6
CONTINUOUS
 62
     6
 10
781.206396
 20
668.618660
 11
776.349049
 21
668.618660
  0
ARC
  8
CSLAYER1
  6
CONTINUOUS
 62
     6
 10
776.349049
 20
673.618660
 40
5.000000
 50
196.452697
 51
270.000000
  0
ARC
  8
CSLAYER1
  6
CONTINUOUS
 62
     6
 10
779.048083
 20
673.618660
 40
6.500000
 50
-54.261617
 51
225.633385
  0
ARC
  8
CSLAYER1
  6
CONTINUOUS
 62
     6
 10
791.606396
 20
663.618660
 40
5.000000
 50
196.180000
 51
270.000000
  0
LINE
  8
CSLAYER1
  6
CONTINUOUS
 62
     6
 10
804.548083
 20
658.618660
 11
658.548083
 21
658.618660
  0
ARC
  8
CSLAYER1
  6
CONTINUOUS
 62
     6
 10
658.548083
 20
655.618660
 40
3.000000
 50
90.000000
 51
180.000000
  0
LINE
  8
CSLAYER1
  6
CONTINUOUS
 62
     6
 10
655.794456
 20
656.809263
 11
668.896133
 21
687.110829
  0
ARC
  8
CSLAYER1
  6
CONTINUOUS
 62
     6
 10
671.190822
 20
686.118660
 40
2.500000
 50
90.000000
 51
156.617491
  0
LINE
  8
CSLAYER1
  6
CONTINUOUS
 62
     6
 10
671.190822
 20
688.618660
 11
791.905344
 21
688.618660
  0
ARC
  8
CSLAYER1
  6
CONTINUOUS
 62
     6
 10
791.905344
 20
686.118660
 40
2.500000
 50
23.382509
 51
90.000000
  0
LINE
  8
CSLAYER1
  6
CONTINUOUS
 62
     6
 10
794.200033
 20
687.110829
 11
807.301710
 21
656.809263
  0
LINE
  8
CSLAYER1
  6
CONTINUOUS
 62
     6
 10
807.548083
 20
655.618660
 11
807.548083
 21
571.618660
  0
ARC
  8
CSLAYER1
  6
CONTINUOUS
 62
     6
 10
776.349049
 20
553.618660
 40
5.000000
 50
90.000000
 51
163.547303
  0
LINE
  8
CSLAYER1
  6
CONTINUOUS
 62
     6
 10
760.343940
 20
573.618660
 11
760.343940
 21
653.618660
  0
LINE
  8
CSLAYER1
  6
CONTINUOUS
 62
     6
 10
756.548083
 20
675.618660
 11
756.548083
 21
685.618660
  0
LINE
  8
CSLAYER1
  6
CONTINUOUS
 62
     6
 10
706.548083
 20
685.618660
 11
706.548083
 21
675.618660
  0
ARC
  8
CSLAYER1
  6
CONTINUOUS
 62
     6
 10
686.747117
 20
673.618660
 40
5.000000
 50
270.000000
 51
343.547303
  0
LINE
  8
CSLAYER1
  6
CONTINUOUS
 62
     6
 10
686.747117
 20
668.618660
 11
681.889770
 21
668.618660
  0
ARC
  8
CSLAYER1
  6
CONTINUOUS
 62
     6
 10
681.889770
 20
663.618660
 40
5.000000
 50
90.000000
 51
163.820000
  0
LINE
  8
CSLAYER1
  6
CONTINUOUS
 62
     6
 10
677.089770
 20
665.018660
 11
676.289770
 21
662.218660
  0
ARC
  8
CSLAYER1
  6
CONTINUOUS
 62
     6
 10
671.489770
 20
663.618660
 40
5.000000
 50
270.000000
 51
343.820000
  0
ARC
  8
CSLAYER1
  6
CONTINUOUS
 62
     6
 10
683.788083
 20
663.618660
 40
5.000000
 50
270.000000
 51
343.610000
  0
ARC
  8
CSLAYER1
  6
CONTINUOUS
 62
     6
 10
684.048083
 20
673.618660
 40
6.500000
 50
-45.633385
 51
234.261617
  0
LINE
  8
CSLAYER1
  6
CONTINUOUS
 62
     6
 10
643.548083
 20
677.598660
 11
598.468083
 21
678.778660
  0
ARC
  8
CSLAYER1
  6
CONTINUOUS
 62
     6
 10
598.548083
 20
681.778660
 40
3.000000
 50
180.000000
 51
268.500000
  0
ARC
  8
CSLAYER1
  6
CONTINUOUS
 62
     6
 10
600.548083
 20
685.738660
 40
5.000000
 50
180.000000
 51
268.500000
  0
LINE
  8
CSLAYER1
  6
CONTINUOUS
 62
     6
 10
600.408083
 20
680.738660
 11
603.588083
 21
680.658660
  0
ARC
  8
CSLAYER1
  6
CONTINUOUS
 62
     6
 10
603.548083
 20
678.658660
 40
2.000000
 50
28.420000
 51
88.500000
  0
ARC
  8
CSLAYER1
  6
CONTINUOUS
 62
     6
 10
607.068083
 20
680.558660
 40
2.000000
 50
208.420000
 51
268.500000
  0
LINE
  8
CSLAYER1
  6
CONTINUOUS
 62
     6
 10
615.168083
 20
669.698660
 11
595.548083
 21
670.218660
  0
ARC
  8
CSLAYER1
  6
CONTINUOUS
 62
     6
 10
615.048083
 20
664.698660
 40
5.000000
 50
0.000000
 51
88.490000
  0
LINE
  8
CSLAYER1
  6
CONTINUOUS
 62
     6
 10
620.048083
 20
664.698660
 11
620.048083
 21
654.438660
  0
ARC
  8
CSLAYER1
  6
CONTINUOUS
 62
     6
 10
615.048083
 20
654.438660
 40
5.000000
 50
271.500000
 51
360.000000
  0
LINE
  8
CSLAYER1
  6
CONTINUOUS
 62
     6
 10
615.168083
 20
649.438660
 11
595.548083
 21
648.918660
  0
ARC
  8
CSLAYER1
  6
CONTINUOUS
 62
     6
 10
804.548083
 20
655.618660
 40
3.000000
 50
0.000000
 51
90.000000
  0
LINE
  8
CSLAYER1
  6
CONTINUOUS
 62
     6
 10
587.548083
 20
693.618660
 11
574.548083
 21
693.618660
  0
LINE
  8
CSLAYER1
  6
CONTINUOUS
 62
     6
 10
574.548083
 20
693.618660
 11
574.548083
 21
533.618660
  0
LINE
  8
CSLAYER1
  6
CONTINUOUS
 62
     6
 10
574.548083
 20
533.618660
 11
587.548083
 21
533.618660
  0
LINE
  8
CSLAYER1
  6
CONTINUOUS
 62
     6
 10
574.548083
 20
559.946720
 11
572.548083
 21
559.946720
  0
LINE
  8
CSLAYER1
  6
CONTINUOUS
 62
     6
 10
572.548083
 20
559.946720
 11
572.548083
 21
575.346720
  0
LINE
  8
CSLAYER1
  6
CONTINUOUS
 62
     6
 10
572.548083
 20
575.346720
 11
574.548083
 21
575.346720
  0
LINE
  8
CSLAYER1
  6
CONTINUOUS
 62
     6
 10
572.548083
 20
574.146720
 11
567.248083
 21
574.146720
  0
LINE
  8
CSLAYER1
  6
CONTINUOUS
 62
     6
 10
567.248083
 20
574.146720
 11
567.248083
 21
561.146720
  0
LINE
  8
CSLAYER1
  6
CONTINUOUS
 62
     6
 10
567.248083
 20
561.146720
 11
572.548083
 21
561.146720
  0
ARC
  8
CSLAYER1
  6
CONTINUOUS
 62
     6
 10
578.003637
 20
564.396720
 40
10.755553
 50
162.412046
 51
197.587954
  0
ARC
  8
CSLAYER1
  6
CONTINUOUS
 62
     6
 10
578.003637
 20
570.896720
 40
10.755553
 50
162.412046
 51
197.587954
  0
LINE
  8
CSLAYER1
  6
CONTINUOUS
 62
     6
 10
567.248083
 20
568.618660
 11
439.548083
 21
568.618660
  0
LINE
  8
CSLAYER1
  6
CONTINUOUS
 62
     6
 10
439.548083
 20
568.618660
 11
439.548083
 21
658.618660
  0
LINE
  8
CSLAYER1
  6
CONTINUOUS
 62
     6
 10
439.548083
 20
658.618660
 11
567.248083
 21
658.618660
  0
ARC
  8
CSLAYER1
  6
CONTINUOUS
 62
     6
 10
578.003637
 20
662.830601
 40
10.755553
 50
162.412046
 51
197.587954
  0
LINE
  8
CSLAYER1
  6
CONTINUOUS
 62
     6
 10
567.248083
 20
666.080601
 11
567.248083
 21
653.080601
  0
LINE
  8
CSLAYER1
  6
CONTINUOUS
 62
     6
 10
567.248083
 20
653.080601
 11
572.548083
 21
653.080601
  0
LINE
  8
CSLAYER1
  6
CONTINUOUS
 62
     6
 10
572.548083
 20
651.880601
 11
572.548083
 21
667.280601
  0
LINE
  8
CSLAYER1
  6
CONTINUOUS
 62
     6
 10
572.548083
 20
667.280601
 11
574.548083
 21
667.280601
  0
LINE
  8
CSLAYER1
  6
CONTINUOUS
 62
     6
 10
572.548083
 20
666.080601
 11
567.248083
 21
666.080601
  0
ARC
  8
CSLAYER1
  6
CONTINUOUS
 62
     6
 10
578.003637
 20
656.330601
 40
10.755553
 50
162.412046
 51
197.587954
  0
LINE
  8
CSLAYER1
  6
CONTINUOUS
 62
     6
 10
572.548083
 20
651.880601
 11
574.548083
 21
651.880601
  0
LINE
  8
CSLAYER1
  6
CONTINUOUS
 62
     6
 10
572.548083
 20
658.348601
 11
574.548083
 21
658.964601
  0
LINE
  8
CSLAYER1
  6
CONTINUOUS
 62
     6
 10
574.548083
 20
660.812601
 11
572.548083
 21
660.196601
  0
LINE
  8
CSLAYER1
  6
CONTINUOUS
 62
     6
 10
572.548083
 20
659.580601
 11
567.750860
 21
659.580601
  0
LINE
  8
CSLAYER1
  6
CONTINUOUS
 62
     6
 10
439.548083
 20
657.618630
 11
438.073046
 21
657.618630
  0
LINE
  8
CSLAYER1
  6
CONTINUOUS
 62
     6
 10
437.642199
 20
657.723122
 11
438.339831
 21
651.085671
  0
ARC
  8
CSLAYER1
  6
CONTINUOUS
 62
     6
 10
439.334338
 20
651.190163
 40
1.000000
 50
186.000026
 51
270.000001
  0
ARC
  8
CSLAYER1
  6
CONTINUOUS
 62
     6
 10
439.284716
 20
655.662453
 40
1.000000
 50
186.000026
 51
270.000001
  0
LINE
  8
CSLAYER1
  6
CONTINUOUS
 62
     6
 10
438.290148
 20
655.557900
 11
437.642199
 21
661.723122
  0
ARC
  8
CSLAYER1
  6
CONTINUOUS
 62
     6
 10
436.647631
 20
661.618630
 40
1.000000
 50
6.000003
 51
90.000016
  0
LINE
  8
CSLAYER1
  6
CONTINUOUS
 62
     6
 10
436.647631
 20
662.618630
 11
400.448474
 21
662.618630
  0
ARC
  8
CSLAYER1
  6
CONTINUOUS
 62
     6
 10
400.448474
 20
661.618630
 40
1.000000
 50
90.000003
 51
173.999998
  0
LINE
  8
CSLAYER1
  6
CONTINUOUS
 62
     6
 10
399.453967
 20
661.723122
 11
398.805957
 21
655.557900
  0
ARC
  8
CSLAYER1
  6
CONTINUOUS
 62
     6
 10
397.811450
 20
655.662453
 40
1.000000
 50
270.000001
 51
353.999989
  0
LINE
  8
CSLAYER1
  6
CONTINUOUS
 62
     6
 10
399.022509
 20
657.618630
 11
387.548083
 21
657.618630
  0
LINE
  8
CSLAYER1
  6
CONTINUOUS
 62
     6
 10
387.548083
 20
657.618630
 11
386.548083
 21
656.618630
  0
LINE
  8
CSLAYER1
  6
CONTINUOUS
 62
     6
 10
386.548083
 20
656.618630
 11
386.548083
 21
570.618630
  0
LINE
  8
CSLAYER1
  6
CONTINUOUS
 62
     6
 10
386.548083
 20
570.618630
 11
387.548083
 21
569.618630
  0
LINE
  8
CSLAYER1
  6
CONTINUOUS
 62
     6
 10
387.548083
 20
569.618630
 11
399.022509
 21
569.618630
  0
ARC
  8
CSLAYER1
  6
CONTINUOUS
 62
     6
 10
400.448474
 20
569.618630
 40
1.000000
 50
186.000012
 51
270.000001
  0
LINE
  8
CSLAYER1
  6
CONTINUOUS
 62
     6
 10
400.448474
 20
568.618630
 11
436.647631
 21
568.618630
  0
ARC
  8
CSLAYER1
  6
CONTINUOUS
 62
     6
 10
436.647631
 20
569.618630
 40
1.000000
 50
270.000001
 51
354.000017
  0
LINE
  8
CSLAYER1
  6
CONTINUOUS
 62
     6
 10
437.642199
 20
569.514076
 11
438.339831
 21
576.151589
  0
ARC
  8
CSLAYER1
  6
CONTINUOUS
 62
     6
 10
439.334338
 20
576.047035
 40
1.000000
 50
90.000009
 51
173.999984
  0
ARC
  8
CSLAYER1
  6
CONTINUOUS
 62
     6
 10
439.284716
 20
571.574806
 40
1.000000
 50
90.000009
 51
173.999984
  0
LINE
  8
CSLAYER1
  6
CONTINUOUS
 62
     6
 10
438.290148
 20
571.679360
 11
437.642199
 21
565.514076
  0
ARC
  8
CSLAYER1
  6
CONTINUOUS
 62
     6
 10
436.647631
 20
565.618630
 40
1.000000
 50
270.000001
 51
354.000017
  0
LINE
  8
CSLAYER1
  6
CONTINUOUS
 62
     6
 10
436.647631
 20
564.618630
 11
400.448474
 21
564.618630
  0
ARC
  8
CSLAYER1
  6
CONTINUOUS
 62
     6
 10
400.448474
 20
565.618630
 40
1.000000
 50
186.000012
 51
270.000001
  0
LINE
  8
CSLAYER1
  6
CONTINUOUS
 62
     6
 10
399.453967
 20
565.514076
 11
398.805957
 21
571.679360
  0
ARC
  8
CSLAYER1
  6
CONTINUOUS
 62
     6
 10
397.811450
 20
571.574806
 40
1.000000
 50
6.000021
 51
90.000009
  0
LINE
  8
CSLAYER1
  6
CONTINUOUS
 62
     6
 10
399.453967
 20
569.514076
 11
398.756335
 21
576.151589
  0
ARC
  8
CSLAYER1
  6
CONTINUOUS
 62
     6
 10
397.761767
 20
576.047035
 40
1.000000
 50
6.000021
 51
90.000009
  0
LINE
  8
CSLAYER1
  6
CONTINUOUS
 62
     6
 10
402.234057
 20
577.225441
 11
434.191149
 21
577.225441
  0
LINE
  8
CSLAYER1
  6
CONTINUOUS
 62
     6
 10
438.073046
 20
569.618630
 11
439.548083
 21
569.618630
  0
LINE
  8
CSLAYER1
  6
CONTINUOUS
 62
     6
 10
387.548083
 20
569.618630
 11
387.548083
 21
657.618630
  0
ARC
  8
CSLAYER1
  6
CONTINUOUS
 62
     6
 10
400.448474
 20
657.618630
 40
1.000000
 50
90.000003
 51
173.999998
  0
LINE
  8
CSLAYER1
  6
CONTINUOUS
 62
     6
 10
400.448474
 20
658.618630
 11
436.647631
 21
658.618630
  0
ARC
  8
CSLAYER1
  6
CONTINUOUS
 62
     6
 10
436.647631
 20
657.618630
 40
1.000000
 50
6.000003
 51
90.000016
  0
LINE
  8
CSLAYER1
  6
CONTINUOUS
 62
     6
 10
434.191149
 20
650.011818
 11
402.234057
 21
650.011818
  0
LINE
  8
CSLAYER1
  6
CONTINUOUS
 62
     6
 10
398.756335
 20
651.085671
 11
399.453967
 21
657.723122
  0
ARC
  8
CSLAYER1
  6
CONTINUOUS
 62
     6
 10
397.761767
 20
651.190163
 40
1.000000
 50
270.000001
 51
353.999989
  0
LINE
  8
CSLAYER1
  6
CONTINUOUS
 62
     6
 10
567.750860
 20
567.646720
 11
572.548083
 21
567.646720
  0
LINE
  8
CSLAYER1
  6
CONTINUOUS
 62
     6
 10
572.548083
 20
568.262720
 11
574.548083
 21
568.878720
  0
LINE
  8
CSLAYER1
  6
CONTINUOUS
 62
     6
 10
574.548083
 20
567.030720
 11
572.548083
 21
566.414720
  0
ENDSEC
  0
EOF
