  0
SECTION
  2
HEADER
  9
$ACADVER
  1
AC1006
  9
$INSBASE
 10
0.000000
 20
0.000000
 30
0.0
  9
$EXTMIN
 10
0.000000
 20
0.000000
  9
$EXTMAX
 10
841.000000
 20
594.000000
  9
$LIMMIN
 10
0.000000
 20
0.000000
  9
$LIMMAX
 10
841.000000
 20
594.000000
  9
$VIEWCTR
 10
420.500000
 20
297.000000
  9
$VIEWSIZE
 40
594.000000
  9
$SNAPMODE
 70
     0
  9
$SNAPUNIT
 10
1.0
 20
1.0
  9
$SNAPBASE
 10
0.0
 20
0.0
  9
$SNAPANG
 50
0.0
  9
$SNAPSTYLE
 70
     0
  9
$SNAPISOPAIR
 70
     0
  9
$GRIDMODE
 70
     0
  9
$GRIDUNIT
 10
0.0
 20
0.0
  9
$ORTHOMODE
 70
     0
  9
$REGENMODE
 70
     1
  9
$FILLMODE
 70
     1
  9
$QTEXTMODE
 70
     0
  9
$DRAGMODE
 70
     2
  9
$LTSCALE
 40
15.000000
  9
$OSMODE
 70
     0
  9
$ATTMODE
 70
     1
  9
$TEXTSIZE
 40
0.2
  9
$TRACEWID
 40
0.05
  9
$TEXTSTYLE
  7
STANDARD
  9
$CLAYER
  8
CSLAYER17
  9
$CELTYPE
  6
BYLAYER
  9
$CECOLOR
 62
   256
  9
$DIMSCALE
 40
1.0
  9
$DIMASZ
 40
0.18
  9
$DIMEXO
 40
0.0625
  9
$DIMDLI
 40
0.38
  9
$DIMRND
 40
0.0
  9
$DIMDLE
 40
0.0
  9
$DIMEXE
 40
0.18
  9
$DIMTP
 40
0.0
  9
$DIMTM
 40
0.0
  9
$DIMTXT
 40
0.18
  9
$DIMCEN
 40
0.09
  9
$DIMTSZ
 40
0.0
  9
$DIMTOL
 70
     0
  9
$DIMLIM
 70
     0
  9
$DIMTIH
 70
     1
  9
$DIMTOH
 70
     1
  9
$DIMSE1
 70
     0
  9
$DIMSE2
 70
     0
  9
$DIMTAD
 70
     0
  9
$DIMZIN
 70
     0
  9
$DIMBLK
  1

  9
$LUNITS
 70
     2
  9
$LUPREC
 70
     4
  9
$AXISMODE
 70
     0
  9
$AXISUNIT
 10
0.0
 20
0.0
  9
$SKETCHINC
 40
0.1
  9
$FILLETRAD
 40
0.0
  9
$AUNITS
 70
     0
  9
$AUPREC
 70
     0
  9
$MENU
  1
ACAD
  9
$ELEVATION
 40
0.0
  9
$THICKNESS
 40
0.0
  9
$VIEWDIR
 10
0.0
 20
0.0
 30
1.0
  9
$LIMCHECK
 70
     0
  9
$BLIPMODE
 70
     1
  9
$CHAMFERA
 40
0.0
  9
$CHAMFERB
 40
0.0
  9
$FASTZOOM
 70
     1
  9
$SKPOLY
 70
     0
  9
$TDCREATE
 40
2453098.000000
  9
$TDUPDATE
 40
2453098.000000
  9
$TDINDWG
 40
0.0
  9
$TDUSRTIMER
 40
0.0
  9
$USRTIMER
 70
     1
  9
$ANGBASE
 50
0.0
  9
$ANGDIR
 70
     0
  9
$PDMODE
 70
     0
  9
$PDSIZE
 40
0.0
  9
$PLINEWID
 40
0.0
  9
$COORDS
 70
     0
  9
$USERI1
 70
     0
  9
$USERI2
 70
     0
  9
$USERI3
 70
     0
  9
$USERI4
 70
     0
  9
$USERI5
 70
     0
  9
$USERR1
 40
0.0
  9
$USERR2
 40
0.0
  9
$USERR3
 40
0.0
  9
$USERR4
 40
0.0
  9
$USERR5
 40
0.0
  0
ENDSEC
  0
SECTION
  2
TABLES
  0
TABLE
  2
LTYPE
 70
     9
  0
LTYPE
  2
CONTINUOUS
 70
    64
  3
Solid line
 72
    65
 73
     0
 40
0.0
  0
LTYPE
  2
DASHED
 70
    64
  3
__ __ __ __ __ __ __ __ __ __ __ __ __ __ __
 72
    65
 73
     2
 40
0.75
 49
0.5
 49
-0.25
  0
LTYPE
  2
HIDDEN
 70
    64
  3
_ _ _ _ _ _ _ _ _ _ _ _ _ _ _ _ _ _ _ _ _ _ _
 72
    65
 73
     2
 40
0.375
 49
0.25
 49
-0.125
  0
LTYPE
  2
DOT
 70
    64
  3
...............................................
 72
    65
 73
     2
 40
0.25
 49
0.0
 49
-0.25
  0
LTYPE
  2
DASHDOT
 70
    64
  3
__ . __ . __ . __ . __ . __ . __ . __ . __ . __
 72
    65
 73
     4
 40
1.0
 49
0.5
 49
-0.25
 49
0.0
 49
-0.25
  0
LTYPE
  2
DIVIDE
 70
    64
  3
__ . . __ . . __ . . __ . . __ . . __ . . __
 72
    65
 73
     6
 40
1.25
 49
0.5
 49
-0.25
 49
0.0
 49
-0.25
 49
0.0
 49
-0.25
  0
LTYPE
  2
CENTER
 70
    64
  3
____ _ ____ _ ____ _ ____ _ ____ _ ____ _ ____ 
 72
    65
 73
     4
 40
2.0
 49
1.25
 49
-0.25
 49
0.25
 49
-0.25
  0
LTYPE
  2
PHANTOM
 70
    64
  3
______  __  __  ______  __  __  ______  __  __ 
 72
    65
 73
     6
 40
2.5
 49
1.25
 49
-0.25
 49
0.25
 49
-0.25
 49
0.25
 49
-0.25
  0
LTYPE
  2
BORDER
 70
    64
  3
__ __ . __ __ . __ __ . __ __ . __ __ . __ __ .
 72
    65
 73
     6
 40
1.75
 49
0.5
 49
-0.25
 49
0.5
 49
-0.25
 49
0.0
 49
-0.25
  0
ENDTAB
  0
TABLE
  2
LAYER
 70
    16
  0
LAYER
  2
CSLAYER1
 70
    64
 62
     7
  6
CONTINUOUS
  0
LAYER
  2
CSLAYER2
 70
    64
 62
     7
  6
CONTINUOUS
  0
LAYER
  2
CSLAYER3
 70
    64
 62
     7
  6
CONTINUOUS
  0
LAYER
  2
CSLAYER4
 70
    64
 62
     7
  6
CONTINUOUS
  0
LAYER
  2
CSLAYER5
 70
    64
 62
     7
  6
CONTINUOUS
  0
LAYER
  2
CSLAYER6
 70
    64
 62
     7
  6
CONTINUOUS
  0
LAYER
  2
CSLAYER7
 70
    64
 62
     7
  6
CONTINUOUS
  0
LAYER
  2
CSLAYER8
 70
    64
 62
     7
  6
CONTINUOUS
  0
LAYER
  2
CSLAYER9
 70
    64
 62
     7
  6
CONTINUOUS
  0
LAYER
  2
CSLAYER10
 70
    64
 62
     7
  6
CONTINUOUS
  0
LAYER
  2
CSLAYER11
 70
    64
 62
     7
  6
CONTINUOUS
  0
LAYER
  2
CSLAYER12
 70
    64
 62
     7
  6
CONTINUOUS
  0
LAYER
  2
CSLAYER13
 70
    64
 62
     7
  6
CONTINUOUS
  0
LAYER
  2
CSLAYER14
 70
    64
 62
     7
  6
CONTINUOUS
  0
LAYER
  2
CSLAYER15
 70
    64
 62
     7
  6
CONTINUOUS
  0
LAYER
  2
CSLAYER16
 70
    64
 62
     7
  6
CONTINUOUS
  0
ENDTAB
  0
TABLE
  2
STYLE
 70
     1
  0
STYLE
  2
FX_FONT
 70
     0
 40
1.0
 41
1.0
 50
0.0
 71
     0
 42
1.0
  3
monotxt
  4
bigfont
  0
ENDTAB
  0
TABLE
  2
VIEW
 70
     0
  0
ENDTAB
  0
ENDSEC
  0
SECTION
  2
BLOCKS
  0
ENDSEC
  0
SECTION
  2
ENTITIES
  0
LINE
  8
CSLAYER17
  6
CENTER
 62
     3
 10
53.652409
 20
127.060101
 11
73.000633
 21
146.408325
  0
ARC
  8
CSLAYER17
  6
CENTER
 62
     3
 10
109.288462
 20
182.696154
 40
65.000000
 50
212.917958
 51
237.082042
  0
LINE
  8
CSLAYER17
  6
CENTER
 62
     3
 10
109.288462
 20
96.696154
 11
109.288462
 21
282.196154
  0
ARC
  8
CSLAYER17
  6
CENTER
 62
     3
 10
109.288462
 20
182.696154
 40
65.000000
 50
32.917958
 51
57.082042
  0
LINE
  8
CSLAYER17
  6
CENTER
 62
     3
 10
172.538599
 20
221.696154
 11
214.236462
 21
221.696154
  0
LINE
  8
CSLAYER17
  6
CENTER
 62
     3
 10
217.300462
 20
182.696154
 11
511.181739
 21
182.696154
  0
LINE
  8
CSLAYER17
  6
CENTER
 62
     3
 10
255.288462
 20
214.696154
 11
255.288462
 21
150.696154
  0
LINE
  8
CSLAYER17
  6
CENTER
 62
     3
 10
250.288462
 20
145.696154
 11
250.288462
 21
134.996142
  0
LINE
  8
CSLAYER17
  6
CENTER
 62
     3
 10
195.908462
 20
182.696154
 11
23.088462
 21
182.696154
  0
ARC
  8
CSLAYER17
  6
CENTER
 62
     3
 10
109.288462
 20
182.696154
 40
65.000000
 50
122.917958
 51
147.082042
  0
LINE
  8
CSLAYER17
  6
CENTER
 62
     3
 10
73.000633
 20
218.983983
 11
53.652409
 21
238.332207
  0
LINE
  8
CSLAYER17
  6
CENTER
 62
     3
 10
145.576290
 20
218.983983
 11
164.924514
 21
238.332207
  0
ARC
  8
CSLAYER17
  6
CENTER
 62
     3
 10
109.288462
 20
182.696154
 40
65.000000
 50
302.917958
 51
327.082042
  0
LINE
  8
CSLAYER17
  6
CENTER
 62
     3
 10
164.924514
 20
127.060101
 11
145.576290
 21
146.408325
  0
LINE
  8
CSLAYER17
  6
CENTER
 62
     3
 10
255.288462
 20
382.749969
 11
255.288462
 21
405.356781
  0
LINE
  8
CSLAYER17
  6
CENTER
 62
     3
 10
217.300462
 20
436.750000
 11
636.966087
 21
436.750000
  0
ARC
  8
CSLAYER17
  6
CONTINUOUS
 62
     3
 10
363.288462
 20
460.250000
 40
2.000000
 50
0.000000
 51
90.000000
  0
LINE
  8
CSLAYER17
  6
CONTINUOUS
 62
     3
 10
365.288462
 20
460.250000
 11
365.288462
 21
413.250000
  0
ARC
  8
CSLAYER17
  6
CONTINUOUS
 62
     3
 10
363.288462
 20
413.250000
 40
2.000000
 50
270.000000
 51
360.000000
  0
LINE
  8
CSLAYER17
  6
CONTINUOUS
 62
     3
 10
363.288462
 20
411.250000
 11
335.288462
 21
411.250000
  0
ARC
  8
CSLAYER17
  6
CONTINUOUS
 62
     3
 10
335.288462
 20
413.250000
 40
2.000000
 50
180.000000
 51
270.000000
  0
LINE
  8
CSLAYER17
  6
CONTINUOUS
 62
     3
 10
333.288462
 20
413.250000
 11
333.288462
 21
460.250000
  0
ARC
  8
CSLAYER17
  6
CONTINUOUS
 62
     3
 10
335.288462
 20
460.250000
 40
2.000000
 50
90.000000
 51
180.000000
  0
LINE
  8
CSLAYER17
  6
CONTINUOUS
 62
     3
 10
335.288462
 20
462.250000
 11
363.288462
 21
462.250000
  0
LINE
  8
CSLAYER17
  6
CENTER
 62
     3
 10
255.288462
 20
468.143158
 11
255.288462
 21
490.749969
  0
TEXT
  8
CSLAYER17
 62
     3
 10
347.345215
 20
442.000031
 40
3.500000
 41
1.125000
  1
N P
 50
-90.000000
 51
10.000000
  7
FX_FONT
 72
     5
 11
347.345215
 21
431.500031
  0
LINE
  8
CSLAYER17
  6
CONTINUOUS
 62
     6
 10
155.250402
 20
129.228660
 11
148.750402
 21
132.981436
  0
LINE
  8
CSLAYER17
  6
CONTINUOUS
 62
     6
 10
148.750402
 20
132.981436
 11
148.750402
 21
140.486990
  0
LINE
  8
CSLAYER17
  6
CONTINUOUS
 62
     6
 10
148.750402
 20
140.486990
 11
155.250402
 21
144.239767
  0
LINE
  8
CSLAYER17
  6
CONTINUOUS
 62
     6
 10
155.250402
 20
144.239767
 11
161.750402
 21
140.486990
  0
LINE
  8
CSLAYER17
  6
CONTINUOUS
 62
     6
 10
161.750402
 20
140.486990
 11
161.750402
 21
132.981436
  0
LINE
  8
CSLAYER17
  6
CONTINUOUS
 62
     6
 10
161.750402
 20
132.981436
 11
155.250402
 21
129.228660
  0
CIRCLE
  8
CSLAYER17
  6
CONTINUOUS
 62
     6
 10
155.250402
 20
136.734213
 40
7.700000
  0
CIRCLE
  8
CSLAYER17
  6
CONTINUOUS
 62
     6
 10
155.250402
 20
136.734213
 40
6.305000
  0
ARC
  8
CSLAYER17
  6
CONTINUOUS
 62
     6
 10
153.288462
 20
157.696154
 40
1.000000
 50
270.000001
 51
359.942687
  0
LINE
  8
CSLAYER17
  6
CONTINUOUS
 62
     6
 10
154.288462
 20
157.696154
 11
154.288462
 21
158.696154
  0
ARC
  8
CSLAYER17
  6
CONTINUOUS
 62
     6
 10
153.303507
 20
158.696154
 40
1.000000
 50
0.000000
 51
89.999981
  0
LINE
  8
CSLAYER17
  6
CONTINUOUS
 62
     6
 10
153.303507
 20
159.696154
 11
148.627314
 21
159.941271
  0
ARC
  8
CSLAYER17
  6
CONTINUOUS
 62
     6
 10
148.679667
 20
160.939898
 40
1.000000
 50
151.088398
 51
266.999020
  0
ARC
  8
CSLAYER17
  6
CONTINUOUS
 62
     6
 10
150.004633
 20
161.290667
 40
2.000000
 50
92.999645
 51
152.268175
  0
LINE
  8
CSLAYER17
  6
CONTINUOUS
 62
     6
 10
149.899973
 20
163.287951
 11
157.308878
 21
163.676196
  0
ARC
  8
CSLAYER17
  6
CONTINUOUS
 62
     6
 10
157.288462
 20
164.675951
 40
1.000000
 50
271.169236
 51
359.942687
  0
LINE
  8
CSLAYER17
  6
CONTINUOUS
 62
     6
 10
158.288462
 20
164.675951
 11
158.288462
 21
200.716357
  0
ARC
  8
CSLAYER17
  6
CONTINUOUS
 62
     6
 10
157.288462
 20
200.716357
 40
1.000000
 50
0.000000
 51
88.830746
  0
LINE
  8
CSLAYER17
  6
CONTINUOUS
 62
     6
 10
157.308878
 20
201.716113
 11
149.899973
 21
202.104357
  0
ARC
  8
CSLAYER17
  6
CONTINUOUS
 62
     6
 10
150.004633
 20
204.101641
 40
2.000000
 50
207.731807
 51
267.000395
  0
ARC
  8
CSLAYER17
  6
CONTINUOUS
 62
     6
 10
148.679667
 20
204.452410
 40
1.000000
 50
93.000962
 51
208.911585
  0
LINE
  8
CSLAYER17
  6
CONTINUOUS
 62
     6
 10
148.627314
 20
205.451037
 11
153.303507
 21
205.696154
  0
ARC
  8
CSLAYER17
  6
CONTINUOUS
 62
     6
 10
153.303507
 20
206.696154
 40
1.000000
 50
270.000001
 51
359.942687
  0
LINE
  8
CSLAYER17
  6
CONTINUOUS
 62
     6
 10
154.288462
 20
206.696154
 11
154.288462
 21
207.696154
  0
ARC
  8
CSLAYER17
  6
CONTINUOUS
 62
     6
 10
153.288462
 20
207.696154
 40
1.000000
 50
0.000000
 51
89.999981
  0
LINE
  8
CSLAYER17
  6
CONTINUOUS
 62
     6
 10
153.288462
 20
208.696154
 11
145.359980
 21
209.111651
  0
ARC
  8
CSLAYER17
  6
CONTINUOUS
 62
     6
 10
145.464655
 20
211.108904
 40
2.000000
 50
218.145716
 51
266.999937
  0
ARC
  8
CSLAYER17
  6
CONTINUOUS
 62
     6
 10
109.288462
 20
182.696185
 40
45.000000
 50
35.914342
 51
144.085657
  0
ARC
  8
CSLAYER17
  6
CONTINUOUS
 62
     6
 10
73.112253
 20
211.108904
 40
2.000000
 50
273.000065
 51
321.854286
  0
LINE
  8
CSLAYER17
  6
CONTINUOUS
 62
     6
 10
73.216929
 20
209.111651
 11
65.288462
 21
208.696154
  0
ARC
  8
CSLAYER17
  6
CONTINUOUS
 62
     6
 10
65.288462
 20
207.696154
 40
1.000000
 50
90.000039
 51
180.000020
  0
LINE
  8
CSLAYER17
  6
CONTINUOUS
 62
     6
 10
64.288462
 20
207.696154
 11
64.288462
 21
206.696154
  0
ARC
  8
CSLAYER17
  6
CONTINUOUS
 62
     6
 10
65.273417
 20
206.696154
 40
1.000000
 50
180.000020
 51
270.000001
  0
LINE
  8
CSLAYER17
  6
CONTINUOUS
 62
     6
 10
65.273417
 20
205.696154
 11
69.949595
 21
205.451037
  0
ARC
  8
CSLAYER17
  6
CONTINUOUS
 62
     6
 10
69.897257
 20
204.452410
 40
1.000000
 50
-28.911583
 51
86.999040
  0
ARC
  8
CSLAYER17
  6
CONTINUOUS
 62
     6
 10
68.572275
 20
204.101641
 40
2.000000
 50
272.999664
 51
332.268195
  0
LINE
  8
CSLAYER17
  6
CONTINUOUS
 62
     6
 10
68.676951
 20
202.104357
 11
61.268046
 21
201.716113
  0
ARC
  8
CSLAYER17
  6
CONTINUOUS
 62
     6
 10
61.288462
 20
200.716357
 40
1.000000
 50
91.169216
 51
180.000020
  0
LINE
  8
CSLAYER17
  6
CONTINUOUS
 62
     6
 10
60.288462
 20
200.716357
 11
60.288462
 21
164.675951
  0
ARC
  8
CSLAYER17
  6
CONTINUOUS
 62
     6
 10
61.288462
 20
164.675951
 40
1.000000
 50
180.000020
 51
268.830766
  0
LINE
  8
CSLAYER17
  6
CONTINUOUS
 62
     6
 10
61.268046
 20
163.676196
 11
68.676951
 21
163.287951
  0
ARC
  8
CSLAYER17
  6
CONTINUOUS
 62
     6
 10
68.572275
 20
161.290667
 40
2.000000
 50
27.731845
 51
87.000375
  0
ARC
  8
CSLAYER17
  6
CONTINUOUS
 62
     6
 10
69.897257
 20
160.939898
 40
1.000000
 50
-86.999018
 51
28.911605
  0
LINE
  8
CSLAYER17
  6
CONTINUOUS
 62
     6
 10
69.949595
 20
159.941271
 11
65.273417
 21
159.696154
  0
ARC
  8
CSLAYER17
  6
CONTINUOUS
 62
     6
 10
65.273417
 20
158.696154
 40
1.000000
 50
90.000039
 51
180.000020
  0
LINE
  8
CSLAYER17
  6
CONTINUOUS
 62
     6
 10
64.288462
 20
158.696154
 11
64.288462
 21
157.696154
  0
ARC
  8
CSLAYER17
  6
CONTINUOUS
 62
     6
 10
65.288462
 20
157.696154
 40
1.000000
 50
180.000020
 51
270.000001
  0
LINE
  8
CSLAYER17
  6
CONTINUOUS
 62
     6
 10
65.288462
 20
156.696154
 11
73.216929
 21
156.280657
  0
ARC
  8
CSLAYER17
  6
CONTINUOUS
 62
     6
 10
73.112253
 20
154.283404
 40
2.000000
 50
38.145754
 51
86.999917
  0
ARC
  8
CSLAYER17
  6
CONTINUOUS
 62
     6
 10
109.288462
 20
182.696124
 40
45.000000
 50
215.914344
 51
267.450134
  0
LINE
  8
CSLAYER17
  6
CONTINUOUS
 62
     6
 10
145.359980
 20
156.280657
 11
153.288462
 21
156.696154
  0
ARC
  8
CSLAYER17
  6
CONTINUOUS
 62
     6
 10
109.288462
 20
182.696124
 40
45.000000
 50
329.814347
 51
334.449464
  0
ARC
  8
CSLAYER17
  6
CONTINUOUS
 62
     6
 10
145.464655
 20
154.283404
 40
2.000000
 50
93.000103
 51
141.854266
  0
ARC
  8
CSLAYER17
  6
CONTINUOUS
 62
     6
 10
132.288462
 20
156.314288
 40
2.000000
 50
180.000020
 51
311.082221
  0
LINE
  8
CSLAYER17
  6
CONTINUOUS
 62
     6
 10
130.288462
 20
156.314288
 11
130.288447
 21
169.696154
  0
ARC
  8
CSLAYER17
  6
CONTINUOUS
 62
     6
 10
133.288447
 20
169.696154
 40
3.000000
 50
89.999981
 51
180.000020
  0
LINE
  8
CSLAYER17
  6
CONTINUOUS
 62
     6
 10
133.288447
 20
172.696154
 11
139.288447
 21
172.696154
  0
ARC
  8
CSLAYER17
  6
CONTINUOUS
 62
     6
 10
139.288447
 20
170.696154
 40
2.000000
 50
0.000115
 51
89.999981
  0
LINE
  8
CSLAYER17
  6
CONTINUOUS
 62
     6
 10
141.288447
 20
170.696154
 11
141.288462
 21
164.668353
  0
ARC
  8
CSLAYER17
  6
CONTINUOUS
 62
     6
 10
139.288462
 20
164.668353
 40
2.000000
 50
328.997351
 51
359.942687
  0
ARC
  8
CSLAYER17
  6
CONTINUOUS
 62
     6
 10
109.288462
 20
182.696124
 40
37.000008
 50
311.082278
 51
328.997236
  0
LINE
  8
CSLAYER17
  6
CONTINUOUS
 62
     6
 10
123.288462
 20
152.696154
 11
123.288462
 21
163.074725
  0
ARC
  8
CSLAYER17
  6
CONTINUOUS
 62
     6
 10
121.288462
 20
163.074725
 40
2.000000
 50
0.000000
 51
121.448890
  0
ARC
  8
CSLAYER17
  6
CONTINUOUS
 62
     6
 10
109.288462
 20
182.696124
 40
20.999992
 50
287.718950
 51
301.449024
  0
ARC
  8
CSLAYER17
  6
CONTINUOUS
 62
     6
 10
116.288462
 20
160.787219
 40
2.000000
 50
107.718758
 51
180.000020
  0
LINE
  8
CSLAYER17
  6
CONTINUOUS
 62
     6
 10
114.288462
 20
160.787219
 11
114.288462
 21
152.696154
  0
ARC
  8
CSLAYER17
  6
CONTINUOUS
 62
     6
 10
116.288462
 20
152.696154
 40
2.000000
 50
180.000020
 51
270.000001
  0
LINE
  8
CSLAYER17
  6
CONTINUOUS
 62
     6
 10
116.288462
 20
150.696154
 11
121.288462
 21
150.696154
  0
ARC
  8
CSLAYER17
  6
CONTINUOUS
 62
     6
 10
121.288462
 20
152.696154
 40
2.000000
 50
270.000001
 51
359.942687
  0
LINE
  8
CSLAYER17
  6
CONTINUOUS
 62
     6
 10
104.288462
 20
152.696154
 11
104.288462
 21
160.787219
  0
ARC
  8
CSLAYER17
  6
CONTINUOUS
 62
     6
 10
102.288462
 20
160.787219
 40
2.000000
 50
0.000000
 51
72.281261
  0
ARC
  8
CSLAYER17
  6
CONTINUOUS
 62
     6
 10
109.288462
 20
182.696124
 40
20.999992
 50
238.550978
 51
252.281052
  0
ARC
  8
CSLAYER17
  6
CONTINUOUS
 62
     6
 10
97.288462
 20
163.074725
 40
2.000000
 50
58.551130
 51
180.000020
  0
LINE
  8
CSLAYER17
  6
CONTINUOUS
 62
     6
 10
95.288462
 20
163.074725
 11
95.288462
 21
152.696154
  0
ARC
  8
CSLAYER17
  6
CONTINUOUS
 62
     6
 10
97.288462
 20
152.696154
 40
2.000000
 50
180.000020
 51
270.000001
  0
LINE
  8
CSLAYER17
  6
CONTINUOUS
 62
     6
 10
97.288462
 20
150.696154
 11
102.288462
 21
150.696154
  0
ARC
  8
CSLAYER17
  6
CONTINUOUS
 62
     6
 10
102.288462
 20
152.696154
 40
2.000000
 50
270.000001
 51
359.942687
  0
LINE
  8
CSLAYER17
  6
CONTINUOUS
 62
     6
 10
63.326521
 20
129.228660
 11
56.826521
 21
132.981436
  0
LINE
  8
CSLAYER17
  6
CONTINUOUS
 62
     6
 10
56.826521
 20
132.981436
 11
56.826521
 21
140.486990
  0
LINE
  8
CSLAYER17
  6
CONTINUOUS
 62
     6
 10
56.826521
 20
140.486990
 11
63.326521
 21
144.239767
  0
LINE
  8
CSLAYER17
  6
CONTINUOUS
 62
     6
 10
63.326521
 20
144.239767
 11
69.826521
 21
140.486990
  0
LINE
  8
CSLAYER17
  6
CONTINUOUS
 62
     6
 10
69.826521
 20
140.486990
 11
69.826521
 21
132.981436
  0
LINE
  8
CSLAYER17
  6
CONTINUOUS
 62
     6
 10
69.826521
 20
132.981436
 11
63.326521
 21
129.228660
  0
CIRCLE
  8
CSLAYER17
  6
CONTINUOUS
 62
     6
 10
63.326521
 20
136.734213
 40
7.700000
  0
CIRCLE
  8
CSLAYER17
  6
CONTINUOUS
 62
     6
 10
63.326521
 20
136.734213
 40
6.305000
  0
ARC
  8
CSLAYER17
  6
CONTINUOUS
 62
     6
 10
109.288462
 20
182.696124
 40
45.000000
 50
205.550536
 51
210.185653
  0
ARC
  8
CSLAYER17
  6
CONTINUOUS
 62
     6
 10
86.288462
 20
156.314288
 40
2.000000
 50
228.917781
 51
359.942687
  0
LINE
  8
CSLAYER17
  6
CONTINUOUS
 62
     6
 10
88.288462
 20
156.314288
 11
88.288477
 21
169.696154
  0
ARC
  8
CSLAYER17
  6
CONTINUOUS
 62
     6
 10
85.288477
 20
169.696154
 40
3.000000
 50
-0.000018
 51
90.000021
  0
LINE
  8
CSLAYER17
  6
CONTINUOUS
 62
     6
 10
85.288477
 20
172.696154
 11
79.288477
 21
172.696154
  0
ARC
  8
CSLAYER17
  6
CONTINUOUS
 62
     6
 10
79.288477
 20
170.696154
 40
2.000000
 50
89.999981
 51
179.999905
  0
LINE
  8
CSLAYER17
  6
CONTINUOUS
 62
     6
 10
77.288477
 20
170.696154
 11
77.288462
 21
164.668353
  0
ARC
  8
CSLAYER17
  6
CONTINUOUS
 62
     6
 10
79.288462
 20
164.668353
 40
2.000000
 50
180.000020
 51
211.002709
  0
ARC
  8
CSLAYER17
  6
CONTINUOUS
 62
     6
 10
109.288462
 20
182.696124
 40
37.000008
 50
211.002766
 51
228.917724
  0
ARC
  8
CSLAYER17
  6
CONTINUOUS
 62
     6
 10
109.288462
 20
181.903032
 40
13.065822
 50
-37.903067
 51
217.903051
  0
ARC
  8
CSLAYER17
  6
CONTINUOUS
 62
     6
 10
118.522081
 20
174.714081
 40
1.363635
 50
230.236329
 51
322.096590
  0
ARC
  8
CSLAYER17
  6
CONTINUOUS
 62
     6
 10
115.780582
 20
171.419418
 40
2.922462
 50
50.235851
 51
203.481549
  0
LINE
  8
CSLAYER17
  6
CONTINUOUS
 62
     6
 10
113.100133
 20
170.254959
 11
113.682478
 21
168.354189
  0
CIRCLE
  8
CSLAYER17
  6
CONTINUOUS
 62
     6
 10
115.780582
 20
171.419418
 40
1.363635
  0
ARC
  8
CSLAYER17
  6
CONTINUOUS
 62
     6
 10
102.796333
 20
171.419418
 40
2.922462
 50
-23.481547
 51
129.764151
  0
ARC
  8
CSLAYER17
  6
CONTINUOUS
 62
     6
 10
100.054831
 20
174.714081
 40
1.363635
 50
217.903413
 51
309.763730
  0
CIRCLE
  8
CSLAYER17
  6
CONTINUOUS
 62
     6
 10
102.796333
 20
171.419418
 40
1.363635
  0
LINE
  8
CSLAYER17
  6
CONTINUOUS
 62
     6
 10
105.476779
 20
170.254959
 11
104.894434
 21
168.354189
  0
CIRCLE
  8
CSLAYER17
  6
CONTINUOUS
 62
     6
 10
109.288462
 20
182.696154
 40
80.000000
  0
CIRCLE
  8
CSLAYER17
  6
CONTINUOUS
 62
     6
 10
109.288462
 20
182.696185
 40
15.000000
  0
CIRCLE
  8
CSLAYER17
  6
CONTINUOUS
 62
     6
 10
109.288462
 20
182.696185
 40
44.000000
  0
ARC
  8
CSLAYER17
  6
CONTINUOUS
 62
     6
 10
97.288462
 20
202.317584
 40
2.000000
 50
180.000020
 51
301.448852
  0
LINE
  8
CSLAYER17
  6
CONTINUOUS
 62
     6
 10
95.288462
 20
202.317584
 11
95.288462
 21
212.696154
  0
ARC
  8
CSLAYER17
  6
CONTINUOUS
 62
     6
 10
97.288462
 20
212.696154
 40
2.000000
 50
90.000039
 51
180.000020
  0
LINE
  8
CSLAYER17
  6
CONTINUOUS
 62
     6
 10
97.288462
 20
214.696154
 11
102.288462
 21
214.696154
  0
ARC
  8
CSLAYER17
  6
CONTINUOUS
 62
     6
 10
102.288462
 20
212.696154
 40
2.000000
 50
0.000000
 51
90.000039
  0
LINE
  8
CSLAYER17
  6
CONTINUOUS
 62
     6
 10
104.288462
 20
212.696154
 11
104.288462
 21
204.605090
  0
ARC
  8
CSLAYER17
  6
CONTINUOUS
 62
     6
 10
102.288462
 20
204.605090
 40
2.000000
 50
287.718778
 51
359.942687
  0
ARC
  8
CSLAYER17
  6
CONTINUOUS
 62
     6
 10
109.288462
 20
182.696185
 40
20.999992
 50
107.718930
 51
121.449062
  0
LINE
  8
CSLAYER17
  6
CONTINUOUS
 62
     6
 10
88.288477
 20
195.696154
 11
88.288462
 21
209.078021
  0
ARC
  8
CSLAYER17
  6
CONTINUOUS
 62
     6
 10
86.288462
 20
209.078021
 40
2.000000
 50
0.000000
 51
131.082258
  0
ARC
  8
CSLAYER17
  6
CONTINUOUS
 62
     6
 10
109.288462
 20
182.696185
 40
37.000008
 50
131.082316
 51
148.997274
  0
ARC
  8
CSLAYER17
  6
CONTINUOUS
 62
     6
 10
79.288462
 20
200.723956
 40
2.000000
 50
148.997331
 51
180.000020
  0
LINE
  8
CSLAYER17
  6
CONTINUOUS
 62
     6
 10
77.288462
 20
200.723956
 11
77.288477
 21
194.696154
  0
ARC
  8
CSLAYER17
  6
CONTINUOUS
 62
     6
 10
79.288477
 20
194.696154
 40
2.000000
 50
180.000134
 51
270.000001
  0
LINE
  8
CSLAYER17
  6
CONTINUOUS
 62
     6
 10
79.288477
 20
192.696154
 11
85.288477
 21
192.696154
  0
ARC
  8
CSLAYER17
  6
CONTINUOUS
 62
     6
 10
85.288477
 20
195.696154
 40
3.000000
 50
270.000001
 51
359.942687
  0
ARC
  8
CSLAYER17
  6
CONTINUOUS
 62
     6
 10
109.288462
 20
182.696185
 40
45.000000
 50
149.814348
 51
154.449374
  0
LINE
  8
CSLAYER17
  6
CONTINUOUS
 62
     6
 10
63.326521
 20
221.152541
 11
69.826521
 21
224.905318
  0
LINE
  8
CSLAYER17
  6
CONTINUOUS
 62
     6
 10
69.826521
 20
224.905318
 11
69.826521
 21
232.410871
  0
LINE
  8
CSLAYER17
  6
CONTINUOUS
 62
     6
 10
69.826521
 20
232.410871
 11
63.326521
 21
236.163648
  0
LINE
  8
CSLAYER17
  6
CONTINUOUS
 62
     6
 10
63.326521
 20
236.163648
 11
56.826521
 21
232.410871
  0
LINE
  8
CSLAYER17
  6
CONTINUOUS
 62
     6
 10
56.826521
 20
232.410871
 11
56.826521
 21
224.905318
  0
LINE
  8
CSLAYER17
  6
CONTINUOUS
 62
     6
 10
56.826521
 20
224.905318
 11
63.326521
 21
221.152541
  0
CIRCLE
  8
CSLAYER17
  6
CONTINUOUS
 62
     6
 10
63.326521
 20
228.658095
 40
7.700000
  0
CIRCLE
  8
CSLAYER17
  6
CONTINUOUS
 62
     6
 10
63.326521
 20
228.658095
 40
6.305000
  0
LINE
  8
CSLAYER17
  6
CONTINUOUS
 62
     6
 10
155.250402
 20
236.163648
 11
148.750402
 21
232.410871
  0
LINE
  8
CSLAYER17
  6
CONTINUOUS
 62
     6
 10
148.750402
 20
232.410871
 11
148.750402
 21
224.905318
  0
LINE
  8
CSLAYER17
  6
CONTINUOUS
 62
     6
 10
148.750402
 20
224.905318
 11
155.250402
 21
221.152541
  0
LINE
  8
CSLAYER17
  6
CONTINUOUS
 62
     6
 10
155.250402
 20
221.152541
 11
161.750402
 21
224.905318
  0
LINE
  8
CSLAYER17
  6
CONTINUOUS
 62
     6
 10
161.750402
 20
224.905318
 11
161.750402
 21
232.410871
  0
LINE
  8
CSLAYER17
  6
CONTINUOUS
 62
     6
 10
161.750402
 20
232.410871
 11
155.250402
 21
236.163648
  0
CIRCLE
  8
CSLAYER17
  6
CONTINUOUS
 62
     6
 10
155.250402
 20
228.658095
 40
7.700000
  0
CIRCLE
  8
CSLAYER17
  6
CONTINUOUS
 62
     6
 10
155.250402
 20
228.658095
 40
6.305000
  0
LINE
  8
CSLAYER17
  6
CONTINUOUS
 62
     6
 10
169.213415
 20
235.696154
 11
209.288462
 21
235.696154
  0
LINE
  8
CSLAYER17
  6
CONTINUOUS
 62
     6
 10
209.288462
 20
235.696154
 11
209.288462
 21
207.696154
  0
LINE
  8
CSLAYER17
  6
CONTINUOUS
 62
     6
 10
209.288462
 20
207.696154
 11
185.281882
 21
207.696154
  0
ARC
  8
CSLAYER17
  6
CONTINUOUS
 62
     6
 10
109.288462
 20
182.696185
 40
45.000000
 50
25.550535
 51
30.185652
  0
ARC
  8
CSLAYER17
  6
CONTINUOUS
 62
     6
 10
139.288462
 20
200.723956
 40
2.000000
 50
0.000000
 51
31.002689
  0
LINE
  8
CSLAYER17
  6
CONTINUOUS
 62
     6
 10
141.288462
 20
200.723956
 11
141.288447
 21
194.696154
  0
ARC
  8
CSLAYER17
  6
CONTINUOUS
 62
     6
 10
139.288447
 20
194.696154
 40
2.000000
 50
270.000001
 51
359.942687
  0
LINE
  8
CSLAYER17
  6
CONTINUOUS
 62
     6
 10
139.288447
 20
192.696154
 11
133.288447
 21
192.696154
  0
ARC
  8
CSLAYER17
  6
CONTINUOUS
 62
     6
 10
133.288447
 20
195.696154
 40
3.000000
 50
179.999963
 51
270.000001
  0
LINE
  8
CSLAYER17
  6
CONTINUOUS
 62
     6
 10
130.288447
 20
195.696154
 11
130.288462
 21
209.078021
  0
ARC
  8
CSLAYER17
  6
CONTINUOUS
 62
     6
 10
132.288462
 20
209.078021
 40
2.000000
 50
48.917761
 51
180.000020
  0
ARC
  8
CSLAYER17
  6
CONTINUOUS
 62
     6
 10
109.288462
 20
182.696185
 40
37.000008
 50
31.002746
 51
48.917704
  0
ARC
  8
CSLAYER17
  6
CONTINUOUS
 62
     6
 10
121.288462
 20
202.317584
 40
2.000000
 50
238.551150
 51
359.942687
  0
ARC
  8
CSLAYER17
  6
CONTINUOUS
 62
     6
 10
109.288462
 20
182.696185
 40
20.999992
 50
58.550958
 51
72.281032
  0
ARC
  8
CSLAYER17
  6
CONTINUOUS
 62
     6
 10
116.288462
 20
204.605090
 40
2.000000
 50
180.000020
 51
252.281281
  0
LINE
  8
CSLAYER17
  6
CONTINUOUS
 62
     6
 10
114.288462
 20
204.605090
 11
114.288462
 21
212.696154
  0
ARC
  8
CSLAYER17
  6
CONTINUOUS
 62
     6
 10
116.288462
 20
212.696154
 40
2.000000
 50
89.999981
 51
180.000020
  0
LINE
  8
CSLAYER17
  6
CONTINUOUS
 62
     6
 10
116.288462
 20
214.696154
 11
121.288462
 21
214.696154
  0
ARC
  8
CSLAYER17
  6
CONTINUOUS
 62
     6
 10
121.288462
 20
212.696154
 40
2.000000
 50
0.000000
 51
89.999981
  0
LINE
  8
CSLAYER17
  6
CONTINUOUS
 62
     6
 10
123.288462
 20
212.696154
 11
123.288462
 21
202.317584
  0
LINE
  8
CSLAYER17
  6
CONTINUOUS
 62
     6
 10
223.288462
 20
225.584612
 11
223.288462
 21
139.696154
  0
LINE
  8
CSLAYER17
  6
CONTINUOUS
 62
     6
 10
223.288462
 20
139.696154
 11
224.288462
 21
138.696154
  0
LINE
  8
CSLAYER17
  6
CONTINUOUS
 62
     6
 10
224.288462
 20
138.696154
 11
224.288462
 21
226.584612
  0
LINE
  8
CSLAYER17
  6
CONTINUOUS
 62
     6
 10
224.288462
 20
226.584612
 11
223.288462
 21
225.584612
  0
LINE
  8
CSLAYER17
  6
CONTINUOUS
 62
     6
 10
224.288462
 20
226.584612
 11
276.288462
 21
226.584612
  0
LINE
  8
CSLAYER17
  6
CONTINUOUS
 62
     6
 10
276.288462
 20
227.696154
 11
403.988462
 21
227.696154
  0
LINE
  8
CSLAYER17
  6
CONTINUOUS
 62
     6
 10
276.288462
 20
227.696154
 11
276.288462
 21
137.696154
  0
LINE
  8
CSLAYER17
  6
CONTINUOUS
 62
     6
 10
276.288462
 20
137.696154
 11
403.988462
 21
137.696154
  0
LINE
  8
CSLAYER17
  6
CONTINUOUS
 62
     6
 10
403.988462
 20
391.750000
 11
276.288462
 21
391.750000
  0
LINE
  8
CSLAYER17
  6
CONTINUOUS
 62
     6
 10
276.288462
 20
391.750000
 11
276.288462
 21
481.750000
  0
LINE
  8
CSLAYER17
  6
CONTINUOUS
 62
     6
 10
276.288462
 20
481.750000
 11
403.988462
 21
481.750000
  0
LINE
  8
CSLAYER17
  6
CONTINUOUS
 62
     6
 10
276.288462
 20
480.749969
 11
274.813425
 21
480.749969
  0
LINE
  8
CSLAYER17
  6
CONTINUOUS
 62
     6
 10
274.382578
 20
480.854462
 11
275.080210
 21
474.217010
  0
ARC
  8
CSLAYER17
  6
CONTINUOUS
 62
     6
 10
276.074716
 20
474.321503
 40
1.000000
 50
186.000026
 51
270.000001
  0
ARC
  8
CSLAYER17
  6
CONTINUOUS
 62
     6
 10
276.025095
 20
478.793793
 40
1.000000
 50
186.000026
 51
270.000001
  0
LINE
  8
CSLAYER17
  6
CONTINUOUS
 62
     6
 10
275.030527
 20
478.689240
 11
274.382578
 21
484.854462
  0
ARC
  8
CSLAYER17
  6
CONTINUOUS
 62
     6
 10
273.388010
 20
484.749969
 40
1.000000
 50
6.000003
 51
90.000016
  0
LINE
  8
CSLAYER17
  6
CONTINUOUS
 62
     6
 10
273.388010
 20
485.749969
 11
237.188852
 21
485.749969
  0
ARC
  8
CSLAYER17
  6
CONTINUOUS
 62
     6
 10
237.188852
 20
484.749969
 40
1.000000
 50
90.000003
 51
173.999998
  0
LINE
  8
CSLAYER17
  6
CONTINUOUS
 62
     6
 10
236.194345
 20
484.854462
 11
235.546335
 21
478.689240
  0
ARC
  8
CSLAYER17
  6
CONTINUOUS
 62
     6
 10
234.551828
 20
478.793793
 40
1.000000
 50
270.000001
 51
353.999989
  0
LINE
  8
CSLAYER17
  6
CONTINUOUS
 62
     6
 10
235.762888
 20
480.749969
 11
224.288462
 21
480.749969
  0
LINE
  8
CSLAYER17
  6
CONTINUOUS
 62
     6
 10
224.288462
 20
480.749969
 11
223.288462
 21
479.749969
  0
LINE
  8
CSLAYER17
  6
CONTINUOUS
 62
     6
 10
223.288462
 20
479.749969
 11
223.288462
 21
393.749969
  0
LINE
  8
CSLAYER17
  6
CONTINUOUS
 62
     6
 10
223.288462
 20
393.749969
 11
224.288462
 21
392.749969
  0
LINE
  8
CSLAYER17
  6
CONTINUOUS
 62
     6
 10
224.288462
 20
392.749969
 11
235.762888
 21
392.749969
  0
ARC
  8
CSLAYER17
  6
CONTINUOUS
 62
     6
 10
237.188852
 20
392.749969
 40
1.000000
 50
186.000012
 51
270.000001
  0
LINE
  8
CSLAYER17
  6
CONTINUOUS
 62
     6
 10
237.188852
 20
391.749969
 11
273.388010
 21
391.749969
  0
ARC
  8
CSLAYER17
  6
CONTINUOUS
 62
     6
 10
273.388010
 20
392.749969
 40
1.000000
 50
270.000001
 51
354.000017
  0
LINE
  8
CSLAYER17
  6
CONTINUOUS
 62
     6
 10
274.382578
 20
392.645416
 11
275.080210
 21
399.282928
  0
ARC
  8
CSLAYER17
  6
CONTINUOUS
 62
     6
 10
276.074716
 20
399.178375
 40
1.000000
 50
90.000009
 51
173.999984
  0
ARC
  8
CSLAYER17
  6
CONTINUOUS
 62
     6
 10
276.025095
 20
394.706146
 40
1.000000
 50
90.000009
 51
173.999984
  0
LINE
  8
CSLAYER17
  6
CONTINUOUS
 62
     6
 10
275.030527
 20
394.810699
 11
274.382578
 21
388.645416
  0
ARC
  8
CSLAYER17
  6
CONTINUOUS
 62
     6
 10
273.388010
 20
388.749969
 40
1.000000
 50
270.000001
 51
354.000017
  0
LINE
  8
CSLAYER17
  6
CONTINUOUS
 62
     6
 10
273.388010
 20
387.749969
 11
237.188852
 21
387.749969
  0
ARC
  8
CSLAYER17
  6
CONTINUOUS
 62
     6
 10
237.188852
 20
388.749969
 40
1.000000
 50
186.000012
 51
270.000001
  0
LINE
  8
CSLAYER17
  6
CONTINUOUS
 62
     6
 10
236.194345
 20
388.645416
 11
235.546335
 21
394.810699
  0
ARC
  8
CSLAYER17
  6
CONTINUOUS
 62
     6
 10
234.551828
 20
394.706146
 40
1.000000
 50
6.000021
 51
90.000009
  0
LINE
  8
CSLAYER17
  6
CONTINUOUS
 62
     6
 10
236.194345
 20
392.645416
 11
235.496713
 21
399.282928
  0
ARC
  8
CSLAYER17
  6
CONTINUOUS
 62
     6
 10
234.502146
 20
399.178375
 40
1.000000
 50
6.000021
 51
90.000009
  0
LINE
  8
CSLAYER17
  6
CONTINUOUS
 62
     6
 10
238.974436
 20
400.356781
 11
270.931528
 21
400.356781
  0
LINE
  8
CSLAYER17
  6
CONTINUOUS
 62
     6
 10
274.813425
 20
392.749969
 11
276.288462
 21
392.749969
  0
LINE
  8
CSLAYER17
  6
CONTINUOUS
 62
     6
 10
224.288462
 20
392.749969
 11
224.288462
 21
480.749969
  0
ARC
  8
CSLAYER17
  6
CONTINUOUS
 62
     6
 10
237.188852
 20
480.749969
 40
1.000000
 50
90.000003
 51
173.999998
  0
LINE
  8
CSLAYER17
  6
CONTINUOUS
 62
     6
 10
237.188852
 20
481.749969
 11
273.388010
 21
481.749969
  0
ARC
  8
CSLAYER17
  6
CONTINUOUS
 62
     6
 10
273.388010
 20
480.749969
 40
1.000000
 50
6.000003
 51
90.000016
  0
LINE
  8
CSLAYER17
  6
CONTINUOUS
 62
     6
 10
270.931528
 20
473.143158
 11
238.974436
 21
473.143158
  0
LINE
  8
CSLAYER17
  6
CONTINUOUS
 62
     6
 10
235.496713
 20
474.217010
 11
236.194345
 21
480.854462
  0
ARC
  8
CSLAYER17
  6
CONTINUOUS
 62
     6
 10
234.502146
 20
474.321503
 40
1.000000
 50
270.000001
 51
353.999989
  0
ARC
  8
CSLAYER17
  6
CONTINUOUS
 62
     6
 10
237.288462
 20
207.696154
 40
1.000000
 50
90.000016
 51
180.000005
  0
LINE
  8
CSLAYER17
  6
CONTINUOUS
 62
     6
 10
236.288462
 20
207.696154
 11
236.288462
 21
206.696154
  0
ARC
  8
CSLAYER17
  6
CONTINUOUS
 62
     6
 10
237.288462
 20
206.696154
 40
1.000000
 50
180.000019
 51
270.000001
  0
LINE
  8
CSLAYER17
  6
CONTINUOUS
 62
     6
 10
237.288462
 20
205.696154
 11
273.288462
 21
205.696154
  0
ARC
  8
CSLAYER17
  6
CONTINUOUS
 62
     6
 10
273.288462
 20
206.696154
 40
1.000000
 50
270.000001
 51
359.942691
  0
LINE
  8
CSLAYER17
  6
CONTINUOUS
 62
     6
 10
274.288462
 20
206.696154
 11
274.288462
 21
207.696154
  0
ARC
  8
CSLAYER17
  6
CONTINUOUS
 62
     6
 10
273.288462
 20
207.696154
 40
1.000000
 50
0.000000
 51
90.000003
  0
LINE
  8
CSLAYER17
  6
CONTINUOUS
 62
     6
 10
273.288462
 20
208.696154
 11
237.288462
 21
208.696154
  0
LINE
  8
CSLAYER17
  6
CONTINUOUS
 62
     6
 10
237.288462
 20
201.696154
 11
273.288462
 21
201.696154
  0
ARC
  8
CSLAYER17
  6
CONTINUOUS
 62
     6
 10
273.288462
 20
200.696154
 40
1.000000
 50
0.000000
 51
90.000003
  0
LINE
  8
CSLAYER17
  6
CONTINUOUS
 62
     6
 10
274.288462
 20
200.696154
 11
274.288462
 21
199.696154
  0
ARC
  8
CSLAYER17
  6
CONTINUOUS
 62
     6
 10
273.288462
 20
199.696154
 40
1.000000
 50
270.000001
 51
359.942691
  0
LINE
  8
CSLAYER17
  6
CONTINUOUS
 62
     6
 10
273.288462
 20
198.696154
 11
268.517221
 21
198.696154
  0
ARC
  8
CSLAYER17
  6
CONTINUOUS
 62
     6
 10
268.517221
 20
197.696154
 40
1.000000
 50
90.000003
 51
228.590367
  0
ARC
  8
CSLAYER17
  6
CONTINUOUS
 62
     6
 10
255.288462
 20
182.696154
 40
19.000000
 50
-48.590366
 51
48.590386
  0
ARC
  8
CSLAYER17
  6
CONTINUOUS
 62
     6
 10
268.517221
 20
167.696154
 40
1.000000
 50
131.409643
 51
270.000001
  0
LINE
  8
CSLAYER17
  6
CONTINUOUS
 62
     6
 10
268.517221
 20
166.696154
 11
273.288462
 21
166.696154
  0
ARC
  8
CSLAYER17
  6
CONTINUOUS
 62
     6
 10
273.288462
 20
165.696154
 40
1.000000
 50
0.057309
 51
89.999999
  0
LINE
  8
CSLAYER17
  6
CONTINUOUS
 62
     6
 10
274.288462
 20
165.696154
 11
274.288462
 21
164.696154
  0
ARC
  8
CSLAYER17
  6
CONTINUOUS
 62
     6
 10
273.288462
 20
164.696154
 40
1.000000
 50
269.999997
 51
360.000000
  0
LINE
  8
CSLAYER17
  6
CONTINUOUS
 62
     6
 10
273.288462
 20
163.696154
 11
237.288462
 21
163.696154
  0
ARC
  8
CSLAYER17
  6
CONTINUOUS
 62
     6
 10
237.288462
 20
164.696154
 40
1.000000
 50
179.999995
 51
269.999984
  0
LINE
  8
CSLAYER17
  6
CONTINUOUS
 62
     6
 10
236.288462
 20
164.696154
 11
236.288462
 21
165.696154
  0
ARC
  8
CSLAYER17
  6
CONTINUOUS
 62
     6
 10
237.288462
 20
165.696154
 40
1.000000
 50
89.999999
 51
179.999981
  0
LINE
  8
CSLAYER17
  6
CONTINUOUS
 62
     6
 10
237.288462
 20
166.696154
 11
242.059702
 21
166.696154
  0
ARC
  8
CSLAYER17
  6
CONTINUOUS
 62
     6
 10
242.059702
 20
167.696154
 40
1.000000
 50
-89.999999
 51
48.590386
  0
ARC
  8
CSLAYER17
  6
CONTINUOUS
 62
     6
 10
255.288462
 20
182.696154
 40
19.000000
 50
131.409657
 51
228.590367
  0
ARC
  8
CSLAYER17
  6
CONTINUOUS
 62
     6
 10
242.059702
 20
197.696154
 40
1.000000
 50
-48.590366
 51
90.000019
  0
LINE
  8
CSLAYER17
  6
CONTINUOUS
 62
     6
 10
242.059702
 20
198.696154
 11
237.288462
 21
198.696154
  0
ARC
  8
CSLAYER17
  6
CONTINUOUS
 62
     6
 10
237.288462
 20
199.696154
 40
1.000000
 50
180.000019
 51
270.000001
  0
LINE
  8
CSLAYER17
  6
CONTINUOUS
 62
     6
 10
236.288462
 20
199.696154
 11
236.288462
 21
200.696154
  0
ARC
  8
CSLAYER17
  6
CONTINUOUS
 62
     6
 10
237.288462
 20
200.696154
 40
1.000000
 50
90.000016
 51
180.000005
  0
LINE
  8
CSLAYER17
  6
CONTINUOUS
 62
     6
 10
249.288462
 20
183.596148
 11
261.288462
 21
183.596148
  0
LINE
  8
CSLAYER17
  6
CONTINUOUS
 62
     6
 10
261.288462
 20
183.596148
 11
261.288462
 21
181.796160
  0
LINE
  8
CSLAYER17
  6
CONTINUOUS
 62
     6
 10
261.288462
 20
181.796160
 11
249.288462
 21
181.796160
  0
LINE
  8
CSLAYER17
  6
CONTINUOUS
 62
     6
 10
249.288462
 20
181.796160
 11
249.288462
 21
183.596148
  0
CIRCLE
  8
CSLAYER17
  6
CONTINUOUS
 62
     6
 10
255.288462
 20
182.696154
 40
12.000000
  0
CIRCLE
  8
CSLAYER17
  6
CONTINUOUS
 62
     6
 10
255.288462
 20
182.696154
 40
15.000000
  0
CIRCLE
  8
CSLAYER17
  6
CONTINUOUS
 62
     6
 10
255.288462
 20
182.696154
 40
16.000000
  0
ARC
  8
CSLAYER17
  6
CONTINUOUS
 62
     6
 10
237.288462
 20
158.696154
 40
1.000000
 50
89.999999
 51
179.999981
  0
LINE
  8
CSLAYER17
  6
CONTINUOUS
 62
     6
 10
236.288462
 20
158.696154
 11
236.288462
 21
157.696154
  0
ARC
  8
CSLAYER17
  6
CONTINUOUS
 62
     6
 10
237.288462
 20
157.696154
 40
1.000000
 50
179.999995
 51
269.999984
  0
LINE
  8
CSLAYER17
  6
CONTINUOUS
 62
     6
 10
237.288462
 20
156.696154
 11
273.288462
 21
156.696154
  0
ARC
  8
CSLAYER17
  6
CONTINUOUS
 62
     6
 10
273.288462
 20
157.696154
 40
1.000000
 50
269.999997
 51
360.000000
  0
LINE
  8
CSLAYER17
  6
CONTINUOUS
 62
     6
 10
274.288462
 20
157.696154
 11
274.288462
 21
158.696154
  0
ARC
  8
CSLAYER17
  6
CONTINUOUS
 62
     6
 10
273.288462
 20
158.696154
 40
1.000000
 50
0.057309
 51
89.999999
  0
LINE
  8
CSLAYER17
  6
CONTINUOUS
 62
     6
 10
273.288462
 20
159.696154
 11
237.288462
 21
159.696154
  0
LINE
  8
CSLAYER17
  6
CONTINUOUS
 62
     6
 10
237.288462
 20
142.696154
 11
237.288462
 21
138.696154
  0
LINE
  8
CSLAYER17
  6
CONTINUOUS
 62
     6
 10
237.288462
 20
138.696154
 11
224.288462
 21
138.696154
  0
LINE
  8
CSLAYER17
  6
CONTINUOUS
 62
     6
 10
233.172300
 20
129.692337
 11
233.001405
 21
129.525326
  0
LINE
  8
CSLAYER17
  6
CONTINUOUS
 62
     6
 10
233.001405
 20
129.525326
 11
232.828402
 21
129.357210
  0
LINE
  8
CSLAYER17
  6
CONTINUOUS
 62
     6
 10
232.828402
 20
129.357210
 11
232.655067
 21
129.190315
  0
LINE
  8
CSLAYER17
  6
CONTINUOUS
 62
     6
 10
232.655067
 20
129.190315
 11
232.483175
 21
129.026966
  0
LINE
  8
CSLAYER17
  6
CONTINUOUS
 62
     6
 10
232.483175
 20
129.026966
 11
232.314503
 21
128.869487
  0
LINE
  8
CSLAYER17
  6
CONTINUOUS
 62
     6
 10
232.314503
 20
128.869487
 11
232.150826
 21
128.720202
  0
LINE
  8
CSLAYER17
  6
CONTINUOUS
 62
     6
 10
232.150826
 20
128.720202
 11
231.993920
 21
128.581438
  0
LINE
  8
CSLAYER17
  6
CONTINUOUS
 62
     6
 10
231.993920
 20
128.581438
 11
231.852689
 21
128.458640
  0
LINE
  8
CSLAYER17
  6
CONTINUOUS
 62
     6
 10
231.852689
 20
128.458640
 11
231.706505
 21
128.330755
  0
LINE
  8
CSLAYER17
  6
CONTINUOUS
 62
     6
 10
231.706505
 20
128.330755
 11
231.556512
 21
128.198248
  0
LINE
  8
CSLAYER17
  6
CONTINUOUS
 62
     6
 10
231.556512
 20
128.198248
 11
231.403851
 21
128.061589
  0
LINE
  8
CSLAYER17
  6
CONTINUOUS
 62
     6
 10
231.403851
 20
128.061589
 11
231.249664
 21
127.921244
  0
LINE
  8
CSLAYER17
  6
CONTINUOUS
 62
     6
 10
231.249664
 20
127.921244
 11
231.095093
 21
127.777681
  0
LINE
  8
CSLAYER17
  6
CONTINUOUS
 62
     6
 10
231.095093
 20
127.777681
 11
230.941282
 21
127.631369
  0
LINE
  8
CSLAYER17
  6
CONTINUOUS
 62
     6
 10
230.941282
 20
127.631369
 11
230.789371
 21
127.482774
  0
LINE
  8
CSLAYER17
  6
CONTINUOUS
 62
     6
 10
230.789371
 20
127.482774
 11
230.640504
 21
127.332364
  0
LINE
  8
CSLAYER17
  6
CONTINUOUS
 62
     6
 10
230.640504
 20
127.332364
 11
230.495822
 21
127.180608
  0
LINE
  8
CSLAYER17
  6
CONTINUOUS
 62
     6
 10
230.495822
 20
127.180608
 11
230.356469
 21
127.027972
  0
LINE
  8
CSLAYER17
  6
CONTINUOUS
 62
     6
 10
230.356469
 20
127.027972
 11
230.300944
 21
126.965028
  0
LINE
  8
CSLAYER17
  6
CONTINUOUS
 62
     6
 10
230.300944
 20
126.965028
 11
230.246017
 21
126.901528
  0
LINE
  8
CSLAYER17
  6
CONTINUOUS
 62
     6
 10
230.246017
 20
126.901528
 11
230.191626
 21
126.837526
  0
LINE
  8
CSLAYER17
  6
CONTINUOUS
 62
     6
 10
230.191626
 20
126.837526
 11
230.137712
 21
126.773080
  0
LINE
  8
CSLAYER17
  6
CONTINUOUS
 62
     6
 10
230.137712
 20
126.773080
 11
230.084216
 21
126.708244
  0
LINE
  8
CSLAYER17
  6
CONTINUOUS
 62
     6
 10
230.084216
 20
126.708244
 11
230.031078
 21
126.643074
  0
LINE
  8
CSLAYER17
  6
CONTINUOUS
 62
     6
 10
230.031078
 20
126.643074
 11
229.978239
 21
126.577626
  0
LINE
  8
CSLAYER17
  6
CONTINUOUS
 62
     6
 10
229.978239
 20
126.577626
 11
229.925638
 21
126.511956
  0
LINE
  8
CSLAYER17
  6
CONTINUOUS
 62
     6
 10
229.925638
 20
126.511956
 11
229.873215
 21
126.446118
  0
LINE
  8
CSLAYER17
  6
CONTINUOUS
 62
     6
 10
229.873215
 20
126.446118
 11
229.820913
 21
126.380169
  0
LINE
  8
CSLAYER17
  6
CONTINUOUS
 62
     6
 10
229.820913
 20
126.380169
 11
229.692358
 21
126.217752
  0
LINE
  8
CSLAYER17
  6
CONTINUOUS
 62
     6
 10
229.692358
 20
126.217752
 11
229.721095
 21
126.170897
  0
LINE
  8
CSLAYER17
  6
CONTINUOUS
 62
     6
 10
229.721095
 20
126.170897
 11
229.761687
 21
126.111016
  0
LINE
  8
CSLAYER17
  6
CONTINUOUS
 62
     6
 10
229.761687
 20
126.111016
 11
229.805969
 21
126.051148
  0
LINE
  8
CSLAYER17
  6
CONTINUOUS
 62
     6
 10
229.805969
 20
126.051148
 11
229.853421
 21
125.991875
  0
LINE
  8
CSLAYER17
  6
CONTINUOUS
 62
     6
 10
229.853421
 20
125.991875
 11
229.903519
 21
125.933777
  0
LINE
  8
CSLAYER17
  6
CONTINUOUS
 62
     6
 10
229.903519
 20
125.933777
 11
229.955744
 21
125.877436
  0
LINE
  8
CSLAYER17
  6
CONTINUOUS
 62
     6
 10
229.955744
 20
125.877436
 11
230.009572
 21
125.823433
  0
LINE
  8
CSLAYER17
  6
CONTINUOUS
 62
     6
 10
230.009572
 20
125.823433
 11
230.064483
 21
125.772348
  0
LINE
  8
CSLAYER17
  6
CONTINUOUS
 62
     6
 10
230.064483
 20
125.772348
 11
230.119954
 21
125.724762
  0
LINE
  8
CSLAYER17
  6
CONTINUOUS
 62
     6
 10
230.119954
 20
125.724762
 11
230.175464
 21
125.681257
  0
LINE
  8
CSLAYER17
  6
CONTINUOUS
 62
     6
 10
230.175464
 20
125.681257
 11
230.230492
 21
125.642412
  0
LINE
  8
CSLAYER17
  6
CONTINUOUS
 62
     6
 10
230.230492
 20
125.642412
 11
230.286978
 21
125.608118
  0
LINE
  8
CSLAYER17
  6
CONTINUOUS
 62
     6
 10
230.286978
 20
125.608118
 11
230.347579
 21
125.577151
  0
LINE
  8
CSLAYER17
  6
CONTINUOUS
 62
     6
 10
230.347579
 20
125.577151
 11
230.411740
 21
125.549162
  0
LINE
  8
CSLAYER17
  6
CONTINUOUS
 62
     6
 10
230.411740
 20
125.549162
 11
230.478902
 21
125.523801
  0
LINE
  8
CSLAYER17
  6
CONTINUOUS
 62
     6
 10
230.478902
 20
125.523801
 11
230.548509
 21
125.500719
  0
LINE
  8
CSLAYER17
  6
CONTINUOUS
 62
     6
 10
230.548509
 20
125.500719
 11
230.620003
 21
125.479565
  0
LINE
  8
CSLAYER17
  6
CONTINUOUS
 62
     6
 10
230.620003
 20
125.479565
 11
230.692827
 21
125.459991
  0
LINE
  8
CSLAYER17
  6
CONTINUOUS
 62
     6
 10
230.692827
 20
125.459991
 11
230.766426
 21
125.441646
  0
LINE
  8
CSLAYER17
  6
CONTINUOUS
 62
     6
 10
230.766426
 20
125.441646
 11
230.840240
 21
125.424180
  0
LINE
  8
CSLAYER17
  6
CONTINUOUS
 62
     6
 10
230.840240
 20
125.424180
 11
230.913714
 21
125.407245
  0
LINE
  8
CSLAYER17
  6
CONTINUOUS
 62
     6
 10
230.913714
 20
125.407245
 11
230.986291
 21
125.390490
  0
LINE
  8
CSLAYER17
  6
CONTINUOUS
 62
     6
 10
230.986291
 20
125.390490
 11
231.060514
 21
125.372890
  0
LINE
  8
CSLAYER17
  6
CONTINUOUS
 62
     6
 10
231.060514
 20
125.372890
 11
231.134250
 21
125.354865
  0
LINE
  8
CSLAYER17
  6
CONTINUOUS
 62
     6
 10
231.134250
 20
125.354865
 11
231.207546
 21
125.336459
  0
LINE
  8
CSLAYER17
  6
CONTINUOUS
 62
     6
 10
231.207546
 20
125.336459
 11
231.280452
 21
125.317713
  0
LINE
  8
CSLAYER17
  6
CONTINUOUS
 62
     6
 10
231.280452
 20
125.317713
 11
231.353016
 21
125.298671
  0
LINE
  8
CSLAYER17
  6
CONTINUOUS
 62
     6
 10
231.353016
 20
125.298671
 11
231.425287
 21
125.279375
  0
LINE
  8
CSLAYER17
  6
CONTINUOUS
 62
     6
 10
231.425287
 20
125.279375
 11
231.497314
 21
125.259866
  0
LINE
  8
CSLAYER17
  6
CONTINUOUS
 62
     6
 10
231.497314
 20
125.259866
 11
231.569146
 21
125.240188
  0
LINE
  8
CSLAYER17
  6
CONTINUOUS
 62
     6
 10
231.569146
 20
125.240188
 11
231.640832
 21
125.220382
  0
LINE
  8
CSLAYER17
  6
CONTINUOUS
 62
     6
 10
231.640832
 20
125.220382
 11
231.712420
 21
125.200492
  0
LINE
  8
CSLAYER17
  6
CONTINUOUS
 62
     6
 10
231.712420
 20
125.200492
 11
231.793039
 21
125.178029
  0
LINE
  8
CSLAYER17
  6
CONTINUOUS
 62
     6
 10
231.793039
 20
125.178029
 11
231.920294
 21
125.350179
  0
LINE
  8
CSLAYER17
  6
CONTINUOUS
 62
     6
 10
231.920294
 20
125.350179
 11
232.015074
 21
125.477341
  0
LINE
  8
CSLAYER17
  6
CONTINUOUS
 62
     6
 10
232.015074
 20
125.477341
 11
232.110725
 21
125.603573
  0
LINE
  8
CSLAYER17
  6
CONTINUOUS
 62
     6
 10
232.110725
 20
125.603573
 11
232.207684
 21
125.728409
  0
LINE
  8
CSLAYER17
  6
CONTINUOUS
 62
     6
 10
232.207684
 20
125.728409
 11
232.306386
 21
125.851384
  0
LINE
  8
CSLAYER17
  6
CONTINUOUS
 62
     6
 10
232.306386
 20
125.851384
 11
232.407268
 21
125.972032
  0
LINE
  8
CSLAYER17
  6
CONTINUOUS
 62
     6
 10
232.407268
 20
125.972032
 11
232.510764
 21
126.089889
  0
LINE
  8
CSLAYER17
  6
CONTINUOUS
 62
     6
 10
232.510764
 20
126.089889
 11
232.617311
 21
126.204489
  0
LINE
  8
CSLAYER17
  6
CONTINUOUS
 62
     6
 10
232.617311
 20
126.204489
 11
232.727346
 21
126.315367
  0
LINE
  8
CSLAYER17
  6
CONTINUOUS
 62
     6
 10
232.727346
 20
126.315367
 11
232.841302
 21
126.422058
  0
LINE
  8
CSLAYER17
  6
CONTINUOUS
 62
     6
 10
232.841302
 20
126.422058
 11
232.959618
 21
126.524096
  0
LINE
  8
CSLAYER17
  6
CONTINUOUS
 62
     6
 10
232.959618
 20
126.524096
 11
233.111042
 21
126.643134
  0
LINE
  8
CSLAYER17
  6
CONTINUOUS
 62
     6
 10
233.111042
 20
126.643134
 11
233.269282
 21
126.757646
  0
LINE
  8
CSLAYER17
  6
CONTINUOUS
 62
     6
 10
233.269282
 20
126.757646
 11
233.432403
 21
126.868586
  0
LINE
  8
CSLAYER17
  6
CONTINUOUS
 62
     6
 10
233.432403
 20
126.868586
 11
233.598471
 21
126.976904
  0
LINE
  8
CSLAYER17
  6
CONTINUOUS
 62
     6
 10
233.598471
 20
126.976904
 11
233.765553
 21
127.083554
  0
LINE
  8
CSLAYER17
  6
CONTINUOUS
 62
     6
 10
233.765553
 20
127.083554
 11
233.931714
 21
127.189487
  0
LINE
  8
CSLAYER17
  6
CONTINUOUS
 62
     6
 10
233.931714
 20
127.189487
 11
234.095020
 21
127.295654
  0
LINE
  8
CSLAYER17
  6
CONTINUOUS
 62
     6
 10
234.095020
 20
127.295654
 11
234.253538
 21
127.403009
  0
LINE
  8
CSLAYER17
  6
CONTINUOUS
 62
     6
 10
234.253538
 20
127.403009
 11
234.405334
 21
127.512503
  0
LINE
  8
CSLAYER17
  6
CONTINUOUS
 62
     6
 10
234.405334
 20
127.512503
 11
234.548473
 21
127.625089
  0
LINE
  8
CSLAYER17
  6
CONTINUOUS
 62
     6
 10
234.548473
 20
127.625089
 11
234.681023
 21
127.741717
  0
LINE
  8
CSLAYER17
  6
CONTINUOUS
 62
     6
 10
234.681023
 20
127.741717
 11
234.784028
 21
127.844732
  0
LINE
  8
CSLAYER17
  6
CONTINUOUS
 62
     6
 10
234.784028
 20
127.844732
 11
234.885691
 21
127.958167
  0
LINE
  8
CSLAYER17
  6
CONTINUOUS
 62
     6
 10
234.885691
 20
127.958167
 11
234.985446
 21
128.080335
  0
LINE
  8
CSLAYER17
  6
CONTINUOUS
 62
     6
 10
234.985446
 20
128.080335
 11
235.082724
 21
128.209544
  0
LINE
  8
CSLAYER17
  6
CONTINUOUS
 62
     6
 10
235.082724
 20
128.209544
 11
235.176959
 21
128.344104
  0
LINE
  8
CSLAYER17
  6
CONTINUOUS
 62
     6
 10
235.176959
 20
128.344104
 11
235.267583
 21
128.482325
  0
LINE
  8
CSLAYER17
  6
CONTINUOUS
 62
     6
 10
235.267583
 20
128.482325
 11
235.354029
 21
128.622519
  0
LINE
  8
CSLAYER17
  6
CONTINUOUS
 62
     6
 10
235.354029
 20
128.622519
 11
235.435730
 21
128.762993
  0
LINE
  8
CSLAYER17
  6
CONTINUOUS
 62
     6
 10
235.435730
 20
128.762993
 11
235.512119
 21
128.902060
  0
LINE
  8
CSLAYER17
  6
CONTINUOUS
 62
     6
 10
235.512119
 20
128.902060
 11
235.582628
 21
129.038028
  0
LINE
  8
CSLAYER17
  6
CONTINUOUS
 62
     6
 10
235.582628
 20
129.038028
 11
235.687889
 21
129.253568
  0
ARC
  8
CSLAYER17
  6
CONTINUOUS
 62
     6
 10
234.761778
 20
128.697490
 40
1.080690
 50
30.945197
 51
90.945197
  0
ARC
  8
CSLAYER17
  6
CONTINUOUS
 62
     6
 10
233.817087
 20
129.222323
 40
1.080690
 50
30.945197
 51
90.945197
  0
ARC
  8
CSLAYER17
  6
CONTINUOUS
 62
     6
 10
234.726123
 20
130.858576
 40
1.080690
 50
210.945197
 51
270.945197
  0
LINE
  8
CSLAYER17
  6
CONTINUOUS
 62
     6
 10
233.799279
 20
130.302843
 11
233.654576
 21
130.163497
  0
LINE
  8
CSLAYER17
  6
CONTINUOUS
 62
     6
 10
233.654576
 20
130.163497
 11
233.500661
 21
130.013747
  0
LINE
  8
CSLAYER17
  6
CONTINUOUS
 62
     6
 10
233.500661
 20
130.013747
 11
233.339311
 21
129.855919
  0
LINE
  8
CSLAYER17
  6
CONTINUOUS
 62
     6
 10
233.339311
 20
129.855919
 11
233.172300
 21
129.692337
  0
ARC
  8
CSLAYER17
  6
CONTINUOUS
 62
     6
 10
236.273219
 20
131.706691
 40
1.095863
 50
203.568976
 51
263.568976
  0
ARC
  8
CSLAYER17
  6
CONTINUOUS
 62
     6
 10
237.154920
 20
131.055908
 40
1.095863
 50
203.568976
 51
263.568976
  0
ARC
  8
CSLAYER17
  6
CONTINUOUS
 62
     6
 10
236.027730
 20
129.528757
 40
1.095863
 50
23.568976
 51
83.568976
  0
LINE
  8
CSLAYER17
  6
CONTINUOUS
 62
     6
 10
235.521903
 20
131.448478
 11
235.268792
 21
131.268511
  0
LINE
  8
CSLAYER17
  6
CONTINUOUS
 62
     6
 10
235.521903
 20
131.448478
 11
235.774764
 21
131.628798
  0
LINE
  8
CSLAYER17
  6
CONTINUOUS
 62
     6
 10
235.774764
 20
131.628798
 11
236.027124
 21
131.809824
  0
LINE
  8
CSLAYER17
  6
CONTINUOUS
 62
     6
 10
236.027124
 20
131.809824
 11
236.278732
 21
131.991908
  0
LINE
  8
CSLAYER17
  6
CONTINUOUS
 62
     6
 10
236.278732
 20
131.991908
 11
236.529338
 21
132.175403
  0
LINE
  8
CSLAYER17
  6
CONTINUOUS
 62
     6
 10
236.529338
 20
132.175403
 11
236.778690
 21
132.360662
  0
LINE
  8
CSLAYER17
  6
CONTINUOUS
 62
     6
 10
236.778690
 20
132.360662
 11
237.026539
 21
132.548037
  0
LINE
  8
CSLAYER17
  6
CONTINUOUS
 62
     6
 10
237.026539
 20
132.548037
 11
237.272634
 21
132.737882
  0
LINE
  8
CSLAYER17
  6
CONTINUOUS
 62
     6
 10
237.272634
 20
132.737882
 11
237.516724
 21
132.930550
  0
LINE
  8
CSLAYER17
  6
CONTINUOUS
 62
     6
 10
237.516724
 20
132.930550
 11
237.758558
 21
133.126392
  0
LINE
  8
CSLAYER17
  6
CONTINUOUS
 62
     6
 10
237.758558
 20
133.126392
 11
237.997887
 21
133.325762
  0
LINE
  8
CSLAYER17
  6
CONTINUOUS
 62
     6
 10
237.997887
 20
133.325762
 11
238.155151
 21
133.460059
  0
LINE
  8
CSLAYER17
  6
CONTINUOUS
 62
     6
 10
238.155151
 20
133.460059
 11
238.312201
 21
133.597083
  0
LINE
  8
CSLAYER17
  6
CONTINUOUS
 62
     6
 10
238.312201
 20
133.597083
 11
238.468292
 21
133.736643
  0
LINE
  8
CSLAYER17
  6
CONTINUOUS
 62
     6
 10
238.468292
 20
133.736643
 11
238.622681
 21
133.878545
  0
LINE
  8
CSLAYER17
  6
CONTINUOUS
 62
     6
 10
238.622681
 20
133.878545
 11
238.774626
 21
134.022598
  0
LINE
  8
CSLAYER17
  6
CONTINUOUS
 62
     6
 10
238.774626
 20
134.022598
 11
238.923382
 21
134.168608
  0
LINE
  8
CSLAYER17
  6
CONTINUOUS
 62
     6
 10
238.923382
 20
134.168608
 11
239.068209
 21
134.316383
  0
LINE
  8
CSLAYER17
  6
CONTINUOUS
 62
     6
 10
239.068209
 20
134.316383
 11
239.208361
 21
134.465730
  0
LINE
  8
CSLAYER17
  6
CONTINUOUS
 62
     6
 10
239.208361
 20
134.465730
 11
239.343097
 21
134.616458
  0
LINE
  8
CSLAYER17
  6
CONTINUOUS
 62
     6
 10
239.343097
 20
134.616458
 11
239.471673
 21
134.768372
  0
LINE
  8
CSLAYER17
  6
CONTINUOUS
 62
     6
 10
239.471673
 20
134.768372
 11
239.593346
 21
134.921282
  0
LINE
  8
CSLAYER17
  6
CONTINUOUS
 62
     6
 10
239.593346
 20
134.921282
 11
239.707800
 21
135.072608
  0
LINE
  8
CSLAYER17
  6
CONTINUOUS
 62
     6
 10
239.707800
 20
135.072608
 11
239.823101
 21
135.229862
  0
LINE
  8
CSLAYER17
  6
CONTINUOUS
 62
     6
 10
239.823101
 20
135.229862
 11
239.938714
 21
135.391920
  0
LINE
  8
CSLAYER17
  6
CONTINUOUS
 62
     6
 10
239.938714
 20
135.391920
 11
240.054107
 21
135.557660
  0
LINE
  8
CSLAYER17
  6
CONTINUOUS
 62
     6
 10
240.054107
 20
135.557660
 11
240.168747
 21
135.725959
  0
LINE
  8
CSLAYER17
  6
CONTINUOUS
 62
     6
 10
240.168747
 20
135.725959
 11
240.282101
 21
135.895695
  0
LINE
  8
CSLAYER17
  6
CONTINUOUS
 62
     6
 10
240.282101
 20
135.895695
 11
240.393637
 21
136.065746
  0
LINE
  8
CSLAYER17
  6
CONTINUOUS
 62
     6
 10
240.393637
 20
136.065746
 11
240.502821
 21
136.234988
  0
LINE
  8
CSLAYER17
  6
CONTINUOUS
 62
     6
 10
240.502821
 20
136.234988
 11
240.609121
 21
136.402300
  0
LINE
  8
CSLAYER17
  6
CONTINUOUS
 62
     6
 10
240.609121
 20
136.402300
 11
240.712004
 21
136.566558
  0
LINE
  8
CSLAYER17
  6
CONTINUOUS
 62
     6
 10
240.712004
 20
136.566558
 11
240.810937
 21
136.726641
  0
LINE
  8
CSLAYER17
  6
CONTINUOUS
 62
     6
 10
240.810937
 20
136.726641
 11
240.897410
 21
136.864867
  0
LINE
  8
CSLAYER17
  6
CONTINUOUS
 62
     6
 10
240.897410
 20
136.864867
 11
240.989362
 21
137.007325
  0
LINE
  8
CSLAYER17
  6
CONTINUOUS
 62
     6
 10
240.989362
 20
137.007325
 11
241.085562
 21
137.152805
  0
LINE
  8
CSLAYER17
  6
CONTINUOUS
 62
     6
 10
241.085562
 20
137.152805
 11
241.184781
 21
137.300095
  0
LINE
  8
CSLAYER17
  6
CONTINUOUS
 62
     6
 10
241.184781
 20
137.300095
 11
241.285789
 21
137.447985
  0
LINE
  8
CSLAYER17
  6
CONTINUOUS
 62
     6
 10
241.285789
 20
137.447985
 11
241.387357
 21
137.595264
  0
LINE
  8
CSLAYER17
  6
CONTINUOUS
 62
     6
 10
241.387357
 20
137.595264
 11
241.488255
 21
137.740720
  0
LINE
  8
CSLAYER17
  6
CONTINUOUS
 62
     6
 10
241.488255
 20
137.740720
 11
241.587254
 21
137.883144
  0
LINE
  8
CSLAYER17
  6
CONTINUOUS
 62
     6
 10
241.587254
 20
137.883144
 11
241.683124
 21
138.021324
  0
LINE
  8
CSLAYER17
  6
CONTINUOUS
 62
     6
 10
241.683124
 20
138.021324
 11
241.803665
 21
138.196154
  0
ARC
  8
CSLAYER17
  6
CONTINUOUS
 62
     6
 10
239.538462
 20
140.196154
 40
2.000000
 50
180.000000
 51
270.000000
  0
LINE
  8
CSLAYER17
  6
CONTINUOUS
 62
     6
 10
237.538462
 20
140.196154
 11
237.538462
 21
140.696154
  0
LINE
  8
CSLAYER17
  6
CONTINUOUS
 62
     6
 10
237.288462
 20
140.696154
 11
263.288462
 21
140.696154
  0
LINE
  8
CSLAYER17
  6
CONTINUOUS
 62
     6
 10
263.288462
 20
142.696154
 11
237.288462
 21
142.696154
  0
LINE
  8
CSLAYER17
  6
CONTINUOUS
 62
     6
 10
239.538462
 20
138.196154
 11
248.627087
 21
138.196154
  0
ARC
  8
CSLAYER17
  6
CONTINUOUS
 62
     6
 10
250.288462
 20
144.996142
 40
7.000000
 50
253.743003
 51
286.257026
  0
ARC
  8
CSLAYER17
  6
CONTINUOUS
 62
     6
 10
251.968119
 20
139.236071
 40
1.000000
 50
286.257408
 51
354.999902
  0
LINE
  8
CSLAYER17
  6
CONTINUOUS
 62
     6
 10
252.964304
 20
139.148913
 11
253.019419
 21
139.778734
  0
ARC
  8
CSLAYER17
  6
CONTINUOUS
 62
     6
 10
252.820200
 20
139.796160
 40
0.200000
 50
-5.000126
 51
90.000019
  0
LINE
  8
CSLAYER17
  6
CONTINUOUS
 62
     6
 10
253.088449
 20
139.996172
 11
250.288462
 21
139.996142
  0
LINE
  8
CSLAYER17
  6
CONTINUOUS
 62
     6
 10
250.288462
 20
139.996142
 11
247.488474
 21
139.996142
  0
ARC
  8
CSLAYER17
  6
CONTINUOUS
 62
     6
 10
247.488474
 20
140.096148
 40
0.100000
 50
180.000005
 51
270.000001
  0
LINE
  8
CSLAYER17
  6
CONTINUOUS
 62
     6
 10
247.388437
 20
140.096148
 11
247.388437
 21
140.596148
  0
ARC
  8
CSLAYER17
  6
CONTINUOUS
 62
     6
 10
247.488474
 20
140.596148
 40
0.100000
 50
90.000003
 51
180.000005
  0
ARC
  8
CSLAYER17
  6
CONTINUOUS
 62
     6
 10
247.756723
 20
139.796160
 40
0.200000
 50
90.000003
 51
185.000154
  0
LINE
  8
CSLAYER17
  6
CONTINUOUS
 62
     6
 10
247.557474
 20
139.778734
 11
247.612558
 21
139.148913
  0
ARC
  8
CSLAYER17
  6
CONTINUOUS
 62
     6
 10
248.608774
 20
139.236071
 40
1.000000
 50
185.000113
 51
253.742620
  0
LINE
  8
CSLAYER17
  6
CONTINUOUS
 62
     6
 10
246.717084
 20
138.196154
 11
246.551966
 21
137.178110
  0
LINE
  8
CSLAYER17
  6
CONTINUOUS
 62
     6
 10
246.551966
 20
137.178110
 11
246.493831
 21
136.855683
  0
LINE
  8
CSLAYER17
  6
CONTINUOUS
 62
     6
 10
246.493831
 20
136.855683
 11
246.428978
 21
136.523873
  0
LINE
  8
CSLAYER17
  6
CONTINUOUS
 62
     6
 10
246.428978
 20
136.523873
 11
246.358603
 21
136.186077
  0
LINE
  8
CSLAYER17
  6
CONTINUOUS
 62
     6
 10
246.358603
 20
136.186077
 11
246.283900
 21
135.845689
  0
LINE
  8
CSLAYER17
  6
CONTINUOUS
 62
     6
 10
246.283900
 20
135.845689
 11
246.206063
 21
135.506105
  0
LINE
  8
CSLAYER17
  6
CONTINUOUS
 62
     6
 10
246.206063
 20
135.506105
 11
246.126290
 21
135.170720
  0
LINE
  8
CSLAYER17
  6
CONTINUOUS
 62
     6
 10
246.126290
 20
135.170720
 11
246.045773
 21
134.842929
  0
LINE
  8
CSLAYER17
  6
CONTINUOUS
 62
     6
 10
246.045773
 20
134.842929
 11
245.965709
 21
134.526128
  0
LINE
  8
CSLAYER17
  6
CONTINUOUS
 62
     6
 10
245.965709
 20
134.526128
 11
245.887292
 21
134.223711
  0
LINE
  8
CSLAYER17
  6
CONTINUOUS
 62
     6
 10
245.887292
 20
134.223711
 11
245.803919
 21
133.923961
  0
LINE
  8
CSLAYER17
  6
CONTINUOUS
 62
     6
 10
245.803919
 20
133.923961
 11
245.710006
 21
133.618437
  0
LINE
  8
CSLAYER17
  6
CONTINUOUS
 62
     6
 10
245.710006
 20
133.618437
 11
245.606421
 21
133.308397
  0
LINE
  8
CSLAYER17
  6
CONTINUOUS
 62
     6
 10
245.606421
 20
133.308397
 11
245.494032
 21
132.995102
  0
LINE
  8
CSLAYER17
  6
CONTINUOUS
 62
     6
 10
245.494032
 20
132.995102
 11
245.373710
 21
132.679811
  0
LINE
  8
CSLAYER17
  6
CONTINUOUS
 62
     6
 10
245.373710
 20
132.679811
 11
245.246324
 21
132.363782
  0
LINE
  8
CSLAYER17
  6
CONTINUOUS
 62
     6
 10
245.246324
 20
132.363782
 11
245.112741
 21
132.048277
  0
LINE
  8
CSLAYER17
  6
CONTINUOUS
 62
     6
 10
245.112741
 20
132.048277
 11
244.973832
 21
131.734553
  0
LINE
  8
CSLAYER17
  6
CONTINUOUS
 62
     6
 10
244.973832
 20
131.734553
 11
244.830466
 21
131.423871
  0
LINE
  8
CSLAYER17
  6
CONTINUOUS
 62
     6
 10
244.830466
 20
131.423871
 11
244.683511
 21
131.117489
  0
LINE
  8
CSLAYER17
  6
CONTINUOUS
 62
     6
 10
244.683511
 20
131.117489
 11
244.533837
 21
130.816668
  0
LINE
  8
CSLAYER17
  6
CONTINUOUS
 62
     6
 10
244.533837
 20
130.816668
 11
244.406492
 21
130.569048
  0
LINE
  8
CSLAYER17
  6
CONTINUOUS
 62
     6
 10
244.406492
 20
130.569048
 11
244.276340
 21
130.323014
  0
LINE
  8
CSLAYER17
  6
CONTINUOUS
 62
     6
 10
244.276340
 20
130.323014
 11
244.143661
 21
130.078408
  0
LINE
  8
CSLAYER17
  6
CONTINUOUS
 62
     6
 10
244.143661
 20
130.078408
 11
244.008736
 21
129.835071
  0
LINE
  8
CSLAYER17
  6
CONTINUOUS
 62
     6
 10
244.008736
 20
129.835071
 11
243.871846
 21
129.592844
  0
LINE
  8
CSLAYER17
  6
CONTINUOUS
 62
     6
 10
243.871846
 20
129.592844
 11
243.733271
 21
129.351569
  0
LINE
  8
CSLAYER17
  6
CONTINUOUS
 62
     6
 10
243.733271
 20
129.351569
 11
243.593293
 21
129.111087
  0
LINE
  8
CSLAYER17
  6
CONTINUOUS
 62
     6
 10
243.593293
 20
129.111087
 11
243.452191
 21
128.871240
  0
LINE
  8
CSLAYER17
  6
CONTINUOUS
 62
     6
 10
243.452191
 20
128.871240
 11
243.310248
 21
128.631868
  0
LINE
  8
CSLAYER17
  6
CONTINUOUS
 62
     6
 10
243.310248
 20
128.631868
 11
243.167743
 21
128.392814
  0
LINE
  8
CSLAYER17
  6
CONTINUOUS
 62
     6
 10
243.167743
 20
128.392814
 11
243.024957
 21
128.153918
  0
ARC
  8
CSLAYER17
  6
CONTINUOUS
 62
     6
 10
243.015291
 20
129.353886
 40
1.200008
 50
210.461486
 51
270.461486
  0
ARC
  8
CSLAYER17
  6
CONTINUOUS
 62
     6
 10
241.971254
 20
129.945500
 40
1.200008
 50
210.461486
 51
270.461486
  0
LINE
  8
CSLAYER17
  6
CONTINUOUS
 62
     6
 10
240.936852
 20
129.337145
 11
241.072133
 21
129.563067
  0
LINE
  8
CSLAYER17
  6
CONTINUOUS
 62
     6
 10
241.072133
 20
129.563067
 11
241.207140
 21
129.789143
  0
LINE
  8
CSLAYER17
  6
CONTINUOUS
 62
     6
 10
241.207140
 20
129.789143
 11
241.341596
 21
130.015529
  0
LINE
  8
CSLAYER17
  6
CONTINUOUS
 62
     6
 10
241.341596
 20
130.015529
 11
241.475226
 21
130.242379
  0
LINE
  8
CSLAYER17
  6
CONTINUOUS
 62
     6
 10
241.475226
 20
130.242379
 11
241.607756
 21
130.469847
  0
LINE
  8
CSLAYER17
  6
CONTINUOUS
 62
     6
 10
241.607756
 20
130.469847
 11
241.738909
 21
130.698089
  0
LINE
  8
CSLAYER17
  6
CONTINUOUS
 62
     6
 10
241.738909
 20
130.698089
 11
241.868412
 21
130.927259
  0
LINE
  8
CSLAYER17
  6
CONTINUOUS
 62
     6
 10
241.868412
 20
130.927259
 11
241.995987
 21
131.157511
  0
LINE
  8
CSLAYER17
  6
CONTINUOUS
 62
     6
 10
241.995987
 20
131.157511
 11
242.121361
 21
131.389000
  0
LINE
  8
CSLAYER17
  6
CONTINUOUS
 62
     6
 10
242.121361
 20
131.389000
 11
242.244259
 21
131.621882
  0
LINE
  8
CSLAYER17
  6
CONTINUOUS
 62
     6
 10
242.244259
 20
131.621882
 11
242.364404
 21
131.856310
  0
LINE
  8
CSLAYER17
  6
CONTINUOUS
 62
     6
 10
242.364404
 20
131.856310
 11
242.498645
 21
132.127115
  0
LINE
  8
CSLAYER17
  6
CONTINUOUS
 62
     6
 10
242.498645
 20
132.127115
 11
242.630508
 21
132.402880
  0
LINE
  8
CSLAYER17
  6
CONTINUOUS
 62
     6
 10
242.630508
 20
132.402880
 11
242.759215
 21
132.682474
  0
LINE
  8
CSLAYER17
  6
CONTINUOUS
 62
     6
 10
242.759215
 20
132.682474
 11
242.883989
 21
132.964764
  0
LINE
  8
CSLAYER17
  6
CONTINUOUS
 62
     6
 10
242.883989
 20
132.964764
 11
243.004052
 21
133.248620
  0
LINE
  8
CSLAYER17
  6
CONTINUOUS
 62
     6
 10
243.004052
 20
133.248620
 11
243.118627
 21
133.532910
  0
LINE
  8
CSLAYER17
  6
CONTINUOUS
 62
     6
 10
243.118627
 20
133.532910
 11
243.226936
 21
133.816503
  0
LINE
  8
CSLAYER17
  6
CONTINUOUS
 62
     6
 10
243.226936
 20
133.816503
 11
243.328202
 21
134.098268
  0
LINE
  8
CSLAYER17
  6
CONTINUOUS
 62
     6
 10
243.328202
 20
134.098268
 11
243.421646
 21
134.377074
  0
LINE
  8
CSLAYER17
  6
CONTINUOUS
 62
     6
 10
243.421646
 20
134.377074
 11
243.506493
 21
134.651789
  0
LINE
  8
CSLAYER17
  6
CONTINUOUS
 62
     6
 10
243.506493
 20
134.651789
 11
243.581963
 21
134.921282
  0
LINE
  8
CSLAYER17
  6
CONTINUOUS
 62
     6
 10
243.581963
 20
134.921282
 11
243.656503
 21
135.206721
  0
LINE
  8
CSLAYER17
  6
CONTINUOUS
 62
     6
 10
243.656503
 20
135.206721
 11
243.732511
 21
135.505900
  0
LINE
  8
CSLAYER17
  6
CONTINUOUS
 62
     6
 10
243.732511
 20
135.505900
 11
243.808854
 21
135.815565
  0
LINE
  8
CSLAYER17
  6
CONTINUOUS
 62
     6
 10
243.808854
 20
135.815565
 11
243.884400
 21
136.132465
  0
LINE
  8
CSLAYER17
  6
CONTINUOUS
 62
     6
 10
243.884400
 20
136.132465
 11
243.958016
 21
136.453347
  0
LINE
  8
CSLAYER17
  6
CONTINUOUS
 62
     6
 10
243.958016
 20
136.453347
 11
244.028569
 21
136.774958
  0
LINE
  8
CSLAYER17
  6
CONTINUOUS
 62
     6
 10
244.028569
 20
136.774958
 11
244.094926
 21
137.094046
  0
LINE
  8
CSLAYER17
  6
CONTINUOUS
 62
     6
 10
244.094926
 20
137.094046
 11
244.155954
 21
137.407357
  0
LINE
  8
CSLAYER17
  6
CONTINUOUS
 62
     6
 10
244.155954
 20
137.407357
 11
244.210521
 21
137.711640
  0
LINE
  8
CSLAYER17
  6
CONTINUOUS
 62
     6
 10
244.210521
 20
137.711640
 11
244.288462
 21
138.196154
  0
LINE
  8
CSLAYER17
  6
CONTINUOUS
 62
     6
 10
244.160061
 20
137.430260
 11
244.111815
 21
137.342426
  0
LINE
  8
CSLAYER17
  6
CONTINUOUS
 62
     6
 10
244.111815
 20
137.342426
 11
244.001927
 21
137.150617
  0
LINE
  8
CSLAYER17
  6
CONTINUOUS
 62
     6
 10
244.001927
 20
137.150617
 11
243.883673
 21
136.951130
  0
LINE
  8
CSLAYER17
  6
CONTINUOUS
 62
     6
 10
243.883673
 20
136.951130
 11
243.758635
 21
136.746150
  0
LINE
  8
CSLAYER17
  6
CONTINUOUS
 62
     6
 10
243.758635
 20
136.746150
 11
243.628394
 21
136.537864
  0
LINE
  8
CSLAYER17
  6
CONTINUOUS
 62
     6
 10
243.628394
 20
136.537864
 11
243.494531
 21
136.328459
  0
LINE
  8
CSLAYER17
  6
CONTINUOUS
 62
     6
 10
243.494531
 20
136.328459
 11
243.358629
 21
136.120119
  0
LINE
  8
CSLAYER17
  6
CONTINUOUS
 62
     6
 10
243.358629
 20
136.120119
 11
243.222269
 21
135.915032
  0
LINE
  8
CSLAYER17
  6
CONTINUOUS
 62
     6
 10
243.222269
 20
135.915032
 11
243.087032
 21
135.715382
  0
LINE
  8
CSLAYER17
  6
CONTINUOUS
 62
     6
 10
243.087032
 20
135.715382
 11
242.954501
 21
135.523357
  0
LINE
  8
CSLAYER17
  6
CONTINUOUS
 62
     6
 10
242.954501
 20
135.523357
 11
242.826257
 21
135.341143
  0
LINE
  8
CSLAYER17
  6
CONTINUOUS
 62
     6
 10
242.826257
 20
135.341143
 11
242.721176
 21
135.196964
  0
LINE
  8
CSLAYER17
  6
CONTINUOUS
 62
     6
 10
242.721176
 20
135.196964
 11
242.609285
 21
135.049914
  0
LINE
  8
CSLAYER17
  6
CONTINUOUS
 62
     6
 10
242.609285
 20
135.049914
 11
242.491717
 21
134.900892
  0
LINE
  8
CSLAYER17
  6
CONTINUOUS
 62
     6
 10
242.491717
 20
134.900892
 11
242.369604
 21
134.750798
  0
LINE
  8
CSLAYER17
  6
CONTINUOUS
 62
     6
 10
242.369604
 20
134.750798
 11
242.244078
 21
134.600530
  0
LINE
  8
CSLAYER17
  6
CONTINUOUS
 62
     6
 10
242.244078
 20
134.600530
 11
242.116272
 21
134.450987
  0
LINE
  8
CSLAYER17
  6
CONTINUOUS
 62
     6
 10
242.116272
 20
134.450987
 11
241.987319
 21
134.303069
  0
LINE
  8
CSLAYER17
  6
CONTINUOUS
 62
     6
 10
241.987319
 20
134.303069
 11
241.858352
 21
134.157674
  0
LINE
  8
CSLAYER17
  6
CONTINUOUS
 62
     6
 10
241.858352
 20
134.157674
 11
241.730503
 21
134.015702
  0
LINE
  8
CSLAYER17
  6
CONTINUOUS
 62
     6
 10
241.730503
 20
134.015702
 11
241.604905
 21
133.878052
  0
LINE
  8
CSLAYER17
  6
CONTINUOUS
 62
     6
 10
241.604905
 20
133.878052
 11
241.482690
 21
133.745623
  0
LINE
  8
CSLAYER17
  6
CONTINUOUS
 62
     6
 10
241.482690
 20
133.745623
 11
241.337713
 21
133.593463
  0
LINE
  8
CSLAYER17
  6
CONTINUOUS
 62
     6
 10
241.337713
 20
133.593463
 11
241.184538
 21
133.439512
  0
LINE
  8
CSLAYER17
  6
CONTINUOUS
 62
     6
 10
241.184538
 20
133.439512
 11
241.025129
 21
133.284079
  0
LINE
  8
CSLAYER17
  6
CONTINUOUS
 62
     6
 10
241.025129
 20
133.284079
 11
240.861453
 21
133.127471
  0
LINE
  8
CSLAYER17
  6
CONTINUOUS
 62
     6
 10
240.861453
 20
133.127471
 11
240.695473
 21
132.969997
  0
LINE
  8
CSLAYER17
  6
CONTINUOUS
 62
     6
 10
240.695473
 20
132.969997
 11
240.529155
 21
132.811966
  0
LINE
  8
CSLAYER17
  6
CONTINUOUS
 62
     6
 10
240.529155
 20
132.811966
 11
240.364465
 21
132.653686
  0
LINE
  8
CSLAYER17
  6
CONTINUOUS
 62
     6
 10
240.364465
 20
132.653686
 11
240.203367
 21
132.495466
  0
LINE
  8
CSLAYER17
  6
CONTINUOUS
 62
     6
 10
240.203367
 20
132.495466
 11
240.047828
 21
132.337614
  0
LINE
  8
CSLAYER17
  6
CONTINUOUS
 62
     6
 10
240.047828
 20
132.337614
 11
239.899812
 21
132.180438
  0
LINE
  8
CSLAYER17
  6
CONTINUOUS
 62
     6
 10
239.899812
 20
132.180438
 11
239.761285
 21
132.024248
  0
LINE
  8
CSLAYER17
  6
CONTINUOUS
 62
     6
 10
239.761285
 20
132.024248
 11
239.635370
 21
131.877666
  0
LINE
  8
CSLAYER17
  6
CONTINUOUS
 62
     6
 10
239.635370
 20
131.877666
 11
239.504560
 21
131.727487
  0
LINE
  8
CSLAYER17
  6
CONTINUOUS
 62
     6
 10
239.504560
 20
131.727487
 11
239.368958
 21
131.575268
  0
LINE
  8
CSLAYER17
  6
CONTINUOUS
 62
     6
 10
239.368958
 20
131.575268
 11
239.228664
 21
131.422563
  0
LINE
  8
CSLAYER17
  6
CONTINUOUS
 62
     6
 10
239.228664
 20
131.422563
 11
239.083781
 21
131.270930
  0
LINE
  8
CSLAYER17
  6
CONTINUOUS
 62
     6
 10
239.083781
 20
131.270930
 11
238.934410
 21
131.121923
  0
LINE
  8
CSLAYER17
  6
CONTINUOUS
 62
     6
 10
238.934410
 20
131.121923
 11
238.780654
 21
130.977099
  0
LINE
  8
CSLAYER17
  6
CONTINUOUS
 62
     6
 10
238.780654
 20
130.977099
 11
238.622613
 21
130.838014
  0
LINE
  8
CSLAYER17
  6
CONTINUOUS
 62
     6
 10
238.622613
 20
130.838014
 11
238.460390
 21
130.706224
  0
LINE
  8
CSLAYER17
  6
CONTINUOUS
 62
     6
 10
238.460390
 20
130.706224
 11
238.294086
 21
130.583284
  0
LINE
  8
CSLAYER17
  6
CONTINUOUS
 62
     6
 10
238.294086
 20
130.583284
 11
238.123803
 21
130.470751
  0
LINE
  8
CSLAYER17
  6
CONTINUOUS
 62
     6
 10
238.123803
 20
130.470751
 11
238.031069
 21
130.415325
  0
LINE
  8
CSLAYER17
  6
CONTINUOUS
 62
     6
 10
238.031069
 20
130.415325
 11
237.936476
 21
130.362648
  0
LINE
  8
CSLAYER17
  6
CONTINUOUS
 62
     6
 10
237.936476
 20
130.362648
 11
237.840212
 21
130.312447
  0
LINE
  8
CSLAYER17
  6
CONTINUOUS
 62
     6
 10
237.840212
 20
130.312447
 11
237.742461
 21
130.264446
  0
LINE
  8
CSLAYER17
  6
CONTINUOUS
 62
     6
 10
237.742461
 20
130.264446
 11
237.643409
 21
130.218369
  0
LINE
  8
CSLAYER17
  6
CONTINUOUS
 62
     6
 10
237.643409
 20
130.218369
 11
237.543242
 21
130.173943
  0
LINE
  8
CSLAYER17
  6
CONTINUOUS
 62
     6
 10
237.543242
 20
130.173943
 11
237.442146
 21
130.130891
  0
LINE
  8
CSLAYER17
  6
CONTINUOUS
 62
     6
 10
237.442146
 20
130.130891
 11
237.340307
 21
130.088940
  0
LINE
  8
CSLAYER17
  6
CONTINUOUS
 62
     6
 10
237.340307
 20
130.088940
 11
237.237911
 21
130.047814
  0
LINE
  8
CSLAYER17
  6
CONTINUOUS
 62
     6
 10
237.237911
 20
130.047814
 11
237.135143
 21
130.007237
  0
LINE
  8
CSLAYER17
  6
CONTINUOUS
 62
     6
 10
237.135143
 20
130.007237
 11
237.032189
 21
129.966936
  0
LINE
  8
CSLAYER17
  6
CONTINUOUS
 62
     6
 10
239.930953
 20
127.646304
 11
239.796152
 21
127.480992
  0
LINE
  8
CSLAYER17
  6
CONTINUOUS
 62
     6
 10
239.796152
 20
127.480992
 11
239.657595
 21
127.309339
  0
LINE
  8
CSLAYER17
  6
CONTINUOUS
 62
     6
 10
239.657595
 20
127.309339
 11
239.517319
 21
127.132918
  0
LINE
  8
CSLAYER17
  6
CONTINUOUS
 62
     6
 10
239.517319
 20
127.132918
 11
239.377361
 21
126.953300
  0
LINE
  8
CSLAYER17
  6
CONTINUOUS
 62
     6
 10
239.377361
 20
126.953300
 11
239.239758
 21
126.772056
  0
LINE
  8
CSLAYER17
  6
CONTINUOUS
 62
     6
 10
239.239758
 20
126.772056
 11
239.106546
 21
126.590760
  0
LINE
  8
CSLAYER17
  6
CONTINUOUS
 62
     6
 10
239.106546
 20
126.590760
 11
238.979762
 21
126.410983
  0
LINE
  8
CSLAYER17
  6
CONTINUOUS
 62
     6
 10
238.979762
 20
126.410983
 11
238.861443
 21
126.234297
  0
LINE
  8
CSLAYER17
  6
CONTINUOUS
 62
     6
 10
238.861443
 20
126.234297
 11
238.753625
 21
126.062273
  0
LINE
  8
CSLAYER17
  6
CONTINUOUS
 62
     6
 10
238.753625
 20
126.062273
 11
238.655986
 21
125.898512
  0
LINE
  8
CSLAYER17
  6
CONTINUOUS
 62
     6
 10
238.655986
 20
125.898512
 11
238.556356
 21
125.729245
  0
LINE
  8
CSLAYER17
  6
CONTINUOUS
 62
     6
 10
238.556356
 20
125.729245
 11
238.454530
 21
125.555774
  0
LINE
  8
CSLAYER17
  6
CONTINUOUS
 62
     6
 10
238.454530
 20
125.555774
 11
238.350300
 21
125.379401
  0
LINE
  8
CSLAYER17
  6
CONTINUOUS
 62
     6
 10
238.350300
 20
125.379401
 11
238.243460
 21
125.201428
  0
LINE
  8
CSLAYER17
  6
CONTINUOUS
 62
     6
 10
238.243460
 20
125.201428
 11
238.133803
 21
125.023159
  0
LINE
  8
CSLAYER17
  6
CONTINUOUS
 62
     6
 10
238.133803
 20
125.023159
 11
238.021122
 21
124.845894
  0
LINE
  8
CSLAYER17
  6
CONTINUOUS
 62
     6
 10
238.021122
 20
124.845894
 11
237.905212
 21
124.670936
  0
LINE
  8
CSLAYER17
  6
CONTINUOUS
 62
     6
 10
237.905212
 20
124.670936
 11
237.785864
 21
124.499588
  0
LINE
  8
CSLAYER17
  6
CONTINUOUS
 62
     6
 10
237.785864
 20
124.499588
 11
237.662874
 21
124.333152
  0
LINE
  8
CSLAYER17
  6
CONTINUOUS
 62
     6
 10
237.662874
 20
124.333152
 11
237.536034
 21
124.172930
  0
LINE
  8
CSLAYER17
  6
CONTINUOUS
 62
     6
 10
237.536034
 20
124.172930
 11
237.437213
 21
124.056417
  0
LINE
  8
CSLAYER17
  6
CONTINUOUS
 62
     6
 10
237.437213
 20
124.056417
 11
237.335000
 21
123.942658
  0
LINE
  8
CSLAYER17
  6
CONTINUOUS
 62
     6
 10
237.335000
 20
123.942658
 11
237.229736
 21
123.831377
  0
LINE
  8
CSLAYER17
  6
CONTINUOUS
 62
     6
 10
237.229736
 20
123.831377
 11
237.121759
 21
123.722299
  0
LINE
  8
CSLAYER17
  6
CONTINUOUS
 62
     6
 10
237.121759
 20
123.722299
 11
237.011408
 21
123.615148
  0
LINE
  8
CSLAYER17
  6
CONTINUOUS
 62
     6
 10
237.011408
 20
123.615148
 11
236.899023
 21
123.509650
  0
LINE
  8
CSLAYER17
  6
CONTINUOUS
 62
     6
 10
236.899023
 20
123.509650
 11
236.784942
 21
123.405528
  0
LINE
  8
CSLAYER17
  6
CONTINUOUS
 62
     6
 10
236.784942
 20
123.405528
 11
236.669504
 21
123.302507
  0
LINE
  8
CSLAYER17
  6
CONTINUOUS
 62
     6
 10
236.669504
 20
123.302507
 11
236.553049
 21
123.200313
  0
LINE
  8
CSLAYER17
  6
CONTINUOUS
 62
     6
 10
236.553049
 20
123.200313
 11
236.457023
 21
123.116985
  0
LINE
  8
CSLAYER17
  6
CONTINUOUS
 62
     6
 10
236.457023
 20
123.116985
 11
236.526170
 21
123.082456
  0
LINE
  8
CSLAYER17
  6
CONTINUOUS
 62
     6
 10
236.526170
 20
123.082456
 11
236.610646
 21
123.034840
  0
LINE
  8
CSLAYER17
  6
CONTINUOUS
 62
     6
 10
236.610646
 20
123.034840
 11
236.696579
 21
122.981090
  0
LINE
  8
CSLAYER17
  6
CONTINUOUS
 62
     6
 10
236.696579
 20
122.981090
 11
236.782698
 21
122.921865
  0
LINE
  8
CSLAYER17
  6
CONTINUOUS
 62
     6
 10
236.782698
 20
122.921865
 11
236.867734
 21
122.857828
  0
LINE
  8
CSLAYER17
  6
CONTINUOUS
 62
     6
 10
236.867734
 20
122.857828
 11
236.950416
 21
122.789637
  0
LINE
  8
CSLAYER17
  6
CONTINUOUS
 62
     6
 10
236.950416
 20
122.789637
 11
237.029476
 21
122.717954
  0
LINE
  8
CSLAYER17
  6
CONTINUOUS
 62
     6
 10
237.029476
 20
122.717954
 11
237.103642
 21
122.643438
  0
LINE
  8
CSLAYER17
  6
CONTINUOUS
 62
     6
 10
237.103642
 20
122.643438
 11
237.171644
 21
122.566751
  0
LINE
  8
CSLAYER17
  6
CONTINUOUS
 62
     6
 10
237.171644
 20
122.566751
 11
237.232214
 21
122.488552
  0
LINE
  8
CSLAYER17
  6
CONTINUOUS
 62
     6
 10
237.232214
 20
122.488552
 11
237.284081
 21
122.409502
  0
LINE
  8
CSLAYER17
  6
CONTINUOUS
 62
     6
 10
237.284081
 20
122.409502
 11
237.299987
 21
122.381896
  0
LINE
  8
CSLAYER17
  6
CONTINUOUS
 62
     6
 10
237.299987
 20
122.381896
 11
237.315640
 21
122.353202
  0
LINE
  8
CSLAYER17
  6
CONTINUOUS
 62
     6
 10
237.315640
 20
122.353202
 11
237.331083
 21
122.323589
  0
LINE
  8
CSLAYER17
  6
CONTINUOUS
 62
     6
 10
237.331083
 20
122.323589
 11
237.346356
 21
122.293222
  0
LINE
  8
CSLAYER17
  6
CONTINUOUS
 62
     6
 10
237.346356
 20
122.293222
 11
237.361501
 21
122.262271
  0
LINE
  8
CSLAYER17
  6
CONTINUOUS
 62
     6
 10
237.361501
 20
122.262271
 11
237.376561
 21
122.230901
  0
LINE
  8
CSLAYER17
  6
CONTINUOUS
 62
     6
 10
237.376561
 20
122.230901
 11
237.391578
 21
122.199279
  0
LINE
  8
CSLAYER17
  6
CONTINUOUS
 62
     6
 10
237.391578
 20
122.199279
 11
237.406594
 21
122.167574
  0
LINE
  8
CSLAYER17
  6
CONTINUOUS
 62
     6
 10
237.406594
 20
122.167574
 11
237.421649
 21
122.135952
  0
LINE
  8
CSLAYER17
  6
CONTINUOUS
 62
     6
 10
237.421649
 20
122.135952
 11
237.436787
 21
122.104580
  0
LINE
  8
CSLAYER17
  6
CONTINUOUS
 62
     6
 10
237.436787
 20
122.104580
 11
237.452050
 21
122.073626
  0
LINE
  8
CSLAYER17
  6
CONTINUOUS
 62
     6
 10
237.452050
 20
122.073626
 11
237.492871
 21
121.995489
  0
LINE
  8
CSLAYER17
  6
CONTINUOUS
 62
     6
 10
237.492871
 20
121.995489
 11
237.536206
 21
121.918956
  0
LINE
  8
CSLAYER17
  6
CONTINUOUS
 62
     6
 10
237.536206
 20
121.918956
 11
237.581805
 21
121.843868
  0
LINE
  8
CSLAYER17
  6
CONTINUOUS
 62
     6
 10
237.581805
 20
121.843868
 11
237.629415
 21
121.770063
  0
LINE
  8
CSLAYER17
  6
CONTINUOUS
 62
     6
 10
237.629415
 20
121.770063
 11
237.678785
 21
121.697382
  0
LINE
  8
CSLAYER17
  6
CONTINUOUS
 62
     6
 10
237.678785
 20
121.697382
 11
237.729663
 21
121.625664
  0
LINE
  8
CSLAYER17
  6
CONTINUOUS
 62
     6
 10
237.729663
 20
121.625664
 11
237.781799
 21
121.554747
  0
LINE
  8
CSLAYER17
  6
CONTINUOUS
 62
     6
 10
237.781799
 20
121.554747
 11
237.834941
 21
121.484473
  0
LINE
  8
CSLAYER17
  6
CONTINUOUS
 62
     6
 10
237.834941
 20
121.484473
 11
237.888837
 21
121.414680
  0
LINE
  8
CSLAYER17
  6
CONTINUOUS
 62
     6
 10
237.888837
 20
121.414680
 11
237.943236
 21
121.345208
  0
LINE
  8
CSLAYER17
  6
CONTINUOUS
 62
     6
 10
237.943236
 20
121.345208
 11
237.995309
 21
121.279165
  0
LINE
  8
CSLAYER17
  6
CONTINUOUS
 62
     6
 10
237.995309
 20
121.279165
 11
238.122656
 21
121.388466
  0
LINE
  8
CSLAYER17
  6
CONTINUOUS
 62
     6
 10
238.122656
 20
121.388466
 11
238.259372
 21
121.506499
  0
LINE
  8
CSLAYER17
  6
CONTINUOUS
 62
     6
 10
238.259372
 20
121.506499
 11
238.395259
 21
121.625203
  0
LINE
  8
CSLAYER17
  6
CONTINUOUS
 62
     6
 10
238.395259
 20
121.625203
 11
238.529905
 21
121.744914
  0
LINE
  8
CSLAYER17
  6
CONTINUOUS
 62
     6
 10
238.529905
 20
121.744914
 11
238.662897
 21
121.865969
  0
LINE
  8
CSLAYER17
  6
CONTINUOUS
 62
     6
 10
238.662897
 20
121.865969
 11
238.793819
 21
121.988702
  0
LINE
  8
CSLAYER17
  6
CONTINUOUS
 62
     6
 10
238.793819
 20
121.988702
 11
238.922259
 21
122.113450
  0
LINE
  8
CSLAYER17
  6
CONTINUOUS
 62
     6
 10
238.922259
 20
122.113450
 11
239.047802
 21
122.240547
  0
LINE
  8
CSLAYER17
  6
CONTINUOUS
 62
     6
 10
239.047802
 20
122.240547
 11
239.170036
 21
122.370331
  0
LINE
  8
CSLAYER17
  6
CONTINUOUS
 62
     6
 10
239.170036
 20
122.370331
 11
239.288545
 21
122.503137
  0
LINE
  8
CSLAYER17
  6
CONTINUOUS
 62
     6
 10
239.288545
 20
122.503137
 11
239.402917
 21
122.639300
  0
LINE
  8
CSLAYER17
  6
CONTINUOUS
 62
     6
 10
239.402917
 20
122.639300
 11
239.539413
 21
122.813526
  0
LINE
  8
CSLAYER17
  6
CONTINUOUS
 62
     6
 10
239.539413
 20
122.813526
 11
239.671756
 21
122.994202
  0
LINE
  8
CSLAYER17
  6
CONTINUOUS
 62
     6
 10
239.671756
 20
122.994202
 11
239.800227
 21
123.179972
  0
LINE
  8
CSLAYER17
  6
CONTINUOUS
 62
     6
 10
239.800227
 20
123.179972
 11
239.925109
 21
123.369480
  0
LINE
  8
CSLAYER17
  6
CONTINUOUS
 62
     6
 10
239.925109
 20
123.369480
 11
240.046681
 21
123.561368
  0
LINE
  8
CSLAYER17
  6
CONTINUOUS
 62
     6
 10
240.046681
 20
123.561368
 11
240.165225
 21
123.754281
  0
LINE
  8
CSLAYER17
  6
CONTINUOUS
 62
     6
 10
240.165225
 20
123.754281
 11
240.281023
 21
123.946861
  0
LINE
  8
CSLAYER17
  6
CONTINUOUS
 62
     6
 10
240.281023
 20
123.946861
 11
240.394356
 21
124.137752
  0
LINE
  8
CSLAYER17
  6
CONTINUOUS
 62
     6
 10
240.394356
 20
124.137752
 11
240.505504
 21
124.325597
  0
LINE
  8
CSLAYER17
  6
CONTINUOUS
 62
     6
 10
240.505504
 20
124.325597
 11
240.614750
 21
124.509040
  0
LINE
  8
CSLAYER17
  6
CONTINUOUS
 62
     6
 10
240.614750
 20
124.509040
 11
240.722375
 21
124.686724
  0
LINE
  8
CSLAYER17
  6
CONTINUOUS
 62
     6
 10
240.722375
 20
124.686724
 11
240.827700
 21
124.852411
  0
LINE
  8
CSLAYER17
  6
CONTINUOUS
 62
     6
 10
240.827700
 20
124.852411
 11
240.942429
 21
125.022300
  0
LINE
  8
CSLAYER17
  6
CONTINUOUS
 62
     6
 10
240.942429
 20
125.022300
 11
241.064730
 21
125.194963
  0
LINE
  8
CSLAYER17
  6
CONTINUOUS
 62
     6
 10
241.064730
 20
125.194963
 11
241.192771
 21
125.368973
  0
LINE
  8
CSLAYER17
  6
CONTINUOUS
 62
     6
 10
241.192771
 20
125.368973
 11
241.324724
 21
125.542903
  0
LINE
  8
CSLAYER17
  6
CONTINUOUS
 62
     6
 10
241.324724
 20
125.542903
 11
241.458755
 21
125.715324
  0
LINE
  8
CSLAYER17
  6
CONTINUOUS
 62
     6
 10
241.458755
 20
125.715324
 11
241.593036
 21
125.884809
  0
LINE
  8
CSLAYER17
  6
CONTINUOUS
 62
     6
 10
241.593036
 20
125.884809
 11
241.725735
 21
126.049930
  0
LINE
  8
CSLAYER17
  6
CONTINUOUS
 62
     6
 10
241.725735
 20
126.049930
 11
241.855021
 21
126.209261
  0
LINE
  8
CSLAYER17
  6
CONTINUOUS
 62
     6
 10
241.855021
 20
126.209261
 11
241.979063
 21
126.361373
  0
LINE
  8
CSLAYER17
  6
CONTINUOUS
 62
     6
 10
241.979063
 20
126.361373
 11
242.148321
 21
126.568974
  0
ARC
  8
CSLAYER17
  6
CONTINUOUS
 62
     6
 10
241.066071
 20
126.139202
 40
1.164461
 50
21.658505
 51
86.024005
  0
ARC
  8
CSLAYER17
  6
CONTINUOUS
 62
     6
 10
240.100416
 20
126.789955
 40
1.164461
 50
26.024005
 51
86.024005
  0
ARC
  8
CSLAYER17
  6
CONTINUOUS
 62
     6
 10
241.227555
 20
128.462518
 40
1.164461
 50
206.024005
 51
266.024005
  0
LINE
  8
CSLAYER17
  6
CONTINUOUS
 62
     6
 10
240.181145
 20
127.951617
 11
240.059963
 21
127.803703
  0
LINE
  8
CSLAYER17
  6
CONTINUOUS
 62
     6
 10
240.059963
 20
127.803703
 11
239.930953
 21
127.646304
  0
ARC
  8
CSLAYER17
  6
CONTINUOUS
 62
     6
 10
241.990585
 20
127.545562
 40
1.200008
 50
30.461486
 51
90.461486
  0
LINE
  8
CSLAYER17
  6
CONTINUOUS
 62
     6
 10
237.222071
 20
122.501647
 11
234.779076
 21
120.107012
  0
LINE
  8
CSLAYER17
  6
CONTINUOUS
 62
     6
 10
234.164727
 20
120.319659
 11
236.910574
 21
122.822497
  0
LINE
  8
CSLAYER17
  6
CONTINUOUS
 62
     6
 10
237.502541
 20
121.978410
 11
235.251611
 21
119.539904
  0
LINE
  8
CSLAYER17
  6
CONTINUOUS
 62
     6
 10
228.824731
 20
122.398943
 11
231.050853
 21
125.375181
  0
LINE
  8
CSLAYER17
  6
CONTINUOUS
 62
     6
 10
230.485019
 20
125.521773
 11
228.139489
 21
122.847887
  0
LINE
  8
CSLAYER17
  6
CONTINUOUS
 62
     6
 10
227.596032
 20
123.367693
 11
230.067801
 21
125.769501
  0
LINE
  8
CSLAYER17
  6
CONTINUOUS
 62
     6
 10
250.384378
 20
139.996172
 11
249.940500
 21
140.696154
  0
LINE
  8
CSLAYER17
  6
CONTINUOUS
 62
     6
 10
250.440500
 20
140.696154
 11
250.884378
 21
139.996172
  0
ARC
  8
CSLAYER17
  6
CONTINUOUS
 62
     6
 10
253.088449
 20
140.096148
 40
0.100000
 50
270.000001
 51
359.942691
  0
LINE
  8
CSLAYER17
  6
CONTINUOUS
 62
     6
 10
253.188425
 20
140.096148
 11
253.188425
 21
140.596148
  0
ARC
  8
CSLAYER17
  6
CONTINUOUS
 62
     6
 10
253.088449
 20
140.596148
 40
0.100000
 50
0.000010
 51
90.000016
  0
LINE
  8
CSLAYER17
  6
CONTINUOUS
 62
     6
 10
263.288462
 20
138.696154
 11
263.288462
 21
142.696154
  0
LINE
  8
CSLAYER17
  6
CONTINUOUS
 62
     6
 10
263.288462
 20
138.696154
 11
276.288462
 21
138.696154
  0
ARC
  8
CSLAYER17
  6
CONTINUOUS
 62
     6
 10
109.288462
 20
182.696124
 40
45.000000
 50
272.549866
 51
324.085657
  0
LINE
  8
CSLAYER17
  6
CENTER
 62
     3
 10
441.288462
 20
228.658095
 11
397.988462
 21
228.658095
  0
LINE
  8
CSLAYER17
  6
CENTER
 62
     3
 10
397.988462
 20
136.724214
 11
441.288462
 21
136.724214
  0
LINE
  8
CSLAYER17
  6
CENTER
 62
     3
 10
562.788462
 20
330.750000
 11
562.788462
 21
505.750000
  0
LINE
  8
CSLAYER17
  6
CENTER
 62
     3
 10
592.288462
 20
486.750000
 11
613.288462
 21
486.750000
  0
LINE
  8
CSLAYER17
  6
CENTER
 62
     3
 10
602.788462
 20
497.250000
 11
602.788462
 21
476.250000
  0
LINE
  8
CSLAYER17
  6
CENTER
 62
     3
 10
533.288462
 20
486.750000
 11
512.288462
 21
486.750000
  0
LINE
  8
CSLAYER17
  6
CENTER
 62
     3
 10
522.788462
 20
476.250000
 11
522.788462
 21
497.250000
  0
LINE
  8
CSLAYER17
  6
CENTER
 62
     3
 10
441.288462
 20
482.711941
 11
397.988462
 21
482.711941
  0
LINE
  8
CSLAYER17
  6
CENTER
 62
     3
 10
397.988462
 20
390.778060
 11
441.288462
 21
390.778060
  0
ARC
  8
CSLAYER17
  6
CONTINUOUS
 62
     6
 10
407.741238
 20
223.028929
 40
3.752777
 50
150.000000
 51
195.446648
  0
LINE
  8
CSLAYER17
  6
CONTINUOUS
 62
     6
 10
403.988462
 20
222.353095
 11
403.988462
 21
234.963095
  0
LINE
  8
CSLAYER17
  6
CONTINUOUS
 62
     6
 10
403.988462
 20
234.963095
 11
404.491238
 21
236.163648
  0
LINE
  8
CSLAYER17
  6
CONTINUOUS
 62
     6
 10
404.491238
 20
236.163648
 11
409.288462
 21
236.163648
  0
LINE
  8
CSLAYER17
  6
CONTINUOUS
 62
     6
 10
409.288462
 20
236.358095
 11
409.288462
 21
220.958095
  0
LINE
  8
CSLAYER17
  6
CONTINUOUS
 62
     6
 10
409.288462
 20
220.958095
 11
411.288462
 21
220.958095
  0
LINE
  8
CSLAYER17
  6
CONTINUOUS
 62
     6
 10
409.288462
 20
221.152541
 11
404.491238
 21
221.152541
  0
LINE
  8
CSLAYER17
  6
CONTINUOUS
 62
     6
 10
404.491238
 20
221.152541
 11
403.988462
 21
222.353095
  0
LINE
  8
CSLAYER17
  6
CONTINUOUS
 62
     6
 10
404.491238
 20
224.905318
 11
409.288462
 21
224.905318
  0
LINE
  8
CSLAYER17
  6
CONTINUOUS
 62
     6
 10
409.288462
 20
227.426095
 11
411.288462
 21
228.042095
  0
LINE
  8
CSLAYER17
  6
CONTINUOUS
 62
     6
 10
411.288462
 20
229.890095
 11
409.288462
 21
229.274095
  0
LINE
  8
CSLAYER17
  6
CONTINUOUS
 62
     6
 10
409.288462
 20
232.410871
 11
404.491238
 21
232.410871
  0
ARC
  8
CSLAYER17
  6
CONTINUOUS
 62
     6
 10
407.741238
 20
234.287260
 40
3.752777
 50
164.553352
 51
210.000000
  0
ARC
  8
CSLAYER17
  6
CONTINUOUS
 62
     6
 10
418.245403
 20
228.658095
 40
14.256942
 50
164.738520
 51
195.261480
  0
LINE
  8
CSLAYER17
  6
CONTINUOUS
 62
     6
 10
409.288462
 20
236.358095
 11
411.288462
 21
236.358095
  0
LINE
  8
CSLAYER17
  6
CONTINUOUS
 62
     6
 10
424.288462
 20
262.696154
 11
411.288462
 21
262.696154
  0
LINE
  8
CSLAYER17
  6
CONTINUOUS
 62
     6
 10
411.288462
 20
262.696154
 11
411.288462
 21
102.696154
  0
LINE
  8
CSLAYER17
  6
CONTINUOUS
 62
     6
 10
411.288462
 20
102.696154
 11
424.288462
 21
102.696154
  0
LINE
  8
CSLAYER17
  6
CONTINUOUS
 62
     6
 10
404.491238
 20
140.476991
 11
409.288462
 21
140.476991
  0
LINE
  8
CSLAYER17
  6
CONTINUOUS
 62
     6
 10
409.288462
 20
137.340214
 11
411.288462
 21
137.956214
  0
LINE
  8
CSLAYER17
  6
CONTINUOUS
 62
     6
 10
411.288462
 20
136.108214
 11
409.288462
 21
135.492214
  0
LINE
  8
CSLAYER17
  6
CONTINUOUS
 62
     6
 10
409.288462
 20
132.971437
 11
404.491238
 21
132.971437
  0
ARC
  8
CSLAYER17
  6
CONTINUOUS
 62
     6
 10
418.245403
 20
136.724214
 40
14.256942
 50
164.738520
 51
195.261480
  0
ARC
  8
CSLAYER17
  6
CONTINUOUS
 62
     6
 10
407.741238
 20
142.353379
 40
3.752777
 50
164.553352
 51
210.000000
  0
LINE
  8
CSLAYER17
  6
CONTINUOUS
 62
     6
 10
403.988462
 20
143.029214
 11
404.491238
 21
144.229768
  0
LINE
  8
CSLAYER17
  6
CONTINUOUS
 62
     6
 10
404.491238
 20
144.229768
 11
409.288462
 21
144.229768
  0
LINE
  8
CSLAYER17
  6
CONTINUOUS
 62
     6
 10
409.288462
 20
144.424214
 11
409.288462
 21
129.024214
  0
LINE
  8
CSLAYER17
  6
CONTINUOUS
 62
     6
 10
409.288462
 20
129.024214
 11
411.288462
 21
129.024214
  0
LINE
  8
CSLAYER17
  6
CONTINUOUS
 62
     6
 10
409.288462
 20
129.218661
 11
404.491238
 21
129.218661
  0
LINE
  8
CSLAYER17
  6
CONTINUOUS
 62
     6
 10
404.491238
 20
129.218661
 11
403.988462
 21
130.419214
  0
LINE
  8
CSLAYER17
  6
CONTINUOUS
 62
     6
 10
403.988462
 20
130.419214
 11
403.988462
 21
143.029214
  0
LINE
  8
CSLAYER17
  6
CONTINUOUS
 62
     6
 10
409.288462
 20
144.424214
 11
411.288462
 21
144.424214
  0
ARC
  8
CSLAYER17
  6
CONTINUOUS
 62
     6
 10
407.741238
 20
131.095049
 40
3.752777
 50
150.000000
 51
195.446648
  0
LINE
  8
CSLAYER17
  6
CONTINUOUS
 62
     6
 10
579.788462
 20
336.750000
 11
579.788462
 21
376.750000
  0
LINE
  8
CSLAYER17
  6
CONTINUOUS
 62
     6
 10
579.788462
 20
376.750000
 11
576.788462
 21
376.750000
  0
LINE
  8
CSLAYER17
  6
DASHED
 62
     6
 10
576.788462
 20
376.750000
 11
572.788462
 21
376.750000
  0
LINE
  8
CSLAYER17
  6
DASHED
 62
     6
 10
572.788462
 20
376.750000
 11
572.788462
 21
336.750000
  0
LINE
  8
CSLAYER17
  6
CONTINUOUS
 62
     6
 10
576.788462
 20
336.750000
 11
576.788462
 21
381.750000
  0
LINE
  8
CSLAYER17
  6
CONTINUOUS
 62
     6
 10
577.788462
 20
381.750000
 11
547.788462
 21
381.750000
  0
LINE
  8
CSLAYER17
  6
CONTINUOUS
 62
     6
 10
547.788462
 20
381.750000
 11
547.788462
 21
383.750000
  0
LINE
  8
CSLAYER17
  6
CONTINUOUS
 62
     6
 10
548.788462
 20
381.750000
 11
548.788462
 21
336.750000
  0
LINE
  8
CSLAYER17
  6
CONTINUOUS
 62
     6
 10
548.788462
 20
336.750000
 11
579.788462
 21
336.750000
  0
LINE
  8
CSLAYER17
  6
CONTINUOUS
 62
     6
 10
579.788462
 20
373.750000
 11
614.303659
 21
373.750000
  0
ARC
  8
CSLAYER17
  6
CONTINUOUS
 62
     6
 10
614.196568
 20
375.750000
 40
2.000000
 50
270.000000
 51
340.725869
  0
LINE
  8
CSLAYER17
  6
CONTINUOUS
 62
     6
 10
616.084468
 20
375.089824
 11
625.176362
 21
401.089824
  0
ARC
  8
CSLAYER17
  6
CONTINUOUS
 62
     6
 10
623.288462
 20
401.750000
 40
2.000000
 50
270.000000
 51
360.000000
  0
LINE
  8
CSLAYER17
  6
CONTINUOUS
 62
     6
 10
623.288462
 20
399.750000
 11
502.288462
 21
399.750000
  0
ARC
  8
CSLAYER17
  6
CONTINUOUS
 62
     6
 10
502.288462
 20
401.750000
 40
2.000000
 50
180.000000
 51
270.000000
  0
LINE
  8
CSLAYER17
  6
CONTINUOUS
 62
     6
 10
500.400561
 20
401.089824
 11
509.492455
 21
375.089824
  0
ARC
  8
CSLAYER17
  6
CONTINUOUS
 62
     6
 10
511.380355
 20
375.750000
 40
2.000000
 50
199.274131
 51
270.000000
  0
LINE
  8
CSLAYER17
  6
CONTINUOUS
 62
     6
 10
511.380355
 20
373.750000
 11
548.788462
 21
373.750000
  0
LINE
  8
CSLAYER17
  6
CONTINUOUS
 62
     6
 10
542.788462
 20
375.750000
 11
542.788462
 21
383.750000
  0
LINE
  8
CSLAYER17
  6
CONTINUOUS
 62
     6
 10
625.288462
 20
401.750000
 11
625.288462
 21
471.750000
  0
ARC
  8
CSLAYER17
  6
CONTINUOUS
 62
     6
 10
623.288462
 20
471.750000
 40
2.000000
 50
0.000000
 51
90.000000
  0
LINE
  8
CSLAYER17
  6
CONTINUOUS
 62
     6
 10
623.288462
 20
473.750000
 11
502.288462
 21
473.750000
  0
ARC
  8
CSLAYER17
  6
CONTINUOUS
 62
     6
 10
502.288462
 20
471.750000
 40
2.000000
 50
90.000000
 51
180.000000
  0
LINE
  8
CSLAYER17
  6
CONTINUOUS
 62
     6
 10
500.400561
 20
472.410176
 11
509.492455
 21
498.410176
  0
ARC
  8
CSLAYER17
  6
CONTINUOUS
 62
     6
 10
511.380355
 20
497.750000
 40
2.000000
 50
90.000000
 51
160.725869
  0
LINE
  8
CSLAYER17
  6
CONTINUOUS
 62
     6
 10
511.380355
 20
499.750000
 11
614.196568
 21
499.750000
  0
ARC
  8
CSLAYER17
  6
CONTINUOUS
 62
     6
 10
614.196568
 20
497.750000
 40
2.000000
 50
19.274131
 51
90.000000
  0
LINE
  8
CSLAYER17
  6
CONTINUOUS
 62
     6
 10
616.084468
 20
498.410176
 11
625.176362
 21
472.410176
  0
ARC
  8
CSLAYER17
  6
CONTINUOUS
 62
     6
 10
612.313889
 20
478.750000
 40
5.000000
 50
195.530000
 51
270.000000
  0
LINE
  8
CSLAYER17
  6
CONTINUOUS
 62
     6
 10
607.493889
 20
477.410000
 11
607.033889
 21
479.090000
  0
ARC
  8
CSLAYER17
  6
CONTINUOUS
 62
     6
 10
602.213889
 20
477.750000
 40
5.000000
 50
15.530000
 51
90.000000
  0
LINE
  8
CSLAYER17
  6
CONTINUOUS
 62
     6
 10
602.213889
 20
482.750000
 11
598.256351
 21
482.750000
  0
ARC
  8
CSLAYER17
  6
CONTINUOUS
 62
     6
 10
602.788462
 20
486.750000
 40
5.500000
 50
-64.435030
 51
226.658242
  0
ARC
  8
CSLAYER17
  6
CONTINUOUS
 62
     6
 10
522.788462
 20
486.750000
 40
5.500000
 50
-46.658242
 51
244.435030
  0
LINE
  8
CSLAYER17
  6
CONTINUOUS
 62
     6
 10
542.788462
 20
489.750000
 11
542.788462
 21
497.750000
  0
LINE
  8
CSLAYER17
  6
CONTINUOUS
 62
     6
 10
538.864087
 20
470.750000
 11
538.864087
 21
402.750000
  0
LINE
  8
CSLAYER17
  6
CONTINUOUS
 62
     6
 10
411.288462
 20
383.078060
 11
409.288462
 21
383.078060
  0
LINE
  8
CSLAYER17
  6
CONTINUOUS
 62
     6
 10
409.288462
 20
383.078060
 11
409.288462
 21
398.478060
  0
LINE
  8
CSLAYER17
  6
CONTINUOUS
 62
     6
 10
409.288462
 20
398.478060
 11
411.288462
 21
398.478060
  0
LINE
  8
CSLAYER17
  6
CONTINUOUS
 62
     6
 10
409.288462
 20
397.278060
 11
403.988462
 21
397.278060
  0
LINE
  8
CSLAYER17
  6
CONTINUOUS
 62
     6
 10
403.988462
 20
397.278060
 11
403.988462
 21
384.278060
  0
LINE
  8
CSLAYER17
  6
CONTINUOUS
 62
     6
 10
403.988462
 20
384.278060
 11
409.288462
 21
384.278060
  0
ARC
  8
CSLAYER17
  6
CONTINUOUS
 62
     6
 10
414.744015
 20
387.528060
 40
10.755553
 50
162.412046
 51
197.587954
  0
ARC
  8
CSLAYER17
  6
CONTINUOUS
 62
     6
 10
414.744015
 20
394.028060
 40
10.755553
 50
162.412046
 51
197.587954
  0
ARC
  8
CSLAYER17
  6
CONTINUOUS
 62
     6
 10
414.744015
 20
485.961941
 40
10.755553
 50
162.412046
 51
197.587954
  0
LINE
  8
CSLAYER17
  6
CONTINUOUS
 62
     6
 10
403.988462
 20
489.211941
 11
403.988462
 21
476.211941
  0
LINE
  8
CSLAYER17
  6
CONTINUOUS
 62
     6
 10
403.988462
 20
476.211941
 11
409.288462
 21
476.211941
  0
LINE
  8
CSLAYER17
  6
CONTINUOUS
 62
     6
 10
409.288462
 20
475.011941
 11
409.288462
 21
490.411941
  0
LINE
  8
CSLAYER17
  6
CONTINUOUS
 62
     6
 10
409.288462
 20
490.411941
 11
411.288462
 21
490.411941
  0
LINE
  8
CSLAYER17
  6
CONTINUOUS
 62
     6
 10
409.288462
 20
489.211941
 11
403.988462
 21
489.211941
  0
ARC
  8
CSLAYER17
  6
CONTINUOUS
 62
     6
 10
414.744015
 20
479.461941
 40
10.755553
 50
162.412046
 51
197.587954
  0
LINE
  8
CSLAYER17
  6
CONTINUOUS
 62
     6
 10
409.288462
 20
475.011941
 11
411.288462
 21
475.011941
  0
LINE
  8
CSLAYER17
  6
CONTINUOUS
 62
     6
 10
409.288462
 20
481.479941
 11
411.288462
 21
482.095941
  0
LINE
  8
CSLAYER17
  6
CONTINUOUS
 62
     6
 10
411.288462
 20
483.943941
 11
409.288462
 21
483.327941
  0
LINE
  8
CSLAYER17
  6
CONTINUOUS
 62
     6
 10
409.288462
 20
482.711941
 11
404.491238
 21
482.711941
  0
LINE
  8
CSLAYER17
  6
CONTINUOUS
 62
     6
 10
432.288462
 20
513.610000
 11
432.288462
 21
359.890000
  0
ARC
  8
CSLAYER17
  6
CONTINUOUS
 62
     6
 10
429.288462
 20
359.890000
 40
3.000000
 50
271.500000
 51
360.000000
  0
LINE
  8
CSLAYER17
  6
CONTINUOUS
 62
     6
 10
429.368462
 20
356.890000
 11
424.288462
 21
356.750000
  0
LINE
  8
CSLAYER17
  6
CONTINUOUS
 62
     6
 10
424.288462
 20
356.750000
 11
424.288462
 21
516.750000
  0
LINE
  8
CSLAYER17
  6
CONTINUOUS
 62
     6
 10
424.288462
 20
516.750000
 11
411.288462
 21
516.750000
  0
LINE
  8
CSLAYER17
  6
CONTINUOUS
 62
     6
 10
411.288462
 20
516.750000
 11
411.288462
 21
356.750000
  0
LINE
  8
CSLAYER17
  6
CONTINUOUS
 62
     6
 10
411.288462
 20
356.750000
 11
424.288462
 21
356.750000
  0
LINE
  8
CSLAYER17
  6
CONTINUOUS
 62
     6
 10
411.288462
 20
390.162060
 11
409.288462
 21
389.546060
  0
LINE
  8
CSLAYER17
  6
CONTINUOUS
 62
     6
 10
409.288462
 20
390.778060
 11
404.491238
 21
390.778060
  0
LINE
  8
CSLAYER17
  6
CONTINUOUS
 62
     6
 10
409.288462
 20
391.394060
 11
411.288462
 21
392.010060
  0
LINE
  8
CSLAYER17
  6
CONTINUOUS
 62
     6
 10
577.788462
 20
383.750000
 11
577.788462
 21
381.750000
  0
LINE
  8
CSLAYER17
  6
CONTINUOUS
 62
     6
 10
582.788462
 20
383.750000
 11
582.788462
 21
375.750000
  0
LINE
  8
CSLAYER17
  6
CONTINUOUS
 62
     6
 10
586.712836
 20
402.750000
 11
586.712836
 21
470.750000
  0
LINE
  8
CSLAYER17
  6
CONTINUOUS
 62
     6
 10
582.788462
 20
489.750000
 11
582.788462
 21
497.750000
  0
ARC
  8
CSLAYER17
  6
CONTINUOUS
 62
     6
 10
429.288462
 20
513.610000
 40
3.000000
 50
0.000000
 51
88.500000
  0
LINE
  8
CSLAYER17
  6
CONTINUOUS
 62
     6
 10
429.368462
 20
516.610000
 11
424.288462
 21
516.750000
  0
LINE
  8
CSLAYER17
  6
CONTINUOUS
 62
     6
 10
500.288462
 20
471.750000
 11
500.288462
 21
401.750000
  0
LINE
  8
CSLAYER17
  6
CONTINUOUS
 62
     3
 10
333.288431
 20
227.696154
 11
333.288431
 21
221.781832
  0
LINE
  8
CSLAYER17
  6
CONTINUOUS
 62
     3
 10
365.288431
 20
221.781832
 11
365.288431
 21
227.696154
  0
LINE
  8
CSLAYER17
  6
CONTINUOUS
 62
     3
 10
335.288431
 20
219.781832
 11
363.288431
 21
219.781832
  0
ARC
  8
CSLAYER17
  6
CONTINUOUS
 62
     3
 10
335.288431
 20
221.781832
 40
2.000000
 50
180.000005
 51
270.000001
  0
ARC
  8
CSLAYER17
  6
CONTINUOUS
 62
     3
 10
363.288431
 20
221.781832
 40
2.000000
 50
270.000001
 51
359.942691
  0
LINE
  8
CSLAYER17
  6
CONTINUOUS
 62
     6
 10
625.288462
 20
244.076154
 11
625.288462
 21
98.696154
  0
LINE
  8
CSLAYER17
  6
CONTINUOUS
 62
     6
 10
500.288462
 20
98.696154
 11
625.288462
 21
98.696154
  0
LINE
  8
CSLAYER17
  6
CONTINUOUS
 62
     6
 10
540.348462
 20
273.196154
 11
585.228462
 21
273.196154
  0
LINE
  8
CSLAYER17
  6
CONTINUOUS
 62
     6
 10
588.068462
 20
272.316154
 11
623.128462
 21
248.176154
  0
LINE
  8
CSLAYER17
  6
CONTINUOUS
 62
     6
 10
503.288462
 20
113.696154
 11
622.288462
 21
113.696154
  0
LINE
  8
CSLAYER17
  6
CONTINUOUS
 62
     6
 10
615.288462
 20
112.156154
 11
615.288462
 21
98.696154
  0
LINE
  8
CSLAYER17
  6
CONTINUOUS
 62
     6
 10
511.288462
 20
112.156154
 11
511.288462
 21
98.696154
  0
LINE
  8
CSLAYER17
  6
CONTINUOUS
 62
     6
 10
581.048462
 20
120.696154
 11
544.528462
 21
120.696154
  0
LINE
  8
CSLAYER17
  6
CONTINUOUS
 62
     6
 10
583.648462
 20
119.176154
 11
585.928462
 21
115.216154
  0
LINE
  8
CSLAYER17
  6
CONTINUOUS
 62
     6
 10
541.928462
 20
119.176154
 11
539.648462
 21
115.216154
  0
ARC
  8
CSLAYER17
  6
CONTINUOUS
 62
     6
 10
542.788462
 20
168.696154
 40
26.500000
 50
170.520000
 51
270.000000
  0
ARC
  8
CSLAYER17
  6
CONTINUOUS
 62
     6
 10
582.788462
 20
168.696154
 40
26.500000
 50
-90.000000
 51
9.470000
  0
LINE
  8
CSLAYER17
  6
CONTINUOUS
 62
     6
 10
516.648462
 20
173.056154
 11
525.308462
 21
224.956154
  0
LINE
  8
CSLAYER17
  6
CONTINUOUS
 62
     6
 10
600.268462
 20
224.956154
 11
608.928462
 21
173.056154
  0
LINE
  8
CSLAYER17
  6
CONTINUOUS
 62
     6
 10
542.788462
 20
142.196154
 11
582.788462
 21
142.196154
  0
ARC
  8
CSLAYER17
  6
CONTINUOUS
 62
     6
 10
620.288462
 20
244.076154
 40
5.000000
 50
0.000000
 51
55.460000
  0
ARC
  8
CSLAYER17
  6
CONTINUOUS
 62
     6
 10
585.228462
 20
268.196154
 40
5.000000
 50
55.460000
 51
90.000000
  0
ARC
  8
CSLAYER17
  6
CONTINUOUS
 62
     6
 10
540.368462
 20
268.196154
 40
5.000000
 50
90.000000
 51
91.030000
  0
LINE
  8
CSLAYER17
  6
CONTINUOUS
 62
     6
 10
542.788462
 20
120.136154
 11
542.788462
 21
113.696154
  0
LINE
  8
CSLAYER17
  6
CONTINUOUS
 62
     6
 10
582.788462
 20
120.136154
 11
582.788462
 21
113.696154
  0
LINE
  8
CSLAYER17
  6
CONTINUOUS
 62
     6
 10
500.288462
 20
98.696154
 11
500.288462
 21
244.076154
  0
ARC
  8
CSLAYER17
  6
CONTINUOUS
 62
     6
 10
544.528462
 20
117.696154
 40
3.000000
 50
90.000000
 51
150.250000
  0
ARC
  8
CSLAYER17
  6
CONTINUOUS
 62
     6
 10
581.048462
 20
117.696154
 40
3.000000
 50
29.740000
 51
90.000000
  0
ARC
  8
CSLAYER17
  6
CONTINUOUS
 62
     6
 10
542.788462
 20
168.696154
 40
24.000000
 50
169.570000
 51
273.140000
  0
ARC
  8
CSLAYER17
  6
CONTINUOUS
 62
     6
 10
582.788462
 20
168.696154
 40
24.000000
 50
-91.540000
 51
9.446627
  0
LINE
  8
CSLAYER17
  6
CONTINUOUS
 62
     6
 10
542.788462
 20
144.696154
 11
582.788462
 21
144.696154
  0
CIRCLE
  8
CSLAYER17
  6
CONTINUOUS
 62
     6
 10
562.788462
 20
218.696154
 40
33.500000
  0
ARC
  8
CSLAYER17
  6
CONTINUOUS
 62
     6
 10
562.788462
 20
218.696154
 40
38.000000
 50
9.470000
 51
170.520000
  0
ARC
  8
CSLAYER17
  6
CONTINUOUS
 62
     6
 10
562.788462
 20
218.696154
 40
35.500000
 50
-189.480000
 51
9.470000
  0
LINE
  8
CSLAYER17
  6
CONTINUOUS
 62
     6
 10
519.176253
 20
173.042435
 11
527.768462
 21
224.536154
  0
LINE
  8
CSLAYER17
  6
CONTINUOUS
 62
     6
 10
597.808462
 20
224.536154
 11
606.468462
 21
172.636154
  0
LINE
  8
CSLAYER17
  6
CONTINUOUS
 62
     6
 10
480.288462
 20
246.196154
 11
498.268462
 21
246.196154
  0
LINE
  8
CSLAYER17
  6
CONTINUOUS
 62
     6
 10
480.288462
 20
119.196154
 11
495.288462
 21
119.196154
  0
LINE
  8
CSLAYER17
  6
CONTINUOUS
 62
     6
 10
480.288462
 20
118.696154
 11
480.288462
 21
246.696154
  0
LINE
  8
CSLAYER17
  6
CONTINUOUS
 62
     6
 10
502.448462
 20
248.176154
 11
537.508462
 21
272.316154
  0
ARC
  8
CSLAYER17
  6
CONTINUOUS
 62
     6
 10
540.348462
 20
268.196154
 40
5.000000
 50
90.000000
 51
124.540000
  0
ARC
  8
CSLAYER17
  6
CONTINUOUS
 62
     6
 10
505.288462
 20
244.076154
 40
5.000000
 50
124.540000
 51
180.000000
  0
ARC
  8
CSLAYER17
  6
CONTINUOUS
 62
     6
 10
498.268462
 20
251.196154
 40
5.000000
 50
270.000000
 51
314.530000
  0
ARC
  8
CSLAYER17
  6
CONTINUOUS
 62
     6
 10
495.288462
 20
114.196154
 40
5.000000
 50
0.000000
 51
90.000000
  0
ARC
  8
CSLAYER17
  6
CONTINUOUS
 62
     6
 10
503.288462
 20
110.696154
 40
3.000000
 50
90.000000
 51
180.000000
  0
ARC
  8
CSLAYER17
  6
CONTINUOUS
 62
     6
 10
537.048462
 20
116.696154
 40
3.000000
 50
270.000000
 51
330.250000
  0
ARC
  8
CSLAYER17
  6
CONTINUOUS
 62
     6
 10
588.528462
 20
116.696154
 40
3.000000
 50
209.740000
 51
270.000000
  0
ARC
  8
CSLAYER17
  6
CONTINUOUS
 62
     6
 10
622.288462
 20
110.696154
 40
3.000000
 50
0.000000
 51
90.000000
  0
ARC
  8
CSLAYER17
  6
CONTINUOUS
 62
     6
 10
660.888462
 20
182.696154
 40
168.680000
 50
162.180000
 51
197.810000
  0
LINE
  8
CSLAYER17
  6
CONTINUOUS
 62
     6
 10
572.788462
 20
214.696154
 11
572.788462
 21
222.696154
  0
LINE
  8
CSLAYER17
  6
CONTINUOUS
 62
     6
 10
579.788462
 20
214.696154
 11
579.788462
 21
222.696154
  0
LINE
  8
CSLAYER17
  6
CONTINUOUS
 62
     6
 10
579.788462
 20
214.696154
 11
572.788462
 21
214.696154
  0
LINE
  8
CSLAYER17
  6
CONTINUOUS
 62
     6
 10
579.788462
 20
222.696154
 11
572.788462
 21
222.696154
  0
ARC
  8
CSLAYER17
  6
CONTINUOUS
 62
     6
 10
562.788462
 20
218.696154
 40
14.000000
 50
16.600000
 51
343.390000
  0
LINE
  8
CSLAYER17
  6
CONTINUOUS
 62
     6
 10
435.208462
 20
247.876154
 11
480.288462
 21
246.696154
  0
LINE
  8
CSLAYER17
  6
CONTINUOUS
 62
     6
 10
429.368462
 20
262.556154
 11
424.288462
 21
262.696154
  0
LINE
  8
CSLAYER17
  6
CONTINUOUS
 62
     6
 10
429.368462
 20
102.836154
 11
424.288462
 21
102.696154
  0
LINE
  8
CSLAYER17
  6
CONTINUOUS
 62
     6
 10
432.288462
 20
105.556154
 11
432.288462
 21
259.556154
  0
ARC
  8
CSLAYER17
  6
CONTINUOUS
 62
     6
 10
429.288462
 20
259.556154
 40
3.000000
 50
0.000000
 51
88.490000
  0
ARC
  8
CSLAYER17
  6
CONTINUOUS
 62
     6
 10
429.288462
 20
105.836154
 40
3.000000
 50
271.500000
 51
351.680000
  0
ARC
  8
CSLAYER17
  6
CONTINUOUS
 62
     6
 10
434.228462
 20
105.096154
 40
2.000000
 50
166.830000
 51
171.680000
  0
LINE
  8
CSLAYER17
  6
CONTINUOUS
 62
     6
 10
440.328462
 20
249.736154
 11
437.148462
 21
249.836154
  0
ARC
  8
CSLAYER17
  6
CONTINUOUS
 62
     6
 10
437.288462
 20
254.836154
 40
5.000000
 50
180.000000
 51
268.500000
  0
ARC
  8
CSLAYER17
  6
CONTINUOUS
 62
     6
 10
440.288462
 20
247.756154
 40
2.000000
 50
28.420000
 51
88.500000
  0
LINE
  8
CSLAYER17
  6
CONTINUOUS
 62
     6
 10
435.208462
 20
117.516154
 11
480.288462
 21
118.696154
  0
LINE
  8
CSLAYER17
  6
CONTINUOUS
 62
     6
 10
440.328462
 20
115.636154
 11
437.148462
 21
115.556154
  0
ARC
  8
CSLAYER17
  6
CONTINUOUS
 62
     6
 10
437.288462
 20
110.556154
 40
5.000000
 50
91.490000
 51
180.000000
  0
ARC
  8
CSLAYER17
  6
CONTINUOUS
 62
     6
 10
440.288462
 20
117.636154
 40
2.000000
 50
271.490000
 51
331.570000
  0
LINE
  8
CSLAYER17
  6
CONTINUOUS
 62
     6
 10
442.288462
 20
176.696154
 11
442.288462
 21
188.696154
  0
LINE
  8
CSLAYER17
  6
CONTINUOUS
 62
     6
 10
456.788462
 20
141.856154
 11
456.788462
 21
131.596154
  0
LINE
  8
CSLAYER17
  6
CONTINUOUS
 62
     6
 10
456.788462
 20
233.776154
 11
456.788462
 21
223.516154
  0
LINE
  8
CSLAYER17
  6
CONTINUOUS
 62
     6
 10
440.288462
 20
190.696154
 11
432.288462
 21
190.696154
  0
LINE
  8
CSLAYER17
  6
CONTINUOUS
 62
     6
 10
440.288462
 20
174.696154
 11
432.288462
 21
174.696154
  0
LINE
  8
CSLAYER17
  6
CONTINUOUS
 62
     6
 10
451.908462
 20
238.776154
 11
432.288462
 21
239.296154
  0
LINE
  8
CSLAYER17
  6
CONTINUOUS
 62
     6
 10
451.908462
 20
218.536154
 11
432.288462
 21
218.016154
  0
LINE
  8
CSLAYER17
  6
CONTINUOUS
 62
     6
 10
451.908462
 20
146.856154
 11
432.288462
 21
147.376154
  0
LINE
  8
CSLAYER17
  6
CONTINUOUS
 62
     6
 10
451.908462
 20
126.616154
 11
432.288462
 21
126.096154
  0
ARC
  8
CSLAYER17
  6
CONTINUOUS
 62
     6
 10
451.788462
 20
141.856154
 40
5.000000
 50
0.000000
 51
88.500000
  0
ARC
  8
CSLAYER17
  6
CONTINUOUS
 62
     6
 10
451.788462
 20
131.596154
 40
5.000000
 50
271.500000
 51
360.000000
  0
ARC
  8
CSLAYER17
  6
CONTINUOUS
 62
     6
 10
451.788462
 20
233.776154
 40
5.000000
 50
0.000000
 51
88.490000
  0
ARC
  8
CSLAYER17
  6
CONTINUOUS
 62
     6
 10
451.788462
 20
223.516154
 40
5.000000
 50
271.500000
 51
360.000000
  0
ARC
  8
CSLAYER17
  6
CONTINUOUS
 62
     6
 10
440.288462
 20
188.696154
 40
2.000000
 50
0.000000
 51
90.000000
  0
ARC
  8
CSLAYER17
  6
CONTINUOUS
 62
     6
 10
440.288462
 20
176.696154
 40
2.000000
 50
270.000000
 51
360.000000
  0
ARC
  8
CSLAYER17
  6
CONTINUOUS
 62
     6
 10
435.288462
 20
250.876154
 40
3.000000
 50
180.000000
 51
268.500000
  0
ARC
  8
CSLAYER17
  6
CONTINUOUS
 62
     6
 10
435.288462
 20
114.516154
 40
3.000000
 50
91.490000
 51
180.000000
  0
ARC
  8
CSLAYER17
  6
CONTINUOUS
 62
     6
 10
443.808462
 20
249.656154
 40
2.000000
 50
208.420000
 51
268.500000
  0
ARC
  8
CSLAYER17
  6
CONTINUOUS
 62
     6
 10
443.808462
 20
115.736154
 40
2.000000
 50
91.490000
 51
151.570000
  0
LINE
  8
CSLAYER17
  6
CENTER
 62
     3
 10
520.442533
 20
218.696154
 11
604.788462
 21
218.696154
  0
LINE
  8
CSLAYER17
  6
CENTER
 62
     3
 10
562.788462
 20
279.196154
 11
562.788462
 21
92.196154
  0
LINE
  8
CSLAYER17
  6
CENTER
 62
     3
 10
602.788462
 20
120.936154
 11
602.788462
 21
91.436154
  0
LINE
  8
CSLAYER17
  6
CENTER
 62
     3
 10
522.788462
 20
120.936154
 11
522.788462
 21
92.696154
  0
LINE
  8
CSLAYER17
  6
DASHED
 62
     6
 10
608.288462
 20
113.696154
 11
608.288462
 21
98.696154
  0
LINE
  8
CSLAYER17
  6
DASHED
 62
     6
 10
597.288462
 20
113.696154
 11
597.288462
 21
98.696154
  0
LINE
  8
CSLAYER17
  6
DASHED
 62
     6
 10
528.288462
 20
113.696154
 11
528.288462
 21
98.696154
  0
LINE
  8
CSLAYER17
  6
DASHED
 62
     6
 10
517.288462
 20
113.696154
 11
517.288462
 21
98.696154
  0
LINE
  8
CSLAYER17
  6
CONTINUOUS
 62
     6
 10
424.288462
 20
262.696154
 11
424.288462
 21
102.696154
  0
ARC
  8
CSLAYER17
  6
CONTINUOUS
 62
     6
 10
533.068462
 20
484.750000
 40
5.000000
 50
90.000000
 51
164.290000
  0
LINE
  8
CSLAYER17
  6
CONTINUOUS
 62
     6
 10
528.268462
 20
486.110000
 11
525.808462
 21
477.390000
  0
ARC
  8
CSLAYER17
  6
CONTINUOUS
 62
     6
 10
521.008462
 20
478.750000
 40
5.000000
 50
270.000000
 51
344.290000
  0
LINE
  8
CSLAYER17
  6
CONTINUOUS
 62
     6
 10
592.508462
 20
489.750000
 11
533.068462
 21
489.750000
  0
ARC
  8
CSLAYER17
  6
CONTINUOUS
 62
     6
 10
592.508462
 20
484.750000
 40
5.000000
 50
15.710000
 51
90.000000
  0
LINE
  8
CSLAYER17
  6
CONTINUOUS
 62
     6
 10
597.308462
 20
486.110000
 11
599.768462
 21
477.390000
  0
ARC
  8
CSLAYER17
  6
CONTINUOUS
 62
     6
 10
604.568462
 20
478.750000
 40
5.000000
 50
195.710000
 51
270.000000
  0
ARC
  8
CSLAYER17
  6
CONTINUOUS
 62
     6
 10
513.263034
 20
478.750000
 40
5.000000
 50
270.000000
 51
344.470000
  0
LINE
  8
CSLAYER17
  6
CONTINUOUS
 62
     6
 10
518.083034
 20
477.410000
 11
518.543034
 21
479.090000
  0
ARC
  8
CSLAYER17
  6
CONTINUOUS
 62
     6
 10
523.363034
 20
477.750000
 40
5.000000
 50
90.000000
 51
164.470000
  0
LINE
  8
CSLAYER17
  6
CONTINUOUS
 62
     6
 10
523.363034
 20
482.750000
 11
527.320572
 21
482.750000
  0
LINE
  8
CSLAYER17
  6
CENTER
 62
     3
 10
592.288462
 20
386.750000
 11
613.288462
 21
386.750000
  0
LINE
  8
CSLAYER17
  6
CENTER
 62
     3
 10
602.788462
 20
376.250000
 11
602.788462
 21
397.250000
  0
LINE
  8
CSLAYER17
  6
CENTER
 62
     3
 10
533.288462
 20
386.750000
 11
512.288462
 21
386.750000
  0
LINE
  8
CSLAYER17
  6
CENTER
 62
     3
 10
522.788462
 20
397.250000
 11
522.788462
 21
376.250000
  0
ARC
  8
CSLAYER17
  6
CONTINUOUS
 62
     6
 10
612.313889
 20
394.750000
 40
5.000000
 50
90.000000
 51
164.470000
  0
LINE
  8
CSLAYER17
  6
CONTINUOUS
 62
     6
 10
607.493889
 20
396.090000
 11
607.033889
 21
394.410000
  0
ARC
  8
CSLAYER17
  6
CONTINUOUS
 62
     6
 10
602.213889
 20
395.750000
 40
5.000000
 50
270.000000
 51
344.470000
  0
LINE
  8
CSLAYER17
  6
CONTINUOUS
 62
     6
 10
602.213889
 20
390.750000
 11
598.256351
 21
390.750000
  0
ARC
  8
CSLAYER17
  6
CONTINUOUS
 62
     6
 10
602.788462
 20
386.750000
 40
5.500000
 50
-226.658242
 51
64.435030
  0
ARC
  8
CSLAYER17
  6
CONTINUOUS
 62
     6
 10
522.788462
 20
386.750000
 40
5.500000
 50
-244.435030
 51
46.658242
  0
ARC
  8
CSLAYER17
  6
CONTINUOUS
 62
     6
 10
533.068462
 20
388.750000
 40
5.000000
 50
195.710000
 51
270.000000
  0
LINE
  8
CSLAYER17
  6
CONTINUOUS
 62
     6
 10
528.268462
 20
387.390000
 11
525.808462
 21
396.110000
  0
ARC
  8
CSLAYER17
  6
CONTINUOUS
 62
     6
 10
521.008462
 20
394.750000
 40
5.000000
 50
15.710000
 51
90.000000
  0
LINE
  8
CSLAYER17
  6
CONTINUOUS
 62
     6
 10
592.508462
 20
383.750000
 11
533.068462
 21
383.750000
  0
ARC
  8
CSLAYER17
  6
CONTINUOUS
 62
     6
 10
592.508462
 20
388.750000
 40
5.000000
 50
270.000000
 51
344.290000
  0
LINE
  8
CSLAYER17
  6
CONTINUOUS
 62
     6
 10
597.308462
 20
387.390000
 11
599.768462
 21
396.110000
  0
ARC
  8
CSLAYER17
  6
CONTINUOUS
 62
     6
 10
604.568462
 20
394.750000
 40
5.000000
 50
90.000000
 51
164.290000
  0
ARC
  8
CSLAYER17
  6
CONTINUOUS
 62
     6
 10
513.263034
 20
394.750000
 40
5.000000
 50
15.530000
 51
90.000000
  0
LINE
  8
CSLAYER17
  6
CONTINUOUS
 62
     6
 10
518.083034
 20
396.090000
 11
518.543034
 21
394.410000
  0
ARC
  8
CSLAYER17
  6
CONTINUOUS
 62
     6
 10
523.363034
 20
395.750000
 40
5.000000
 50
195.530000
 51
270.000000
  0
LINE
  8
CSLAYER17
  6
CONTINUOUS
 62
     6
 10
523.363034
 20
390.750000
 11
527.320572
 21
390.750000
  0
LINE
  8
CSLAYER17
  6
CONTINUOUS
 62
     6
 10
480.288462
 20
372.750000
 11
480.288462
 21
500.750000
  0
LINE
  8
CSLAYER17
  6
CONTINUOUS
 62
     6
 10
435.208462
 20
501.930000
 11
480.288462
 21
500.750000
  0
ARC
  8
CSLAYER17
  6
CONTINUOUS
 62
     6
 10
434.228462
 20
359.150000
 40
2.000000
 50
166.830000
 51
171.680000
  0
LINE
  8
CSLAYER17
  6
CONTINUOUS
 62
     6
 10
440.328462
 20
503.790000
 11
437.148462
 21
503.890000
  0
ARC
  8
CSLAYER17
  6
CONTINUOUS
 62
     6
 10
437.288462
 20
508.890000
 40
5.000000
 50
180.000000
 51
268.500000
  0
ARC
  8
CSLAYER17
  6
CONTINUOUS
 62
     6
 10
440.288462
 20
501.810000
 40
2.000000
 50
28.420000
 51
88.500000
  0
LINE
  8
CSLAYER17
  6
CONTINUOUS
 62
     6
 10
435.208462
 20
371.570000
 11
480.288462
 21
372.750000
  0
LINE
  8
CSLAYER17
  6
CONTINUOUS
 62
     6
 10
440.328462
 20
369.690000
 11
437.148462
 21
369.610000
  0
ARC
  8
CSLAYER17
  6
CONTINUOUS
 62
     6
 10
437.288462
 20
364.610000
 40
5.000000
 50
91.490000
 51
180.000000
  0
ARC
  8
CSLAYER17
  6
CONTINUOUS
 62
     6
 10
440.288462
 20
371.690000
 40
2.000000
 50
271.490000
 51
331.570000
  0
LINE
  8
CSLAYER17
  6
CONTINUOUS
 62
     6
 10
442.288462
 20
430.750000
 11
442.288462
 21
442.750000
  0
LINE
  8
CSLAYER17
  6
CONTINUOUS
 62
     6
 10
456.788462
 20
395.910000
 11
456.788462
 21
385.650000
  0
LINE
  8
CSLAYER17
  6
CONTINUOUS
 62
     6
 10
456.788462
 20
487.830000
 11
456.788462
 21
477.570000
  0
LINE
  8
CSLAYER17
  6
CONTINUOUS
 62
     6
 10
440.288462
 20
444.750000
 11
432.288462
 21
444.750000
  0
LINE
  8
CSLAYER17
  6
CONTINUOUS
 62
     6
 10
440.288462
 20
428.750000
 11
432.288462
 21
428.750000
  0
LINE
  8
CSLAYER17
  6
CONTINUOUS
 62
     6
 10
451.908462
 20
492.830000
 11
432.288462
 21
493.350000
  0
LINE
  8
CSLAYER17
  6
CONTINUOUS
 62
     6
 10
451.908462
 20
472.590000
 11
432.288462
 21
472.070000
  0
LINE
  8
CSLAYER17
  6
CONTINUOUS
 62
     6
 10
451.908462
 20
400.910000
 11
432.288462
 21
401.430000
  0
LINE
  8
CSLAYER17
  6
CONTINUOUS
 62
     6
 10
451.908462
 20
380.670000
 11
432.288462
 21
380.150000
  0
ARC
  8
CSLAYER17
  6
CONTINUOUS
 62
     6
 10
451.788462
 20
395.910000
 40
5.000000
 50
0.000000
 51
88.500000
  0
ARC
  8
CSLAYER17
  6
CONTINUOUS
 62
     6
 10
451.788462
 20
385.650000
 40
5.000000
 50
271.500000
 51
360.000000
  0
ARC
  8
CSLAYER17
  6
CONTINUOUS
 62
     6
 10
451.788462
 20
487.830000
 40
5.000000
 50
0.000000
 51
88.490000
  0
ARC
  8
CSLAYER17
  6
CONTINUOUS
 62
     6
 10
451.788462
 20
477.570000
 40
5.000000
 50
271.500000
 51
360.000000
  0
ARC
  8
CSLAYER17
  6
CONTINUOUS
 62
     6
 10
440.288462
 20
442.750000
 40
2.000000
 50
0.000000
 51
90.000000
  0
ARC
  8
CSLAYER17
  6
CONTINUOUS
 62
     6
 10
440.288462
 20
430.750000
 40
2.000000
 50
270.000000
 51
360.000000
  0
ARC
  8
CSLAYER17
  6
CONTINUOUS
 62
     6
 10
435.288462
 20
504.930000
 40
3.000000
 50
180.000000
 51
268.500000
  0
ARC
  8
CSLAYER17
  6
CONTINUOUS
 62
     6
 10
435.288462
 20
368.570000
 40
3.000000
 50
91.490000
 51
180.000000
  0
ARC
  8
CSLAYER17
  6
CONTINUOUS
 62
     6
 10
443.808462
 20
503.710000
 40
2.000000
 50
208.420000
 51
268.500000
  0
ARC
  8
CSLAYER17
  6
CONTINUOUS
 62
     6
 10
443.808462
 20
369.790000
 40
2.000000
 50
91.490000
 51
151.570000
  0
LINE
  8
CSLAYER17
  6
CONTINUOUS
 62
     6
 10
480.288462
 20
500.250000
 11
490.728539
 21
500.250000
  0
LINE
  8
CSLAYER17
  6
CONTINUOUS
 62
     6
 10
480.288462
 20
373.250000
 11
490.728539
 21
373.250000
  0
LINE
  8
CSLAYER17
  6
CONTINUOUS
 62
     7
 10
500.288462
 20
473.522609
 11
500.288462
 21
399.977391
  0
LINE
  8
CSLAYER17
  6
CONTINUOUS
 62
     6
 10
683.040725
 20
98.696154
 11
718.540725
 21
98.696154
  0
LINE
  8
CSLAYER17
  6
CONTINUOUS
 62
     6
 10
685.540725
 20
113.696154
 11
706.040725
 21
113.696154
  0
LINE
  8
CSLAYER17
  6
CONTINUOUS
 62
     6
 10
806.540725
 20
113.696154
 11
786.040725
 21
113.696154
  0
LINE
  8
CSLAYER17
  6
CONTINUOUS
 62
     6
 10
710.540725
 20
246.696154
 11
781.280725
 21
246.696154
  0
LINE
  8
CSLAYER17
  6
CONTINUOUS
 62
     6
 10
780.080725
 20
272.596154
 11
746.040725
 21
273.196154
  0
LINE
  8
CSLAYER17
  6
CONTINUOUS
 62
     6
 10
711.980725
 20
272.596154
 11
746.040725
 21
273.196154
  0
LINE
  8
CSLAYER17
  6
CONTINUOUS
 62
     6
 10
783.040725
 20
269.596154
 11
783.040725
 21
98.696154
  0
LINE
  8
CSLAYER17
  6
CONTINUOUS
 62
     6
 10
709.040725
 20
269.596154
 11
709.040725
 21
98.696154
  0
LINE
  8
CSLAYER17
  6
CONTINUOUS
 62
     6
 10
693.040725
 20
188.976154
 11
693.040725
 21
248.416154
  0
LINE
  8
CSLAYER17
  6
CONTINUOUS
 62
     6
 10
799.040725
 20
248.416154
 11
799.040725
 21
188.976154
  0
LINE
  8
CSLAYER17
  6
CONTINUOUS
 62
     6
 10
700.040725
 20
148.496154
 11
700.040725
 21
221.196154
  0
LINE
  8
CSLAYER17
  6
CONTINUOUS
 62
     6
 10
792.040725
 20
148.496154
 11
792.040725
 21
221.196154
  0
LINE
  8
CSLAYER17
  6
CONTINUOUS
 62
     6
 10
809.040725
 20
111.396154
 11
809.040725
 21
98.696154
  0
LINE
  8
CSLAYER17
  6
CONTINUOUS
 62
     6
 10
683.040725
 20
111.396154
 11
683.040725
 21
98.696154
  0
ARC
  8
CSLAYER17
  6
CONTINUOUS
 62
     6
 10
712.040725
 20
269.596154
 40
3.000000
 50
91.000000
 51
180.000000
  0
ARC
  8
CSLAYER17
  6
CONTINUOUS
 62
     6
 10
780.040725
 20
269.596154
 40
3.000000
 50
0.000000
 51
89.000000
  0
LINE
  8
CSLAYER17
  6
CONTINUOUS
 62
     6
 10
773.540725
 20
98.696154
 11
809.040725
 21
98.696154
  0
LINE
  8
CSLAYER17
  6
CONTINUOUS
 62
     6
 10
719.540725
 20
99.696154
 11
772.540725
 21
99.696154
  0
LINE
  8
CSLAYER17
  6
CONTINUOUS
 62
     6
 10
696.680725
 20
253.216154
 11
705.400725
 21
255.676154
  0
LINE
  8
CSLAYER17
  6
CONTINUOUS
 62
     6
 10
696.680725
 20
184.176154
 11
697.840725
 21
183.836154
  0
LINE
  8
CSLAYER17
  6
CONTINUOUS
 62
     6
 10
703.700725
 20
143.676154
 11
705.380725
 21
143.216154
  0
LINE
  8
CSLAYER17
  6
CONTINUOUS
 62
     6
 10
788.380725
 20
143.676154
 11
786.700725
 21
143.216154
  0
LINE
  8
CSLAYER17
  6
CONTINUOUS
 62
     6
 10
795.400725
 20
184.176154
 11
794.220725
 21
183.836154
  0
LINE
  8
CSLAYER17
  6
CONTINUOUS
 62
     6
 10
795.400725
 20
253.216154
 11
786.680725
 21
255.676154
  0
ARC
  8
CSLAYER17
  6
CONTINUOUS
 62
     6
 10
698.040725
 20
248.416154
 40
5.000000
 50
105.700000
 51
180.000000
  0
ARC
  8
CSLAYER17
  6
CONTINUOUS
 62
     6
 10
698.040725
 20
188.976154
 40
5.000000
 50
180.000000
 51
254.290000
  0
ARC
  8
CSLAYER17
  6
CONTINUOUS
 62
     6
 10
705.040725
 20
148.496154
 40
5.000000
 50
180.000000
 51
254.470000
  0
ARC
  8
CSLAYER17
  6
CONTINUOUS
 62
     6
 10
787.040725
 20
148.496154
 40
5.000000
 50
285.520000
 51
360.000000
  0
ARC
  8
CSLAYER17
  6
CONTINUOUS
 62
     6
 10
794.040725
 20
188.976154
 40
5.000000
 50
285.700000
 51
360.000000
  0
ARC
  8
CSLAYER17
  6
CONTINUOUS
 62
     6
 10
794.040725
 20
248.416154
 40
5.000000
 50
0.000000
 51
74.290000
  0
ARC
  8
CSLAYER17
  6
CONTINUOUS
 62
     6
 10
795.040725
 20
180.956154
 40
3.000000
 50
105.700000
 51
180.000000
  0
ARC
  8
CSLAYER17
  6
CONTINUOUS
 62
     6
 10
697.040725
 20
180.956154
 40
3.000000
 50
0.000000
 51
74.290000
  0
ARC
  8
CSLAYER17
  6
CONTINUOUS
 62
     6
 10
704.040725
 20
260.476154
 40
5.000000
 50
285.700000
 51
360.000000
  0
ARC
  8
CSLAYER17
  6
CONTINUOUS
 62
     6
 10
788.040725
 20
260.476154
 40
5.000000
 50
180.000000
 51
254.290000
  0
ARC
  8
CSLAYER17
  6
CONTINUOUS
 62
     6
 10
788.040725
 20
138.396154
 40
5.000000
 50
105.520000
 51
180.000000
  0
ARC
  8
CSLAYER17
  6
CONTINUOUS
 62
     6
 10
704.040725
 20
138.396154
 40
5.000000
 50
0.000000
 51
74.470000
  0
LINE
  8
CSLAYER17
  6
CONTINUOUS
 62
     6
 10
773.540725
 20
98.696154
 11
772.540725
 21
99.696154
  0
LINE
  8
CSLAYER17
  6
CONTINUOUS
 62
     6
 10
718.540725
 20
98.696154
 11
719.540725
 21
99.696154
  0
ARC
  8
CSLAYER17
  6
CONTINUOUS
 62
     6
 10
706.040725
 20
116.696154
 40
3.000000
 50
270.000000
 51
360.000000
  0
ARC
  8
CSLAYER17
  6
CONTINUOUS
 62
     6
 10
786.040725
 20
116.696154
 40
3.000000
 50
180.000000
 51
270.000000
  0
LINE
  8
CSLAYER17
  6
CONTINUOUS
 62
     6
 10
806.820725
 20
114.296154
 11
785.260725
 21
120.096154
  0
LINE
  8
CSLAYER17
  6
CONTINUOUS
 62
     6
 10
685.260725
 20
114.296154
 11
706.820725
 21
120.096154
  0
ARC
  8
CSLAYER17
  6
CONTINUOUS
 62
     6
 10
706.040725
 20
122.996154
 40
3.000000
 50
285.060000
 51
360.000000
  0
ARC
  8
CSLAYER17
  6
CONTINUOUS
 62
     6
 10
686.040725
 20
111.396154
 40
3.000000
 50
105.060000
 51
180.000000
  0
ARC
  8
CSLAYER17
  6
CONTINUOUS
 62
     6
 10
685.540725
 20
111.196154
 40
2.500000
 50
90.000000
 51
180.000000
  0
ARC
  8
CSLAYER17
  6
CONTINUOUS
 62
     6
 10
786.040725
 20
122.996154
 40
3.000000
 50
180.000000
 51
254.930000
  0
ARC
  8
CSLAYER17
  6
CONTINUOUS
 62
     6
 10
806.540725
 20
111.196154
 40
2.500000
 50
0.000000
 51
90.000000
  0
ARC
  8
CSLAYER17
  6
CONTINUOUS
 62
     6
 10
806.040725
 20
111.396154
 40
3.000000
 50
0.000000
 51
74.930000
  0
ARC
  8
CSLAYER17
  6
CONTINUOUS
 62
     6
 10
746.040725
 20
182.696154
 40
63.500000
 50
-54.370000
 51
33.421039
  0
ARC
  8
CSLAYER17
  6
CONTINUOUS
 62
     6
 10
746.040725
 20
182.696154
 40
63.500000
 50
159.729257
 51
234.360000
  0
LINE
  8
CSLAYER17
  6
CONTINUOUS
 62
     6
 10
646.040725
 20
204.696154
 11
646.040725
 21
232.696154
  0
LINE
  8
CSLAYER17
  6
CONTINUOUS
 62
     6
 10
691.040725
 20
232.696154
 11
646.040725
 21
232.696154
  0
LINE
  8
CSLAYER17
  6
CONTINUOUS
 62
     6
 10
691.040725
 20
204.696154
 11
646.040725
 21
204.696154
  0
LINE
  8
CSLAYER17
  6
CONTINUOUS
 62
     6
 10
691.040725
 20
233.696154
 11
691.040725
 21
203.696154
  0
LINE
  8
CSLAYER17
  6
CONTINUOUS
 62
     6
 10
693.040725
 20
203.696154
 11
691.040725
 21
203.696154
  0
ARC
  8
CSLAYER17
  6
CONTINUOUS
 62
     6
 10
682.040725
 20
218.696154
 40
4.000000
 50
-90.000000
 51
90.000000
  0
LINE
  8
CSLAYER17
  6
CONTINUOUS
 62
     6
 10
682.040725
 20
222.696154
 11
646.040725
 21
222.696154
  0
LINE
  8
CSLAYER17
  6
CONTINUOUS
 62
     6
 10
682.040725
 20
214.696154
 11
646.040725
 21
214.696154
  0
LINE
  8
CSLAYER17
  6
CONTINUOUS
 62
     6
 10
693.040725
 20
233.696154
 11
691.040725
 21
233.696154
  0
ARC
  8
CSLAYER17
  6
CONTINUOUS
 62
     6
 10
792.000725
 20
136.736154
 40
10.000000
 50
-115.900000
 51
25.890000
  0
ARC
  8
CSLAYER17
  6
CONTINUOUS
 62
     6
 10
810.000725
 20
145.476154
 40
10.000000
 50
149.790000
 51
205.890000
  0
ARC
  8
CSLAYER17
  6
CONTINUOUS
 62
     6
 10
783.260725
 20
118.736154
 40
10.000000
 50
64.100000
 51
91.310000
  0
ARC
  8
CSLAYER17
  6
CONTINUOUS
 62
     6
 10
798.540725
 20
182.696154
 40
14.500000
 50
-39.080000
 51
39.070000
  0
ARC
  8
CSLAYER17
  6
CONTINUOUS
 62
     6
 10
812.120725
 20
193.716154
 40
3.000000
 50
189.470000
 51
219.070000
  0
ARC
  8
CSLAYER17
  6
CONTINUOUS
 62
     6
 10
812.120725
 20
171.656154
 40
3.000000
 50
140.920000
 51
170.520000
  0
ARC
  8
CSLAYER17
  6
CONTINUOUS
 62
     6
 10
700.080725
 20
136.736154
 40
10.000000
 50
154.100000
 51
295.890000
  0
ARC
  8
CSLAYER17
  6
CONTINUOUS
 62
     6
 10
682.080725
 20
145.476154
 40
10.000000
 50
-25.900000
 51
30.200000
  0
ARC
  8
CSLAYER17
  6
CONTINUOUS
 62
     6
 10
708.800725
 20
118.736154
 40
10.000000
 50
88.680000
 51
115.890000
  0
ARC
  8
CSLAYER17
  6
CONTINUOUS
 62
     6
 10
693.540725
 20
182.696154
 40
14.500000
 50
140.920000
 51
219.070000
  0
ARC
  8
CSLAYER17
  6
CONTINUOUS
 62
     6
 10
679.960725
 20
193.716154
 40
3.000000
 50
320.920000
 51
350.520000
  0
ARC
  8
CSLAYER17
  6
CONTINUOUS
 62
     6
 10
679.960725
 20
171.656154
 40
3.000000
 50
9.470000
 51
39.070000
  0
ARC
  8
CSLAYER17
  6
CONTINUOUS
 62
     6
 10
746.040725
 20
182.696154
 40
80.000000
 50
-53.980000
 51
26.743684
  0
ARC
  8
CSLAYER17
  6
CONTINUOUS
 62
     6
 10
746.040725
 20
182.696154
 40
64.000000
 50
-54.690000
 51
34.093391
  0
ARC
  8
CSLAYER17
  6
CONTINUOUS
 62
     6
 10
746.040725
 20
182.696154
 40
64.000000
 50
159.894490
 51
234.680000
  0
ARC
  8
CSLAYER17
  6
CONTINUOUS
 62
     6
 10
700.080725
 20
228.656154
 40
10.000000
 50
205.340000
 51
205.890000
  0
ARC
  8
CSLAYER17
  6
CONTINUOUS
 62
     6
 10
746.040725
 20
182.696154
 40
80.000000
 50
164.037986
 51
233.970000
  0
ARC
  8
CSLAYER17
  6
CONTINUOUS
 62
     6
 10
746.040725
 20
182.696154
 40
80.000000
 50
131.490000
 51
141.317813
  0
ARC
  8
CSLAYER17
  6
CONTINUOUS
 62
     6
 10
746.040725
 20
182.696154
 40
80.000000
 50
26.743684
 51
48.500000
  0
LINE
  8
CSLAYER17
  6
CENTER
 62
     3
 10
746.040725
 20
92.696154
 11
746.040725
 21
279.196154
  0
LINE
  8
CSLAYER17
  6
CENTER
 62
     3
 10
639.760725
 20
218.696154
 11
809.040725
 21
218.696154
  0
LINE
  8
CSLAYER17
  6
CENTER
 62
     3
 10
696.040725
 20
121.696154
 11
696.040725
 21
92.696154
  0
LINE
  8
CSLAYER17
  6
CENTER
 62
     3
 10
796.040725
 20
122.196154
 11
796.040725
 21
92.696154
  0
LINE
  8
CSLAYER17
  6
CENTER
 62
     3
 10
660.040725
 20
182.696154
 11
832.040725
 21
182.696154
  0
LINE
  8
CSLAYER17
  6
DASHED
 62
     6
 10
690.540725
 20
113.696154
 11
690.540725
 21
98.696154
  0
LINE
  8
CSLAYER17
  6
DASHED
 62
     6
 10
701.540725
 20
113.696154
 11
701.540725
 21
98.696154
  0
LINE
  8
CSLAYER17
  6
DASHED
 62
     6
 10
790.540725
 20
113.696154
 11
790.540725
 21
98.696154
  0
LINE
  8
CSLAYER17
  6
DASHED
 62
     6
 10
801.540725
 20
113.696154
 11
801.540725
 21
98.696154
  0
LINE
  8
CSLAYER17
  6
CONTINUOUS
 62
     7
 10
492.641149
 20
374.665257
 11
500.201071
 21
399.392648
  0
ARC
  8
CSLAYER17
  6
CONTINUOUS
 62
     7
 10
498.288462
 20
399.977391
 40
2.000000
 50
343.000000
 51
360.000000
  0
ARC
  8
CSLAYER17
  6
CONTINUOUS
 62
     7
 10
490.728539
 20
375.250000
 40
2.000000
 50
270.000000
 51
343.000000
  0
LINE
  8
CSLAYER17
  6
CONTINUOUS
 62
     7
 10
492.641149
 20
498.834743
 11
500.201071
 21
474.107352
  0
ARC
  8
CSLAYER17
  6
CONTINUOUS
 62
     7
 10
498.288462
 20
473.522609
 40
2.000000
 50
0.000000
 51
17.000000
  0
ARC
  8
CSLAYER17
  6
CONTINUOUS
 62
     7
 10
490.728539
 20
498.250000
 40
2.000000
 50
17.000000
 51
90.000000
  0
LINE
  8
CSLAYER17
  6
CONTINUOUS
 62
     6
 10
172.288462
 20
98.696154
 11
136.788462
 21
98.696154
  0
LINE
  8
CSLAYER17
  6
CONTINUOUS
 62
     6
 10
169.788462
 20
113.696154
 11
149.773026
 21
113.696154
  0
LINE
  8
CSLAYER17
  6
CONTINUOUS
 62
     6
 10
48.788462
 20
113.696154
 11
68.803897
 21
113.696154
  0
LINE
  8
CSLAYER17
  6
CONTINUOUS
 62
     6
 10
75.248462
 20
272.596154
 11
109.288462
 21
273.196154
  0
LINE
  8
CSLAYER17
  6
CONTINUOUS
 62
     6
 10
143.348462
 20
272.596154
 11
109.288462
 21
273.196154
  0
LINE
  8
CSLAYER17
  6
CONTINUOUS
 62
     6
 10
162.288462
 20
242.621107
 11
162.288462
 21
248.416154
  0
LINE
  8
CSLAYER17
  6
CONTINUOUS
 62
     6
 10
56.288462
 20
248.416154
 11
56.288462
 21
242.621107
  0
LINE
  8
CSLAYER17
  6
CONTINUOUS
 62
     6
 10
46.288462
 20
111.396154
 11
46.288462
 21
98.696154
  0
LINE
  8
CSLAYER17
  6
CONTINUOUS
 62
     6
 10
172.288462
 20
111.396154
 11
172.288462
 21
98.696154
  0
ARC
  8
CSLAYER17
  6
CONTINUOUS
 62
     6
 10
143.288462
 20
269.596154
 40
3.000000
 50
0.000000
 51
89.000000
  0
ARC
  8
CSLAYER17
  6
CONTINUOUS
 62
     6
 10
75.288462
 20
269.596154
 40
3.000000
 50
91.000000
 51
180.000000
  0
LINE
  8
CSLAYER17
  6
CONTINUOUS
 62
     6
 10
81.788462
 20
98.696154
 11
46.288462
 21
98.696154
  0
LINE
  8
CSLAYER17
  6
CONTINUOUS
 62
     6
 10
135.788462
 20
99.696154
 11
82.788462
 21
99.696154
  0
LINE
  8
CSLAYER17
  6
CONTINUOUS
 62
     6
 10
158.648462
 20
253.216154
 11
149.928462
 21
255.676154
  0
LINE
  8
CSLAYER17
  6
CONTINUOUS
 62
     6
 10
59.928462
 20
253.216154
 11
68.648462
 21
255.676154
  0
ARC
  8
CSLAYER17
  6
CONTINUOUS
 62
     6
 10
157.288462
 20
248.416154
 40
5.000000
 50
0.000000
 51
74.300000
  0
ARC
  8
CSLAYER17
  6
CONTINUOUS
 62
     6
 10
61.288462
 20
248.416154
 40
5.000000
 50
105.710000
 51
180.000000
  0
ARC
  8
CSLAYER17
  6
CONTINUOUS
 62
     6
 10
151.288462
 20
260.476154
 40
5.000000
 50
180.000000
 51
254.300000
  0
ARC
  8
CSLAYER17
  6
CONTINUOUS
 62
     6
 10
67.288462
 20
260.476154
 40
5.000000
 50
285.710000
 51
360.000000
  0
LINE
  8
CSLAYER17
  6
CONTINUOUS
 62
     6
 10
81.788462
 20
98.696154
 11
82.788462
 21
99.696154
  0
LINE
  8
CSLAYER17
  6
CONTINUOUS
 62
     6
 10
136.788462
 20
98.696154
 11
135.788462
 21
99.696154
  0
LINE
  8
CSLAYER17
  6
CONTINUOUS
 62
     6
 10
48.508462
 20
114.296154
 11
62.243277
 21
117.991049
  0
LINE
  8
CSLAYER17
  6
CONTINUOUS
 62
     6
 10
170.068462
 20
114.296154
 11
156.333646
 21
117.991049
  0
ARC
  8
CSLAYER17
  6
CONTINUOUS
 62
     6
 10
169.288462
 20
111.396154
 40
3.000000
 50
0.000000
 51
74.940000
  0
ARC
  8
CSLAYER17
  6
CONTINUOUS
 62
     6
 10
169.788462
 20
111.196154
 40
2.500000
 50
0.000000
 51
90.000000
  0
ARC
  8
CSLAYER17
  6
CONTINUOUS
 62
     6
 10
48.788462
 20
111.196154
 40
2.500000
 50
90.000000
 51
180.000000
  0
ARC
  8
CSLAYER17
  6
CONTINUOUS
 62
     6
 10
49.288462
 20
111.396154
 40
3.000000
 50
105.070000
 51
180.000000
  0
LINE
  8
CSLAYER17
  6
CENTER
 62
     3
 10
159.288462
 20
121.696154
 11
159.288462
 21
92.696154
  0
LINE
  8
CSLAYER17
  6
CENTER
 62
     3
 10
59.288462
 20
122.196154
 11
59.288462
 21
92.696154
  0
LINE
  8
CSLAYER17
  6
DASHED
 62
     6
 10
164.788462
 20
113.696154
 11
164.788462
 21
98.696154
  0
LINE
  8
CSLAYER17
  6
DASHED
 62
     6
 10
153.788462
 20
113.696154
 11
153.788462
 21
98.696154
  0
LINE
  8
CSLAYER17
  6
DASHED
 62
     6
 10
64.788462
 20
113.696154
 11
64.788462
 21
98.696154
  0
LINE
  8
CSLAYER17
  6
DASHED
 62
     6
 10
53.788462
 20
113.696154
 11
53.788462
 21
98.696154
  0
LINE
  8
CSLAYER17
  6
CONTINUOUS
 62
     6
 10
72.288462
 20
269.596154
 11
72.288462
 21
253.625696
  0
LINE
  8
CSLAYER17
  6
CONTINUOUS
 62
     6
 10
146.288462
 20
269.596154
 11
146.288462
 21
253.625696
  0
ARC
  8
CSLAYER17
  6
CONTINUOUS
 62
     6
 10
94.947924
 20
129.489991
 40
14.340522
 50
332.536225
 51
359.942687
  0
ARC
  8
CSLAYER17
  6
CONTINUOUS
 62
     6
 10
94.947924
 20
129.489991
 40
12.338538
 50
332.536225
 51
359.942687
  0
LINE
  8
CSLAYER17
  6
CONTINUOUS
 62
     6
 10
105.895922
 20
123.799638
 11
107.672305
 21
122.876328
  0
ARC
  8
CSLAYER17
  6
CONTINUOUS
 62
     6
 10
107.786975
 20
133.007004
 40
1.001006
 50
239.999981
 51
299.999981
  0
ARC
  8
CSLAYER17
  6
CONTINUOUS
 62
     6
 10
108.787981
 20
133.007003
 40
1.001006
 50
239.999981
 51
299.999981
  0
ARC
  8
CSLAYER17
  6
CONTINUOUS
 62
     6
 10
108.787980
 20
131.273210
 40
1.001006
 50
59.999981
 51
119.999981
  0
ARC
  8
CSLAYER17
  6
CONTINUOUS
 62
     6
 10
123.629000
 20
129.489991
 40
12.338538
 50
179.999963
 51
207.463892
  0
LINE
  8
CSLAYER17
  6
CONTINUOUS
 62
     6
 10
112.681018
 20
123.799607
 11
110.904635
 21
122.876328
  0
ARC
  8
CSLAYER17
  6
CONTINUOUS
 62
     6
 10
123.629000
 20
129.490037
 40
14.340522
 50
180.000020
 51
207.463892
  0
ARC
  8
CSLAYER17
  6
CONTINUOUS
 62
     6
 10
109.788989
 20
133.007004
 40
1.001006
 50
239.999981
 51
299.999981
  0
ARC
  8
CSLAYER17
  6
CONTINUOUS
 62
     6
 10
110.789995
 20
133.007003
 40
1.001006
 50
239.999981
 51
299.999981
  0
ARC
  8
CSLAYER17
  6
CONTINUOUS
 62
     6
 10
110.789994
 20
131.273210
 40
1.001006
 50
59.999981
 51
119.999981
  0
ARC
  8
CSLAYER17
  6
CONTINUOUS
 62
     6
 10
108.787952
 20
129.781749
 40
1.000999
 50
60.000345
 51
120.000345
  0
ARC
  8
CSLAYER17
  6
CONTINUOUS
 62
     6
 10
107.786953
 20
129.781743
 40
1.000999
 50
60.000345
 51
120.000345
  0
ARC
  8
CSLAYER17
  6
CONTINUOUS
 62
     6
 10
107.786943
 20
131.515524
 40
1.000999
 50
240.000345
 51
300.000345
  0
ARC
  8
CSLAYER17
  6
CONTINUOUS
 62
     6
 10
110.789966
 20
129.781749
 40
1.000999
 50
60.000345
 51
120.000345
  0
ARC
  8
CSLAYER17
  6
CONTINUOUS
 62
     6
 10
109.788967
 20
129.781743
 40
1.000999
 50
60.000345
 51
120.000345
  0
ARC
  8
CSLAYER17
  6
CONTINUOUS
 62
     6
 10
109.788957
 20
131.515524
 40
1.000999
 50
240.000345
 51
300.000345
  0
LINE
  8
CSLAYER17
  6
CONTINUOUS
 62
     6
 10
107.286456
 20
129.490037
 11
107.286456
 21
130.648637
  0
LINE
  8
CSLAYER17
  6
CONTINUOUS
 62
     6
 10
111.290469
 20
129.490037
 11
111.290469
 21
130.648637
  0
LINE
  8
CSLAYER17
  6
CONTINUOUS
 62
     6
 10
107.286461
 20
138.741754
 11
107.286471
 21
132.140107
  0
LINE
  8
CSLAYER17
  6
CONTINUOUS
 62
     6
 10
111.290459
 20
138.741754
 11
111.290469
 21
132.140107
  0
LINE
  8
CSLAYER17
  6
CONTINUOUS
 62
     6
 10
111.792826
 20
123.337967
 11
113.113978
 21
120.770056
  0
LINE
  8
CSLAYER17
  6
CONTINUOUS
 62
     6
 10
106.784113
 20
123.337983
 11
105.373978
 21
120.590056
  0
LINE
  8
CSLAYER17
  6
CONTINUOUS
 62
     6
 10
112.251180
 20
123.576198
 11
113.703978
 21
121.180056
  0
LINE
  8
CSLAYER17
  6
CONTINUOUS
 62
     6
 10
107.258652
 20
123.091332
 11
106.003978
 21
120.360056
  0
LINE
  8
CSLAYER17
  6
CONTINUOUS
 62
     6
 10
111.332508
 20
123.103555
 11
112.437365
 21
120.528403
  0
LINE
  8
CSLAYER17
  6
CONTINUOUS
 62
     6
 10
106.307027
 20
123.579671
 11
104.819768
 21
120.967749
  0
LINE
  8
CSLAYER17
  6
CONTINUOUS
 62
     6
 10
109.288462
 20
138.696185
 11
109.288484
 21
132.140106
  0
LINE
  8
CSLAYER17
  6
CONTINUOUS
 62
     6
 10
109.288463
 20
130.648631
 11
109.288438
 21
129.475646
  0
ENDSEC
  0
EOF
