  0
SECTION
  2
HEADER
  9
$ACADVER
  1
AC1006
  9
$INSBASE
 10
0.000000
 20
0.000000
 30
0.0
  9
$EXTMIN
 10
0.000000
 20
0.000000
  9
$EXTMAX
 10
841.000000
 20
594.000000
  9
$LIMMIN
 10
0.000000
 20
0.000000
  9
$LIMMAX
 10
841.000000
 20
594.000000
  9
$VIEWCTR
 10
420.500000
 20
297.000000
  9
$VIEWSIZE
 40
594.000000
  9
$SNAPMODE
 70
     0
  9
$SNAPUNIT
 10
1.0
 20
1.0
  9
$SNAPBASE
 10
0.0
 20
0.0
  9
$SNAPANG
 50
0.0
  9
$SNAPSTYLE
 70
     0
  9
$SNAPISOPAIR
 70
     0
  9
$GRIDMODE
 70
     0
  9
$GRIDUNIT
 10
0.0
 20
0.0
  9
$ORTHOMODE
 70
     0
  9
$REGENMODE
 70
     1
  9
$FILLMODE
 70
     1
  9
$QTEXTMODE
 70
     0
  9
$DRAGMODE
 70
     2
  9
$LTSCALE
 40
15.000000
  9
$OSMODE
 70
     0
  9
$ATTMODE
 70
     1
  9
$TEXTSIZE
 40
0.2
  9
$TRACEWID
 40
0.05
  9
$TEXTSTYLE
  7
STANDARD
  9
$CLAYER
  8
CSLAYER17
  9
$CELTYPE
  6
BYLAYER
  9
$CECOLOR
 62
   256
  9
$DIMSCALE
 40
1.0
  9
$DIMASZ
 40
0.18
  9
$DIMEXO
 40
0.0625
  9
$DIMDLI
 40
0.38
  9
$DIMRND
 40
0.0
  9
$DIMDLE
 40
0.0
  9
$DIMEXE
 40
0.18
  9
$DIMTP
 40
0.0
  9
$DIMTM
 40
0.0
  9
$DIMTXT
 40
0.18
  9
$DIMCEN
 40
0.09
  9
$DIMTSZ
 40
0.0
  9
$DIMTOL
 70
     0
  9
$DIMLIM
 70
     0
  9
$DIMTIH
 70
     1
  9
$DIMTOH
 70
     1
  9
$DIMSE1
 70
     0
  9
$DIMSE2
 70
     0
  9
$DIMTAD
 70
     0
  9
$DIMZIN
 70
     0
  9
$DIMBLK
  1

  9
$LUNITS
 70
     2
  9
$LUPREC
 70
     4
  9
$AXISMODE
 70
     0
  9
$AXISUNIT
 10
0.0
 20
0.0
  9
$SKETCHINC
 40
0.1
  9
$FILLETRAD
 40
0.0
  9
$AUNITS
 70
     0
  9
$AUPREC
 70
     0
  9
$MENU
  1
ACAD
  9
$ELEVATION
 40
0.0
  9
$THICKNESS
 40
0.0
  9
$VIEWDIR
 10
0.0
 20
0.0
 30
1.0
  9
$LIMCHECK
 70
     0
  9
$BLIPMODE
 70
     1
  9
$CHAMFERA
 40
0.0
  9
$CHAMFERB
 40
0.0
  9
$FASTZOOM
 70
     1
  9
$SKPOLY
 70
     0
  9
$TDCREATE
 40
2453098.000000
  9
$TDUPDATE
 40
2453098.000000
  9
$TDINDWG
 40
0.0
  9
$TDUSRTIMER
 40
0.0
  9
$USRTIMER
 70
     1
  9
$ANGBASE
 50
0.0
  9
$ANGDIR
 70
     0
  9
$PDMODE
 70
     0
  9
$PDSIZE
 40
0.0
  9
$PLINEWID
 40
0.0
  9
$COORDS
 70
     0
  9
$USERI1
 70
     0
  9
$USERI2
 70
     0
  9
$USERI3
 70
     0
  9
$USERI4
 70
     0
  9
$USERI5
 70
     0
  9
$USERR1
 40
0.0
  9
$USERR2
 40
0.0
  9
$USERR3
 40
0.0
  9
$USERR4
 40
0.0
  9
$USERR5
 40
0.0
  0
ENDSEC
  0
SECTION
  2
TABLES
  0
TABLE
  2
LTYPE
 70
     9
  0
LTYPE
  2
CONTINUOUS
 70
    64
  3
Solid line
 72
    65
 73
     0
 40
0.0
  0
LTYPE
  2
DASHED
 70
    64
  3
__ __ __ __ __ __ __ __ __ __ __ __ __ __ __
 72
    65
 73
     2
 40
0.75
 49
0.5
 49
-0.25
  0
LTYPE
  2
HIDDEN
 70
    64
  3
_ _ _ _ _ _ _ _ _ _ _ _ _ _ _ _ _ _ _ _ _ _ _
 72
    65
 73
     2
 40
0.375
 49
0.25
 49
-0.125
  0
LTYPE
  2
DOT
 70
    64
  3
...............................................
 72
    65
 73
     2
 40
0.25
 49
0.0
 49
-0.25
  0
LTYPE
  2
DASHDOT
 70
    64
  3
__ . __ . __ . __ . __ . __ . __ . __ . __ . __
 72
    65
 73
     4
 40
1.0
 49
0.5
 49
-0.25
 49
0.0
 49
-0.25
  0
LTYPE
  2
DIVIDE
 70
    64
  3
__ . . __ . . __ . . __ . . __ . . __ . . __
 72
    65
 73
     6
 40
1.25
 49
0.5
 49
-0.25
 49
0.0
 49
-0.25
 49
0.0
 49
-0.25
  0
LTYPE
  2
CENTER
 70
    64
  3
____ _ ____ _ ____ _ ____ _ ____ _ ____ _ ____ 
 72
    65
 73
     4
 40
2.0
 49
1.25
 49
-0.25
 49
0.25
 49
-0.25
  0
LTYPE
  2
PHANTOM
 70
    64
  3
______  __  __  ______  __  __  ______  __  __ 
 72
    65
 73
     6
 40
2.5
 49
1.25
 49
-0.25
 49
0.25
 49
-0.25
 49
0.25
 49
-0.25
  0
LTYPE
  2
BORDER
 70
    64
  3
__ __ . __ __ . __ __ . __ __ . __ __ . __ __ .
 72
    65
 73
     6
 40
1.75
 49
0.5
 49
-0.25
 49
0.5
 49
-0.25
 49
0.0
 49
-0.25
  0
ENDTAB
  0
TABLE
  2
LAYER
 70
    16
  0
LAYER
  2
CSLAYER1
 70
    64
 62
     7
  6
CONTINUOUS
  0
LAYER
  2
CSLAYER2
 70
    64
 62
     7
  6
CONTINUOUS
  0
LAYER
  2
CSLAYER3
 70
    64
 62
     7
  6
CONTINUOUS
  0
LAYER
  2
CSLAYER4
 70
    64
 62
     7
  6
CONTINUOUS
  0
LAYER
  2
CSLAYER5
 70
    64
 62
     7
  6
CONTINUOUS
  0
LAYER
  2
CSLAYER6
 70
    64
 62
     7
  6
CONTINUOUS
  0
LAYER
  2
CSLAYER7
 70
    64
 62
     7
  6
CONTINUOUS
  0
LAYER
  2
CSLAYER8
 70
    64
 62
     7
  6
CONTINUOUS
  0
LAYER
  2
CSLAYER9
 70
    64
 62
     7
  6
CONTINUOUS
  0
LAYER
  2
CSLAYER10
 70
    64
 62
     7
  6
CONTINUOUS
  0
LAYER
  2
CSLAYER11
 70
    64
 62
     7
  6
CONTINUOUS
  0
LAYER
  2
CSLAYER12
 70
    64
 62
     7
  6
CONTINUOUS
  0
LAYER
  2
CSLAYER13
 70
    64
 62
     7
  6
CONTINUOUS
  0
LAYER
  2
CSLAYER14
 70
    64
 62
     7
  6
CONTINUOUS
  0
LAYER
  2
CSLAYER15
 70
    64
 62
     7
  6
CONTINUOUS
  0
LAYER
  2
CSLAYER16
 70
    64
 62
     7
  6
CONTINUOUS
  0
ENDTAB
  0
TABLE
  2
STYLE
 70
     1
  0
STYLE
  2
FX_FONT
 70
     0
 40
1.0
 41
1.0
 50
0.0
 71
     0
 42
1.0
  3
monotxt
  4
bigfont
  0
ENDTAB
  0
TABLE
  2
VIEW
 70
     0
  0
ENDTAB
  0
ENDSEC
  0
SECTION
  2
BLOCKS
  0
ENDSEC
  0
SECTION
  2
ENTITIES
  0
LINE
  8
CSLAYER17
  6
CENTER
 62
     3
 10
213.300462
 20
182.696154
 11
506.569565
 21
182.696154
  0
LINE
  8
CSLAYER17
  6
CENTER
 62
     3
 10
251.288462
 20
214.696154
 11
251.288462
 21
150.696154
  0
LINE
  8
CSLAYER17
  6
CENTER
 62
     3
 10
246.288462
 20
145.696154
 11
246.288462
 21
134.996142
  0
LINE
  8
CSLAYER17
  6
CENTER
 62
     3
 10
251.288462
 20
382.749969
 11
251.288462
 21
405.356781
  0
LINE
  8
CSLAYER17
  6
CENTER
 62
     3
 10
213.300462
 20
436.750000
 11
632.966087
 21
436.750000
  0
ARC
  8
CSLAYER17
  6
CONTINUOUS
 62
     3
 10
359.288462
 20
413.250000
 40
2.000000
 50
270.000000
 51
360.000000
  0
LINE
  8
CSLAYER17
  6
CONTINUOUS
 62
     3
 10
361.288462
 20
413.250000
 11
361.288462
 21
460.250000
  0
ARC
  8
CSLAYER17
  6
CONTINUOUS
 62
     3
 10
359.288462
 20
460.250000
 40
2.000000
 50
0.000000
 51
90.000000
  0
LINE
  8
CSLAYER17
  6
CONTINUOUS
 62
     3
 10
359.288462
 20
462.250000
 11
331.288462
 21
462.250000
  0
ARC
  8
CSLAYER17
  6
CONTINUOUS
 62
     3
 10
331.288462
 20
460.250000
 40
2.000000
 50
90.000000
 51
180.000000
  0
LINE
  8
CSLAYER17
  6
CONTINUOUS
 62
     3
 10
329.288462
 20
460.250000
 11
329.288462
 21
413.250000
  0
ARC
  8
CSLAYER17
  6
CONTINUOUS
 62
     3
 10
331.288462
 20
413.250000
 40
2.000000
 50
180.000000
 51
270.000000
  0
LINE
  8
CSLAYER17
  6
CONTINUOUS
 62
     3
 10
331.288462
 20
411.250000
 11
359.288462
 21
411.250000
  0
LINE
  8
CSLAYER17
  6
CENTER
 62
     3
 10
251.288462
 20
468.143158
 11
251.288462
 21
490.749969
  0
TEXT
  8
CSLAYER17
 62
     3
 10
343.345215
 20
442.000031
 40
3.500000
 41
1.125000
  1
N P
 50
-90.000000
 51
10.000000
  7
FX_FONT
 72
     5
 11
343.345215
 21
431.500031
  0
LINE
  8
CSLAYER17
  6
CONTINUOUS
 62
     6
 10
219.288462
 20
225.584612
 11
219.288462
 21
139.696154
  0
LINE
  8
CSLAYER17
  6
CONTINUOUS
 62
     6
 10
219.288462
 20
139.696154
 11
220.288462
 21
138.696154
  0
LINE
  8
CSLAYER17
  6
CONTINUOUS
 62
     6
 10
220.288462
 20
138.696154
 11
220.288462
 21
226.584612
  0
LINE
  8
CSLAYER17
  6
CONTINUOUS
 62
     6
 10
220.288462
 20
226.584612
 11
219.288462
 21
225.584612
  0
LINE
  8
CSLAYER17
  6
CONTINUOUS
 62
     6
 10
220.288462
 20
226.584612
 11
272.288462
 21
226.584612
  0
LINE
  8
CSLAYER17
  6
CONTINUOUS
 62
     6
 10
272.288462
 20
227.696154
 11
399.988462
 21
227.696154
  0
LINE
  8
CSLAYER17
  6
CONTINUOUS
 62
     6
 10
272.288462
 20
227.696154
 11
272.288462
 21
137.696154
  0
LINE
  8
CSLAYER17
  6
CONTINUOUS
 62
     6
 10
272.288462
 20
137.696154
 11
399.988462
 21
137.696154
  0
LINE
  8
CSLAYER17
  6
CONTINUOUS
 62
     6
 10
399.988462
 20
481.750000
 11
272.288462
 21
481.750000
  0
LINE
  8
CSLAYER17
  6
CONTINUOUS
 62
     6
 10
272.288462
 20
481.750000
 11
272.288462
 21
391.750000
  0
LINE
  8
CSLAYER17
  6
CONTINUOUS
 62
     6
 10
272.288462
 20
391.750000
 11
399.988462
 21
391.750000
  0
LINE
  8
CSLAYER17
  6
CONTINUOUS
 62
     6
 10
272.288462
 20
480.749969
 11
270.813425
 21
480.749969
  0
LINE
  8
CSLAYER17
  6
CONTINUOUS
 62
     6
 10
270.382578
 20
480.854462
 11
271.080210
 21
474.217010
  0
ARC
  8
CSLAYER17
  6
CONTINUOUS
 62
     6
 10
272.074716
 20
474.321503
 40
1.000000
 50
186.000026
 51
270.000001
  0
ARC
  8
CSLAYER17
  6
CONTINUOUS
 62
     6
 10
272.025095
 20
478.793793
 40
1.000000
 50
186.000026
 51
270.000001
  0
LINE
  8
CSLAYER17
  6
CONTINUOUS
 62
     6
 10
271.030527
 20
478.689240
 11
270.382578
 21
484.854462
  0
ARC
  8
CSLAYER17
  6
CONTINUOUS
 62
     6
 10
269.388010
 20
484.749969
 40
1.000000
 50
6.000003
 51
90.000016
  0
LINE
  8
CSLAYER17
  6
CONTINUOUS
 62
     6
 10
269.388010
 20
485.749969
 11
233.188852
 21
485.749969
  0
ARC
  8
CSLAYER17
  6
CONTINUOUS
 62
     6
 10
233.188852
 20
484.749969
 40
1.000000
 50
90.000003
 51
173.999998
  0
LINE
  8
CSLAYER17
  6
CONTINUOUS
 62
     6
 10
232.194345
 20
484.854462
 11
231.546335
 21
478.689240
  0
ARC
  8
CSLAYER17
  6
CONTINUOUS
 62
     6
 10
230.551828
 20
478.793793
 40
1.000000
 50
270.000001
 51
353.999989
  0
LINE
  8
CSLAYER17
  6
CONTINUOUS
 62
     6
 10
231.762888
 20
480.749969
 11
220.288462
 21
480.749969
  0
LINE
  8
CSLAYER17
  6
CONTINUOUS
 62
     6
 10
220.288462
 20
480.749969
 11
219.288462
 21
479.749969
  0
LINE
  8
CSLAYER17
  6
CONTINUOUS
 62
     6
 10
219.288462
 20
479.749969
 11
219.288462
 21
393.749969
  0
LINE
  8
CSLAYER17
  6
CONTINUOUS
 62
     6
 10
219.288462
 20
393.749969
 11
220.288462
 21
392.749969
  0
LINE
  8
CSLAYER17
  6
CONTINUOUS
 62
     6
 10
220.288462
 20
392.749969
 11
231.762888
 21
392.749969
  0
ARC
  8
CSLAYER17
  6
CONTINUOUS
 62
     6
 10
233.188852
 20
392.749969
 40
1.000000
 50
186.000012
 51
270.000001
  0
LINE
  8
CSLAYER17
  6
CONTINUOUS
 62
     6
 10
233.188852
 20
391.749969
 11
269.388010
 21
391.749969
  0
ARC
  8
CSLAYER17
  6
CONTINUOUS
 62
     6
 10
269.388010
 20
392.749969
 40
1.000000
 50
270.000001
 51
354.000017
  0
LINE
  8
CSLAYER17
  6
CONTINUOUS
 62
     6
 10
270.382578
 20
392.645416
 11
271.080210
 21
399.282928
  0
ARC
  8
CSLAYER17
  6
CONTINUOUS
 62
     6
 10
272.074716
 20
399.178375
 40
1.000000
 50
90.000009
 51
173.999984
  0
ARC
  8
CSLAYER17
  6
CONTINUOUS
 62
     6
 10
272.025095
 20
394.706146
 40
1.000000
 50
90.000009
 51
173.999984
  0
LINE
  8
CSLAYER17
  6
CONTINUOUS
 62
     6
 10
271.030527
 20
394.810699
 11
270.382578
 21
388.645416
  0
ARC
  8
CSLAYER17
  6
CONTINUOUS
 62
     6
 10
269.388010
 20
388.749969
 40
1.000000
 50
270.000001
 51
354.000017
  0
LINE
  8
CSLAYER17
  6
CONTINUOUS
 62
     6
 10
269.388010
 20
387.749969
 11
233.188852
 21
387.749969
  0
ARC
  8
CSLAYER17
  6
CONTINUOUS
 62
     6
 10
233.188852
 20
388.749969
 40
1.000000
 50
186.000012
 51
270.000001
  0
LINE
  8
CSLAYER17
  6
CONTINUOUS
 62
     6
 10
232.194345
 20
388.645416
 11
231.546335
 21
394.810699
  0
ARC
  8
CSLAYER17
  6
CONTINUOUS
 62
     6
 10
230.551828
 20
394.706146
 40
1.000000
 50
6.000021
 51
90.000009
  0
LINE
  8
CSLAYER17
  6
CONTINUOUS
 62
     6
 10
232.194345
 20
392.645416
 11
231.496713
 21
399.282928
  0
ARC
  8
CSLAYER17
  6
CONTINUOUS
 62
     6
 10
230.502146
 20
399.178375
 40
1.000000
 50
6.000021
 51
90.000009
  0
LINE
  8
CSLAYER17
  6
CONTINUOUS
 62
     6
 10
234.974436
 20
400.356781
 11
266.931528
 21
400.356781
  0
LINE
  8
CSLAYER17
  6
CONTINUOUS
 62
     6
 10
270.813425
 20
392.749969
 11
272.288462
 21
392.749969
  0
LINE
  8
CSLAYER17
  6
CONTINUOUS
 62
     6
 10
220.288462
 20
392.749969
 11
220.288462
 21
480.749969
  0
ARC
  8
CSLAYER17
  6
CONTINUOUS
 62
     6
 10
233.188852
 20
480.749969
 40
1.000000
 50
90.000003
 51
173.999998
  0
LINE
  8
CSLAYER17
  6
CONTINUOUS
 62
     6
 10
233.188852
 20
481.749969
 11
269.388010
 21
481.749969
  0
ARC
  8
CSLAYER17
  6
CONTINUOUS
 62
     6
 10
269.388010
 20
480.749969
 40
1.000000
 50
6.000003
 51
90.000016
  0
LINE
  8
CSLAYER17
  6
CONTINUOUS
 62
     6
 10
266.931528
 20
473.143158
 11
234.974436
 21
473.143158
  0
LINE
  8
CSLAYER17
  6
CONTINUOUS
 62
     6
 10
231.496713
 20
474.217010
 11
232.194345
 21
480.854462
  0
ARC
  8
CSLAYER17
  6
CONTINUOUS
 62
     6
 10
230.502146
 20
474.321503
 40
1.000000
 50
270.000001
 51
353.999989
  0
ARC
  8
CSLAYER17
  6
CONTINUOUS
 62
     6
 10
233.288462
 20
207.696154
 40
1.000000
 50
90.000016
 51
180.000005
  0
LINE
  8
CSLAYER17
  6
CONTINUOUS
 62
     6
 10
232.288462
 20
207.696154
 11
232.288462
 21
206.696154
  0
ARC
  8
CSLAYER17
  6
CONTINUOUS
 62
     6
 10
233.288462
 20
206.696154
 40
1.000000
 50
180.000019
 51
270.000001
  0
LINE
  8
CSLAYER17
  6
CONTINUOUS
 62
     6
 10
233.288462
 20
205.696154
 11
269.288462
 21
205.696154
  0
ARC
  8
CSLAYER17
  6
CONTINUOUS
 62
     6
 10
269.288462
 20
206.696154
 40
1.000000
 50
270.000001
 51
359.942691
  0
LINE
  8
CSLAYER17
  6
CONTINUOUS
 62
     6
 10
270.288462
 20
206.696154
 11
270.288462
 21
207.696154
  0
ARC
  8
CSLAYER17
  6
CONTINUOUS
 62
     6
 10
269.288462
 20
207.696154
 40
1.000000
 50
0.000000
 51
90.000003
  0
LINE
  8
CSLAYER17
  6
CONTINUOUS
 62
     6
 10
269.288462
 20
208.696154
 11
233.288462
 21
208.696154
  0
LINE
  8
CSLAYER17
  6
CONTINUOUS
 62
     6
 10
233.288462
 20
201.696154
 11
269.288462
 21
201.696154
  0
ARC
  8
CSLAYER17
  6
CONTINUOUS
 62
     6
 10
269.288462
 20
200.696154
 40
1.000000
 50
0.000000
 51
90.000003
  0
LINE
  8
CSLAYER17
  6
CONTINUOUS
 62
     6
 10
270.288462
 20
200.696154
 11
270.288462
 21
199.696154
  0
ARC
  8
CSLAYER17
  6
CONTINUOUS
 62
     6
 10
269.288462
 20
199.696154
 40
1.000000
 50
270.000001
 51
359.942691
  0
LINE
  8
CSLAYER17
  6
CONTINUOUS
 62
     6
 10
269.288462
 20
198.696154
 11
264.517221
 21
198.696154
  0
ARC
  8
CSLAYER17
  6
CONTINUOUS
 62
     6
 10
264.517221
 20
197.696154
 40
1.000000
 50
90.000003
 51
228.590367
  0
ARC
  8
CSLAYER17
  6
CONTINUOUS
 62
     6
 10
251.288462
 20
182.696154
 40
19.000000
 50
-48.590366
 51
48.590386
  0
ARC
  8
CSLAYER17
  6
CONTINUOUS
 62
     6
 10
264.517221
 20
167.696154
 40
1.000000
 50
131.409643
 51
270.000001
  0
LINE
  8
CSLAYER17
  6
CONTINUOUS
 62
     6
 10
264.517221
 20
166.696154
 11
269.288462
 21
166.696154
  0
ARC
  8
CSLAYER17
  6
CONTINUOUS
 62
     6
 10
269.288462
 20
165.696154
 40
1.000000
 50
0.057309
 51
89.999999
  0
LINE
  8
CSLAYER17
  6
CONTINUOUS
 62
     6
 10
270.288462
 20
165.696154
 11
270.288462
 21
164.696154
  0
ARC
  8
CSLAYER17
  6
CONTINUOUS
 62
     6
 10
269.288462
 20
164.696154
 40
1.000000
 50
269.999997
 51
360.000000
  0
LINE
  8
CSLAYER17
  6
CONTINUOUS
 62
     6
 10
269.288462
 20
163.696154
 11
233.288462
 21
163.696154
  0
ARC
  8
CSLAYER17
  6
CONTINUOUS
 62
     6
 10
233.288462
 20
164.696154
 40
1.000000
 50
179.999995
 51
269.999984
  0
LINE
  8
CSLAYER17
  6
CONTINUOUS
 62
     6
 10
232.288462
 20
164.696154
 11
232.288462
 21
165.696154
  0
ARC
  8
CSLAYER17
  6
CONTINUOUS
 62
     6
 10
233.288462
 20
165.696154
 40
1.000000
 50
89.999999
 51
179.999981
  0
LINE
  8
CSLAYER17
  6
CONTINUOUS
 62
     6
 10
233.288462
 20
166.696154
 11
238.059702
 21
166.696154
  0
ARC
  8
CSLAYER17
  6
CONTINUOUS
 62
     6
 10
238.059702
 20
167.696154
 40
1.000000
 50
-89.999999
 51
48.590386
  0
ARC
  8
CSLAYER17
  6
CONTINUOUS
 62
     6
 10
251.288462
 20
182.696154
 40
19.000000
 50
131.409657
 51
228.590367
  0
ARC
  8
CSLAYER17
  6
CONTINUOUS
 62
     6
 10
238.059702
 20
197.696154
 40
1.000000
 50
-48.590366
 51
90.000019
  0
LINE
  8
CSLAYER17
  6
CONTINUOUS
 62
     6
 10
238.059702
 20
198.696154
 11
233.288462
 21
198.696154
  0
ARC
  8
CSLAYER17
  6
CONTINUOUS
 62
     6
 10
233.288462
 20
199.696154
 40
1.000000
 50
180.000019
 51
270.000001
  0
LINE
  8
CSLAYER17
  6
CONTINUOUS
 62
     6
 10
232.288462
 20
199.696154
 11
232.288462
 21
200.696154
  0
ARC
  8
CSLAYER17
  6
CONTINUOUS
 62
     6
 10
233.288462
 20
200.696154
 40
1.000000
 50
90.000016
 51
180.000005
  0
LINE
  8
CSLAYER17
  6
CONTINUOUS
 62
     6
 10
245.288462
 20
183.596148
 11
257.288462
 21
183.596148
  0
LINE
  8
CSLAYER17
  6
CONTINUOUS
 62
     6
 10
257.288462
 20
183.596148
 11
257.288462
 21
181.796160
  0
LINE
  8
CSLAYER17
  6
CONTINUOUS
 62
     6
 10
257.288462
 20
181.796160
 11
245.288462
 21
181.796160
  0
LINE
  8
CSLAYER17
  6
CONTINUOUS
 62
     6
 10
245.288462
 20
181.796160
 11
245.288462
 21
183.596148
  0
CIRCLE
  8
CSLAYER17
  6
CONTINUOUS
 62
     6
 10
251.288462
 20
182.696154
 40
12.000000
  0
CIRCLE
  8
CSLAYER17
  6
CONTINUOUS
 62
     6
 10
251.288462
 20
182.696154
 40
15.000000
  0
CIRCLE
  8
CSLAYER17
  6
CONTINUOUS
 62
     6
 10
251.288462
 20
182.696154
 40
16.000000
  0
ARC
  8
CSLAYER17
  6
CONTINUOUS
 62
     6
 10
233.288462
 20
158.696154
 40
1.000000
 50
89.999999
 51
179.999981
  0
LINE
  8
CSLAYER17
  6
CONTINUOUS
 62
     6
 10
232.288462
 20
158.696154
 11
232.288462
 21
157.696154
  0
ARC
  8
CSLAYER17
  6
CONTINUOUS
 62
     6
 10
233.288462
 20
157.696154
 40
1.000000
 50
179.999995
 51
269.999984
  0
LINE
  8
CSLAYER17
  6
CONTINUOUS
 62
     6
 10
233.288462
 20
156.696154
 11
269.288462
 21
156.696154
  0
ARC
  8
CSLAYER17
  6
CONTINUOUS
 62
     6
 10
269.288462
 20
157.696154
 40
1.000000
 50
269.999997
 51
360.000000
  0
LINE
  8
CSLAYER17
  6
CONTINUOUS
 62
     6
 10
270.288462
 20
157.696154
 11
270.288462
 21
158.696154
  0
ARC
  8
CSLAYER17
  6
CONTINUOUS
 62
     6
 10
269.288462
 20
158.696154
 40
1.000000
 50
0.057309
 51
89.999999
  0
LINE
  8
CSLAYER17
  6
CONTINUOUS
 62
     6
 10
269.288462
 20
159.696154
 11
233.288462
 21
159.696154
  0
LINE
  8
CSLAYER17
  6
CONTINUOUS
 62
     6
 10
233.288462
 20
142.696154
 11
233.288462
 21
138.696154
  0
LINE
  8
CSLAYER17
  6
CONTINUOUS
 62
     6
 10
233.288462
 20
138.696154
 11
220.288462
 21
138.696154
  0
LINE
  8
CSLAYER17
  6
CONTINUOUS
 62
     6
 10
229.172300
 20
129.692337
 11
229.001405
 21
129.525326
  0
LINE
  8
CSLAYER17
  6
CONTINUOUS
 62
     6
 10
229.001405
 20
129.525326
 11
228.828402
 21
129.357210
  0
LINE
  8
CSLAYER17
  6
CONTINUOUS
 62
     6
 10
228.828402
 20
129.357210
 11
228.655067
 21
129.190315
  0
LINE
  8
CSLAYER17
  6
CONTINUOUS
 62
     6
 10
228.655067
 20
129.190315
 11
228.483175
 21
129.026966
  0
LINE
  8
CSLAYER17
  6
CONTINUOUS
 62
     6
 10
228.483175
 20
129.026966
 11
228.314503
 21
128.869487
  0
LINE
  8
CSLAYER17
  6
CONTINUOUS
 62
     6
 10
228.314503
 20
128.869487
 11
228.150826
 21
128.720202
  0
LINE
  8
CSLAYER17
  6
CONTINUOUS
 62
     6
 10
228.150826
 20
128.720202
 11
227.993920
 21
128.581438
  0
LINE
  8
CSLAYER17
  6
CONTINUOUS
 62
     6
 10
227.993920
 20
128.581438
 11
227.852689
 21
128.458640
  0
LINE
  8
CSLAYER17
  6
CONTINUOUS
 62
     6
 10
227.852689
 20
128.458640
 11
227.706505
 21
128.330755
  0
LINE
  8
CSLAYER17
  6
CONTINUOUS
 62
     6
 10
227.706505
 20
128.330755
 11
227.556512
 21
128.198248
  0
LINE
  8
CSLAYER17
  6
CONTINUOUS
 62
     6
 10
227.556512
 20
128.198248
 11
227.403851
 21
128.061589
  0
LINE
  8
CSLAYER17
  6
CONTINUOUS
 62
     6
 10
227.403851
 20
128.061589
 11
227.249664
 21
127.921244
  0
LINE
  8
CSLAYER17
  6
CONTINUOUS
 62
     6
 10
227.249664
 20
127.921244
 11
227.095093
 21
127.777681
  0
LINE
  8
CSLAYER17
  6
CONTINUOUS
 62
     6
 10
227.095093
 20
127.777681
 11
226.941282
 21
127.631369
  0
LINE
  8
CSLAYER17
  6
CONTINUOUS
 62
     6
 10
226.941282
 20
127.631369
 11
226.789371
 21
127.482774
  0
LINE
  8
CSLAYER17
  6
CONTINUOUS
 62
     6
 10
226.789371
 20
127.482774
 11
226.640504
 21
127.332364
  0
LINE
  8
CSLAYER17
  6
CONTINUOUS
 62
     6
 10
226.640504
 20
127.332364
 11
226.495822
 21
127.180608
  0
LINE
  8
CSLAYER17
  6
CONTINUOUS
 62
     6
 10
226.495822
 20
127.180608
 11
226.356469
 21
127.027972
  0
LINE
  8
CSLAYER17
  6
CONTINUOUS
 62
     6
 10
226.356469
 20
127.027972
 11
226.300944
 21
126.965028
  0
LINE
  8
CSLAYER17
  6
CONTINUOUS
 62
     6
 10
226.300944
 20
126.965028
 11
226.246017
 21
126.901528
  0
LINE
  8
CSLAYER17
  6
CONTINUOUS
 62
     6
 10
226.246017
 20
126.901528
 11
226.191626
 21
126.837526
  0
LINE
  8
CSLAYER17
  6
CONTINUOUS
 62
     6
 10
226.191626
 20
126.837526
 11
226.137712
 21
126.773080
  0
LINE
  8
CSLAYER17
  6
CONTINUOUS
 62
     6
 10
226.137712
 20
126.773080
 11
226.084216
 21
126.708244
  0
LINE
  8
CSLAYER17
  6
CONTINUOUS
 62
     6
 10
226.084216
 20
126.708244
 11
226.031078
 21
126.643074
  0
LINE
  8
CSLAYER17
  6
CONTINUOUS
 62
     6
 10
226.031078
 20
126.643074
 11
225.978239
 21
126.577626
  0
LINE
  8
CSLAYER17
  6
CONTINUOUS
 62
     6
 10
225.978239
 20
126.577626
 11
225.925638
 21
126.511956
  0
LINE
  8
CSLAYER17
  6
CONTINUOUS
 62
     6
 10
225.925638
 20
126.511956
 11
225.873215
 21
126.446118
  0
LINE
  8
CSLAYER17
  6
CONTINUOUS
 62
     6
 10
225.873215
 20
126.446118
 11
225.820913
 21
126.380169
  0
LINE
  8
CSLAYER17
  6
CONTINUOUS
 62
     6
 10
225.820913
 20
126.380169
 11
225.692358
 21
126.217752
  0
LINE
  8
CSLAYER17
  6
CONTINUOUS
 62
     6
 10
225.692358
 20
126.217752
 11
225.721095
 21
126.170897
  0
LINE
  8
CSLAYER17
  6
CONTINUOUS
 62
     6
 10
225.721095
 20
126.170897
 11
225.761687
 21
126.111016
  0
LINE
  8
CSLAYER17
  6
CONTINUOUS
 62
     6
 10
225.761687
 20
126.111016
 11
225.805969
 21
126.051148
  0
LINE
  8
CSLAYER17
  6
CONTINUOUS
 62
     6
 10
225.805969
 20
126.051148
 11
225.853421
 21
125.991875
  0
LINE
  8
CSLAYER17
  6
CONTINUOUS
 62
     6
 10
225.853421
 20
125.991875
 11
225.903519
 21
125.933777
  0
LINE
  8
CSLAYER17
  6
CONTINUOUS
 62
     6
 10
225.903519
 20
125.933777
 11
225.955744
 21
125.877436
  0
LINE
  8
CSLAYER17
  6
CONTINUOUS
 62
     6
 10
225.955744
 20
125.877436
 11
226.009572
 21
125.823433
  0
LINE
  8
CSLAYER17
  6
CONTINUOUS
 62
     6
 10
226.009572
 20
125.823433
 11
226.064483
 21
125.772348
  0
LINE
  8
CSLAYER17
  6
CONTINUOUS
 62
     6
 10
226.064483
 20
125.772348
 11
226.119954
 21
125.724762
  0
LINE
  8
CSLAYER17
  6
CONTINUOUS
 62
     6
 10
226.119954
 20
125.724762
 11
226.175464
 21
125.681257
  0
LINE
  8
CSLAYER17
  6
CONTINUOUS
 62
     6
 10
226.175464
 20
125.681257
 11
226.230492
 21
125.642412
  0
LINE
  8
CSLAYER17
  6
CONTINUOUS
 62
     6
 10
226.230492
 20
125.642412
 11
226.286978
 21
125.608118
  0
LINE
  8
CSLAYER17
  6
CONTINUOUS
 62
     6
 10
226.286978
 20
125.608118
 11
226.347579
 21
125.577151
  0
LINE
  8
CSLAYER17
  6
CONTINUOUS
 62
     6
 10
226.347579
 20
125.577151
 11
226.411740
 21
125.549162
  0
LINE
  8
CSLAYER17
  6
CONTINUOUS
 62
     6
 10
226.411740
 20
125.549162
 11
226.478902
 21
125.523801
  0
LINE
  8
CSLAYER17
  6
CONTINUOUS
 62
     6
 10
226.478902
 20
125.523801
 11
226.548509
 21
125.500719
  0
LINE
  8
CSLAYER17
  6
CONTINUOUS
 62
     6
 10
226.548509
 20
125.500719
 11
226.620003
 21
125.479565
  0
LINE
  8
CSLAYER17
  6
CONTINUOUS
 62
     6
 10
226.620003
 20
125.479565
 11
226.692827
 21
125.459991
  0
LINE
  8
CSLAYER17
  6
CONTINUOUS
 62
     6
 10
226.692827
 20
125.459991
 11
226.766426
 21
125.441646
  0
LINE
  8
CSLAYER17
  6
CONTINUOUS
 62
     6
 10
226.766426
 20
125.441646
 11
226.840240
 21
125.424180
  0
LINE
  8
CSLAYER17
  6
CONTINUOUS
 62
     6
 10
226.840240
 20
125.424180
 11
226.913714
 21
125.407245
  0
LINE
  8
CSLAYER17
  6
CONTINUOUS
 62
     6
 10
226.913714
 20
125.407245
 11
226.986291
 21
125.390490
  0
LINE
  8
CSLAYER17
  6
CONTINUOUS
 62
     6
 10
226.986291
 20
125.390490
 11
227.060514
 21
125.372890
  0
LINE
  8
CSLAYER17
  6
CONTINUOUS
 62
     6
 10
227.060514
 20
125.372890
 11
227.134250
 21
125.354865
  0
LINE
  8
CSLAYER17
  6
CONTINUOUS
 62
     6
 10
227.134250
 20
125.354865
 11
227.207546
 21
125.336459
  0
LINE
  8
CSLAYER17
  6
CONTINUOUS
 62
     6
 10
227.207546
 20
125.336459
 11
227.280452
 21
125.317713
  0
LINE
  8
CSLAYER17
  6
CONTINUOUS
 62
     6
 10
227.280452
 20
125.317713
 11
227.353016
 21
125.298671
  0
LINE
  8
CSLAYER17
  6
CONTINUOUS
 62
     6
 10
227.353016
 20
125.298671
 11
227.425287
 21
125.279375
  0
LINE
  8
CSLAYER17
  6
CONTINUOUS
 62
     6
 10
227.425287
 20
125.279375
 11
227.497314
 21
125.259866
  0
LINE
  8
CSLAYER17
  6
CONTINUOUS
 62
     6
 10
227.497314
 20
125.259866
 11
227.569146
 21
125.240188
  0
LINE
  8
CSLAYER17
  6
CONTINUOUS
 62
     6
 10
227.569146
 20
125.240188
 11
227.640832
 21
125.220382
  0
LINE
  8
CSLAYER17
  6
CONTINUOUS
 62
     6
 10
227.640832
 20
125.220382
 11
227.712420
 21
125.200492
  0
LINE
  8
CSLAYER17
  6
CONTINUOUS
 62
     6
 10
227.712420
 20
125.200492
 11
227.793039
 21
125.178029
  0
LINE
  8
CSLAYER17
  6
CONTINUOUS
 62
     6
 10
227.793039
 20
125.178029
 11
227.920294
 21
125.350179
  0
LINE
  8
CSLAYER17
  6
CONTINUOUS
 62
     6
 10
227.920294
 20
125.350179
 11
228.015074
 21
125.477341
  0
LINE
  8
CSLAYER17
  6
CONTINUOUS
 62
     6
 10
228.015074
 20
125.477341
 11
228.110725
 21
125.603573
  0
LINE
  8
CSLAYER17
  6
CONTINUOUS
 62
     6
 10
228.110725
 20
125.603573
 11
228.207684
 21
125.728409
  0
LINE
  8
CSLAYER17
  6
CONTINUOUS
 62
     6
 10
228.207684
 20
125.728409
 11
228.306386
 21
125.851384
  0
LINE
  8
CSLAYER17
  6
CONTINUOUS
 62
     6
 10
228.306386
 20
125.851384
 11
228.407268
 21
125.972032
  0
LINE
  8
CSLAYER17
  6
CONTINUOUS
 62
     6
 10
228.407268
 20
125.972032
 11
228.510764
 21
126.089889
  0
LINE
  8
CSLAYER17
  6
CONTINUOUS
 62
     6
 10
228.510764
 20
126.089889
 11
228.617311
 21
126.204489
  0
LINE
  8
CSLAYER17
  6
CONTINUOUS
 62
     6
 10
228.617311
 20
126.204489
 11
228.727346
 21
126.315367
  0
LINE
  8
CSLAYER17
  6
CONTINUOUS
 62
     6
 10
228.727346
 20
126.315367
 11
228.841302
 21
126.422058
  0
LINE
  8
CSLAYER17
  6
CONTINUOUS
 62
     6
 10
228.841302
 20
126.422058
 11
228.959618
 21
126.524096
  0
LINE
  8
CSLAYER17
  6
CONTINUOUS
 62
     6
 10
228.959618
 20
126.524096
 11
229.111042
 21
126.643134
  0
LINE
  8
CSLAYER17
  6
CONTINUOUS
 62
     6
 10
229.111042
 20
126.643134
 11
229.269282
 21
126.757646
  0
LINE
  8
CSLAYER17
  6
CONTINUOUS
 62
     6
 10
229.269282
 20
126.757646
 11
229.432403
 21
126.868586
  0
LINE
  8
CSLAYER17
  6
CONTINUOUS
 62
     6
 10
229.432403
 20
126.868586
 11
229.598471
 21
126.976904
  0
LINE
  8
CSLAYER17
  6
CONTINUOUS
 62
     6
 10
229.598471
 20
126.976904
 11
229.765553
 21
127.083554
  0
LINE
  8
CSLAYER17
  6
CONTINUOUS
 62
     6
 10
229.765553
 20
127.083554
 11
229.931714
 21
127.189487
  0
LINE
  8
CSLAYER17
  6
CONTINUOUS
 62
     6
 10
229.931714
 20
127.189487
 11
230.095020
 21
127.295654
  0
LINE
  8
CSLAYER17
  6
CONTINUOUS
 62
     6
 10
230.095020
 20
127.295654
 11
230.253538
 21
127.403009
  0
LINE
  8
CSLAYER17
  6
CONTINUOUS
 62
     6
 10
230.253538
 20
127.403009
 11
230.405334
 21
127.512503
  0
LINE
  8
CSLAYER17
  6
CONTINUOUS
 62
     6
 10
230.405334
 20
127.512503
 11
230.548473
 21
127.625089
  0
LINE
  8
CSLAYER17
  6
CONTINUOUS
 62
     6
 10
230.548473
 20
127.625089
 11
230.681023
 21
127.741717
  0
LINE
  8
CSLAYER17
  6
CONTINUOUS
 62
     6
 10
230.681023
 20
127.741717
 11
230.784028
 21
127.844732
  0
LINE
  8
CSLAYER17
  6
CONTINUOUS
 62
     6
 10
230.784028
 20
127.844732
 11
230.885691
 21
127.958167
  0
LINE
  8
CSLAYER17
  6
CONTINUOUS
 62
     6
 10
230.885691
 20
127.958167
 11
230.985446
 21
128.080335
  0
LINE
  8
CSLAYER17
  6
CONTINUOUS
 62
     6
 10
230.985446
 20
128.080335
 11
231.082724
 21
128.209544
  0
LINE
  8
CSLAYER17
  6
CONTINUOUS
 62
     6
 10
231.082724
 20
128.209544
 11
231.176959
 21
128.344104
  0
LINE
  8
CSLAYER17
  6
CONTINUOUS
 62
     6
 10
231.176959
 20
128.344104
 11
231.267583
 21
128.482325
  0
LINE
  8
CSLAYER17
  6
CONTINUOUS
 62
     6
 10
231.267583
 20
128.482325
 11
231.354029
 21
128.622519
  0
LINE
  8
CSLAYER17
  6
CONTINUOUS
 62
     6
 10
231.354029
 20
128.622519
 11
231.435730
 21
128.762993
  0
LINE
  8
CSLAYER17
  6
CONTINUOUS
 62
     6
 10
231.435730
 20
128.762993
 11
231.512119
 21
128.902060
  0
LINE
  8
CSLAYER17
  6
CONTINUOUS
 62
     6
 10
231.512119
 20
128.902060
 11
231.582628
 21
129.038028
  0
LINE
  8
CSLAYER17
  6
CONTINUOUS
 62
     6
 10
231.582628
 20
129.038028
 11
231.687889
 21
129.253568
  0
ARC
  8
CSLAYER17
  6
CONTINUOUS
 62
     6
 10
230.761778
 20
128.697490
 40
1.080690
 50
30.945197
 51
90.945197
  0
ARC
  8
CSLAYER17
  6
CONTINUOUS
 62
     6
 10
229.817087
 20
129.222323
 40
1.080690
 50
30.945197
 51
90.945197
  0
ARC
  8
CSLAYER17
  6
CONTINUOUS
 62
     6
 10
230.726123
 20
130.858576
 40
1.080690
 50
210.945197
 51
270.945197
  0
LINE
  8
CSLAYER17
  6
CONTINUOUS
 62
     6
 10
229.799279
 20
130.302843
 11
229.654576
 21
130.163497
  0
LINE
  8
CSLAYER17
  6
CONTINUOUS
 62
     6
 10
229.654576
 20
130.163497
 11
229.500661
 21
130.013747
  0
LINE
  8
CSLAYER17
  6
CONTINUOUS
 62
     6
 10
229.500661
 20
130.013747
 11
229.339311
 21
129.855919
  0
LINE
  8
CSLAYER17
  6
CONTINUOUS
 62
     6
 10
229.339311
 20
129.855919
 11
229.172300
 21
129.692337
  0
ARC
  8
CSLAYER17
  6
CONTINUOUS
 62
     6
 10
232.273219
 20
131.706691
 40
1.095863
 50
203.568976
 51
263.568976
  0
ARC
  8
CSLAYER17
  6
CONTINUOUS
 62
     6
 10
233.154920
 20
131.055908
 40
1.095863
 50
203.568976
 51
263.568976
  0
ARC
  8
CSLAYER17
  6
CONTINUOUS
 62
     6
 10
232.027730
 20
129.528757
 40
1.095863
 50
23.568976
 51
83.568976
  0
LINE
  8
CSLAYER17
  6
CONTINUOUS
 62
     6
 10
231.521903
 20
131.448478
 11
231.268792
 21
131.268511
  0
LINE
  8
CSLAYER17
  6
CONTINUOUS
 62
     6
 10
231.521903
 20
131.448478
 11
231.774764
 21
131.628798
  0
LINE
  8
CSLAYER17
  6
CONTINUOUS
 62
     6
 10
231.774764
 20
131.628798
 11
232.027124
 21
131.809824
  0
LINE
  8
CSLAYER17
  6
CONTINUOUS
 62
     6
 10
232.027124
 20
131.809824
 11
232.278732
 21
131.991908
  0
LINE
  8
CSLAYER17
  6
CONTINUOUS
 62
     6
 10
232.278732
 20
131.991908
 11
232.529338
 21
132.175403
  0
LINE
  8
CSLAYER17
  6
CONTINUOUS
 62
     6
 10
232.529338
 20
132.175403
 11
232.778690
 21
132.360662
  0
LINE
  8
CSLAYER17
  6
CONTINUOUS
 62
     6
 10
232.778690
 20
132.360662
 11
233.026539
 21
132.548037
  0
LINE
  8
CSLAYER17
  6
CONTINUOUS
 62
     6
 10
233.026539
 20
132.548037
 11
233.272634
 21
132.737882
  0
LINE
  8
CSLAYER17
  6
CONTINUOUS
 62
     6
 10
233.272634
 20
132.737882
 11
233.516724
 21
132.930550
  0
LINE
  8
CSLAYER17
  6
CONTINUOUS
 62
     6
 10
233.516724
 20
132.930550
 11
233.758558
 21
133.126392
  0
LINE
  8
CSLAYER17
  6
CONTINUOUS
 62
     6
 10
233.758558
 20
133.126392
 11
233.997887
 21
133.325762
  0
LINE
  8
CSLAYER17
  6
CONTINUOUS
 62
     6
 10
233.997887
 20
133.325762
 11
234.155151
 21
133.460059
  0
LINE
  8
CSLAYER17
  6
CONTINUOUS
 62
     6
 10
234.155151
 20
133.460059
 11
234.312201
 21
133.597083
  0
LINE
  8
CSLAYER17
  6
CONTINUOUS
 62
     6
 10
234.312201
 20
133.597083
 11
234.468292
 21
133.736643
  0
LINE
  8
CSLAYER17
  6
CONTINUOUS
 62
     6
 10
234.468292
 20
133.736643
 11
234.622681
 21
133.878545
  0
LINE
  8
CSLAYER17
  6
CONTINUOUS
 62
     6
 10
234.622681
 20
133.878545
 11
234.774626
 21
134.022598
  0
LINE
  8
CSLAYER17
  6
CONTINUOUS
 62
     6
 10
234.774626
 20
134.022598
 11
234.923382
 21
134.168608
  0
LINE
  8
CSLAYER17
  6
CONTINUOUS
 62
     6
 10
234.923382
 20
134.168608
 11
235.068209
 21
134.316383
  0
LINE
  8
CSLAYER17
  6
CONTINUOUS
 62
     6
 10
235.068209
 20
134.316383
 11
235.208361
 21
134.465730
  0
LINE
  8
CSLAYER17
  6
CONTINUOUS
 62
     6
 10
235.208361
 20
134.465730
 11
235.343097
 21
134.616458
  0
LINE
  8
CSLAYER17
  6
CONTINUOUS
 62
     6
 10
235.343097
 20
134.616458
 11
235.471673
 21
134.768372
  0
LINE
  8
CSLAYER17
  6
CONTINUOUS
 62
     6
 10
235.471673
 20
134.768372
 11
235.593346
 21
134.921282
  0
LINE
  8
CSLAYER17
  6
CONTINUOUS
 62
     6
 10
235.593346
 20
134.921282
 11
235.707800
 21
135.072608
  0
LINE
  8
CSLAYER17
  6
CONTINUOUS
 62
     6
 10
235.707800
 20
135.072608
 11
235.823101
 21
135.229862
  0
LINE
  8
CSLAYER17
  6
CONTINUOUS
 62
     6
 10
235.823101
 20
135.229862
 11
235.938714
 21
135.391920
  0
LINE
  8
CSLAYER17
  6
CONTINUOUS
 62
     6
 10
235.938714
 20
135.391920
 11
236.054107
 21
135.557660
  0
LINE
  8
CSLAYER17
  6
CONTINUOUS
 62
     6
 10
236.054107
 20
135.557660
 11
236.168747
 21
135.725959
  0
LINE
  8
CSLAYER17
  6
CONTINUOUS
 62
     6
 10
236.168747
 20
135.725959
 11
236.282101
 21
135.895695
  0
LINE
  8
CSLAYER17
  6
CONTINUOUS
 62
     6
 10
236.282101
 20
135.895695
 11
236.393637
 21
136.065746
  0
LINE
  8
CSLAYER17
  6
CONTINUOUS
 62
     6
 10
236.393637
 20
136.065746
 11
236.502821
 21
136.234988
  0
LINE
  8
CSLAYER17
  6
CONTINUOUS
 62
     6
 10
236.502821
 20
136.234988
 11
236.609121
 21
136.402300
  0
LINE
  8
CSLAYER17
  6
CONTINUOUS
 62
     6
 10
236.609121
 20
136.402300
 11
236.712004
 21
136.566558
  0
LINE
  8
CSLAYER17
  6
CONTINUOUS
 62
     6
 10
236.712004
 20
136.566558
 11
236.810937
 21
136.726641
  0
LINE
  8
CSLAYER17
  6
CONTINUOUS
 62
     6
 10
236.810937
 20
136.726641
 11
236.897410
 21
136.864867
  0
LINE
  8
CSLAYER17
  6
CONTINUOUS
 62
     6
 10
236.897410
 20
136.864867
 11
236.989362
 21
137.007325
  0
LINE
  8
CSLAYER17
  6
CONTINUOUS
 62
     6
 10
236.989362
 20
137.007325
 11
237.085562
 21
137.152805
  0
LINE
  8
CSLAYER17
  6
CONTINUOUS
 62
     6
 10
237.085562
 20
137.152805
 11
237.184781
 21
137.300095
  0
LINE
  8
CSLAYER17
  6
CONTINUOUS
 62
     6
 10
237.184781
 20
137.300095
 11
237.285789
 21
137.447985
  0
LINE
  8
CSLAYER17
  6
CONTINUOUS
 62
     6
 10
237.285789
 20
137.447985
 11
237.387357
 21
137.595264
  0
LINE
  8
CSLAYER17
  6
CONTINUOUS
 62
     6
 10
237.387357
 20
137.595264
 11
237.488255
 21
137.740720
  0
LINE
  8
CSLAYER17
  6
CONTINUOUS
 62
     6
 10
237.488255
 20
137.740720
 11
237.587254
 21
137.883144
  0
LINE
  8
CSLAYER17
  6
CONTINUOUS
 62
     6
 10
237.587254
 20
137.883144
 11
237.683124
 21
138.021324
  0
LINE
  8
CSLAYER17
  6
CONTINUOUS
 62
     6
 10
237.683124
 20
138.021324
 11
237.803665
 21
138.196154
  0
ARC
  8
CSLAYER17
  6
CONTINUOUS
 62
     6
 10
235.538462
 20
140.196154
 40
2.000000
 50
180.000000
 51
270.000000
  0
LINE
  8
CSLAYER17
  6
CONTINUOUS
 62
     6
 10
233.538462
 20
140.196154
 11
233.538462
 21
140.696154
  0
LINE
  8
CSLAYER17
  6
CONTINUOUS
 62
     6
 10
233.288462
 20
140.696154
 11
259.288462
 21
140.696154
  0
LINE
  8
CSLAYER17
  6
CONTINUOUS
 62
     6
 10
259.288462
 20
142.696154
 11
233.288462
 21
142.696154
  0
LINE
  8
CSLAYER17
  6
CONTINUOUS
 62
     6
 10
235.538462
 20
138.196154
 11
244.627087
 21
138.196154
  0
ARC
  8
CSLAYER17
  6
CONTINUOUS
 62
     6
 10
246.288462
 20
144.996142
 40
7.000000
 50
253.743003
 51
286.257026
  0
ARC
  8
CSLAYER17
  6
CONTINUOUS
 62
     6
 10
247.968119
 20
139.236071
 40
1.000000
 50
286.257408
 51
354.999902
  0
LINE
  8
CSLAYER17
  6
CONTINUOUS
 62
     6
 10
248.964304
 20
139.148913
 11
249.019419
 21
139.778734
  0
ARC
  8
CSLAYER17
  6
CONTINUOUS
 62
     6
 10
248.820200
 20
139.796160
 40
0.200000
 50
-5.000126
 51
90.000019
  0
LINE
  8
CSLAYER17
  6
CONTINUOUS
 62
     6
 10
249.088449
 20
139.996172
 11
246.288462
 21
139.996142
  0
LINE
  8
CSLAYER17
  6
CONTINUOUS
 62
     6
 10
246.288462
 20
139.996142
 11
243.488474
 21
139.996142
  0
ARC
  8
CSLAYER17
  6
CONTINUOUS
 62
     6
 10
243.488474
 20
140.096148
 40
0.100000
 50
180.000005
 51
270.000001
  0
LINE
  8
CSLAYER17
  6
CONTINUOUS
 62
     6
 10
243.388437
 20
140.096148
 11
243.388437
 21
140.596148
  0
ARC
  8
CSLAYER17
  6
CONTINUOUS
 62
     6
 10
243.488474
 20
140.596148
 40
0.100000
 50
90.000003
 51
180.000005
  0
ARC
  8
CSLAYER17
  6
CONTINUOUS
 62
     6
 10
243.756723
 20
139.796160
 40
0.200000
 50
90.000003
 51
185.000154
  0
LINE
  8
CSLAYER17
  6
CONTINUOUS
 62
     6
 10
243.557474
 20
139.778734
 11
243.612558
 21
139.148913
  0
ARC
  8
CSLAYER17
  6
CONTINUOUS
 62
     6
 10
244.608774
 20
139.236071
 40
1.000000
 50
185.000113
 51
253.742620
  0
LINE
  8
CSLAYER17
  6
CONTINUOUS
 62
     6
 10
242.717084
 20
138.196154
 11
242.551966
 21
137.178110
  0
LINE
  8
CSLAYER17
  6
CONTINUOUS
 62
     6
 10
242.551966
 20
137.178110
 11
242.493831
 21
136.855683
  0
LINE
  8
CSLAYER17
  6
CONTINUOUS
 62
     6
 10
242.493831
 20
136.855683
 11
242.428978
 21
136.523873
  0
LINE
  8
CSLAYER17
  6
CONTINUOUS
 62
     6
 10
242.428978
 20
136.523873
 11
242.358603
 21
136.186077
  0
LINE
  8
CSLAYER17
  6
CONTINUOUS
 62
     6
 10
242.358603
 20
136.186077
 11
242.283900
 21
135.845689
  0
LINE
  8
CSLAYER17
  6
CONTINUOUS
 62
     6
 10
242.283900
 20
135.845689
 11
242.206063
 21
135.506105
  0
LINE
  8
CSLAYER17
  6
CONTINUOUS
 62
     6
 10
242.206063
 20
135.506105
 11
242.126290
 21
135.170720
  0
LINE
  8
CSLAYER17
  6
CONTINUOUS
 62
     6
 10
242.126290
 20
135.170720
 11
242.045773
 21
134.842929
  0
LINE
  8
CSLAYER17
  6
CONTINUOUS
 62
     6
 10
242.045773
 20
134.842929
 11
241.965709
 21
134.526128
  0
LINE
  8
CSLAYER17
  6
CONTINUOUS
 62
     6
 10
241.965709
 20
134.526128
 11
241.887292
 21
134.223711
  0
LINE
  8
CSLAYER17
  6
CONTINUOUS
 62
     6
 10
241.887292
 20
134.223711
 11
241.803919
 21
133.923961
  0
LINE
  8
CSLAYER17
  6
CONTINUOUS
 62
     6
 10
241.803919
 20
133.923961
 11
241.710006
 21
133.618437
  0
LINE
  8
CSLAYER17
  6
CONTINUOUS
 62
     6
 10
241.710006
 20
133.618437
 11
241.606421
 21
133.308397
  0
LINE
  8
CSLAYER17
  6
CONTINUOUS
 62
     6
 10
241.606421
 20
133.308397
 11
241.494032
 21
132.995102
  0
LINE
  8
CSLAYER17
  6
CONTINUOUS
 62
     6
 10
241.494032
 20
132.995102
 11
241.373710
 21
132.679811
  0
LINE
  8
CSLAYER17
  6
CONTINUOUS
 62
     6
 10
241.373710
 20
132.679811
 11
241.246324
 21
132.363782
  0
LINE
  8
CSLAYER17
  6
CONTINUOUS
 62
     6
 10
241.246324
 20
132.363782
 11
241.112741
 21
132.048277
  0
LINE
  8
CSLAYER17
  6
CONTINUOUS
 62
     6
 10
241.112741
 20
132.048277
 11
240.973832
 21
131.734553
  0
LINE
  8
CSLAYER17
  6
CONTINUOUS
 62
     6
 10
240.973832
 20
131.734553
 11
240.830466
 21
131.423871
  0
LINE
  8
CSLAYER17
  6
CONTINUOUS
 62
     6
 10
240.830466
 20
131.423871
 11
240.683511
 21
131.117489
  0
LINE
  8
CSLAYER17
  6
CONTINUOUS
 62
     6
 10
240.683511
 20
131.117489
 11
240.533837
 21
130.816668
  0
LINE
  8
CSLAYER17
  6
CONTINUOUS
 62
     6
 10
240.533837
 20
130.816668
 11
240.406492
 21
130.569048
  0
LINE
  8
CSLAYER17
  6
CONTINUOUS
 62
     6
 10
240.406492
 20
130.569048
 11
240.276340
 21
130.323014
  0
LINE
  8
CSLAYER17
  6
CONTINUOUS
 62
     6
 10
240.276340
 20
130.323014
 11
240.143661
 21
130.078408
  0
LINE
  8
CSLAYER17
  6
CONTINUOUS
 62
     6
 10
240.143661
 20
130.078408
 11
240.008736
 21
129.835071
  0
LINE
  8
CSLAYER17
  6
CONTINUOUS
 62
     6
 10
240.008736
 20
129.835071
 11
239.871846
 21
129.592844
  0
LINE
  8
CSLAYER17
  6
CONTINUOUS
 62
     6
 10
239.871846
 20
129.592844
 11
239.733271
 21
129.351569
  0
LINE
  8
CSLAYER17
  6
CONTINUOUS
 62
     6
 10
239.733271
 20
129.351569
 11
239.593293
 21
129.111087
  0
LINE
  8
CSLAYER17
  6
CONTINUOUS
 62
     6
 10
239.593293
 20
129.111087
 11
239.452191
 21
128.871240
  0
LINE
  8
CSLAYER17
  6
CONTINUOUS
 62
     6
 10
239.452191
 20
128.871240
 11
239.310248
 21
128.631868
  0
LINE
  8
CSLAYER17
  6
CONTINUOUS
 62
     6
 10
239.310248
 20
128.631868
 11
239.167743
 21
128.392814
  0
LINE
  8
CSLAYER17
  6
CONTINUOUS
 62
     6
 10
239.167743
 20
128.392814
 11
239.024957
 21
128.153918
  0
ARC
  8
CSLAYER17
  6
CONTINUOUS
 62
     6
 10
239.015291
 20
129.353886
 40
1.200008
 50
210.461486
 51
270.461486
  0
ARC
  8
CSLAYER17
  6
CONTINUOUS
 62
     6
 10
237.971254
 20
129.945500
 40
1.200008
 50
210.461486
 51
270.461486
  0
LINE
  8
CSLAYER17
  6
CONTINUOUS
 62
     6
 10
236.936852
 20
129.337145
 11
237.072133
 21
129.563067
  0
LINE
  8
CSLAYER17
  6
CONTINUOUS
 62
     6
 10
237.072133
 20
129.563067
 11
237.207140
 21
129.789143
  0
LINE
  8
CSLAYER17
  6
CONTINUOUS
 62
     6
 10
237.207140
 20
129.789143
 11
237.341596
 21
130.015529
  0
LINE
  8
CSLAYER17
  6
CONTINUOUS
 62
     6
 10
237.341596
 20
130.015529
 11
237.475226
 21
130.242379
  0
LINE
  8
CSLAYER17
  6
CONTINUOUS
 62
     6
 10
237.475226
 20
130.242379
 11
237.607756
 21
130.469847
  0
LINE
  8
CSLAYER17
  6
CONTINUOUS
 62
     6
 10
237.607756
 20
130.469847
 11
237.738909
 21
130.698089
  0
LINE
  8
CSLAYER17
  6
CONTINUOUS
 62
     6
 10
237.738909
 20
130.698089
 11
237.868412
 21
130.927259
  0
LINE
  8
CSLAYER17
  6
CONTINUOUS
 62
     6
 10
237.868412
 20
130.927259
 11
237.995987
 21
131.157511
  0
LINE
  8
CSLAYER17
  6
CONTINUOUS
 62
     6
 10
237.995987
 20
131.157511
 11
238.121361
 21
131.389000
  0
LINE
  8
CSLAYER17
  6
CONTINUOUS
 62
     6
 10
238.121361
 20
131.389000
 11
238.244259
 21
131.621882
  0
LINE
  8
CSLAYER17
  6
CONTINUOUS
 62
     6
 10
238.244259
 20
131.621882
 11
238.364404
 21
131.856310
  0
LINE
  8
CSLAYER17
  6
CONTINUOUS
 62
     6
 10
238.364404
 20
131.856310
 11
238.498645
 21
132.127115
  0
LINE
  8
CSLAYER17
  6
CONTINUOUS
 62
     6
 10
238.498645
 20
132.127115
 11
238.630508
 21
132.402880
  0
LINE
  8
CSLAYER17
  6
CONTINUOUS
 62
     6
 10
238.630508
 20
132.402880
 11
238.759215
 21
132.682474
  0
LINE
  8
CSLAYER17
  6
CONTINUOUS
 62
     6
 10
238.759215
 20
132.682474
 11
238.883989
 21
132.964764
  0
LINE
  8
CSLAYER17
  6
CONTINUOUS
 62
     6
 10
238.883989
 20
132.964764
 11
239.004052
 21
133.248620
  0
LINE
  8
CSLAYER17
  6
CONTINUOUS
 62
     6
 10
239.004052
 20
133.248620
 11
239.118627
 21
133.532910
  0
LINE
  8
CSLAYER17
  6
CONTINUOUS
 62
     6
 10
239.118627
 20
133.532910
 11
239.226936
 21
133.816503
  0
LINE
  8
CSLAYER17
  6
CONTINUOUS
 62
     6
 10
239.226936
 20
133.816503
 11
239.328202
 21
134.098268
  0
LINE
  8
CSLAYER17
  6
CONTINUOUS
 62
     6
 10
239.328202
 20
134.098268
 11
239.421646
 21
134.377074
  0
LINE
  8
CSLAYER17
  6
CONTINUOUS
 62
     6
 10
239.421646
 20
134.377074
 11
239.506493
 21
134.651789
  0
LINE
  8
CSLAYER17
  6
CONTINUOUS
 62
     6
 10
239.506493
 20
134.651789
 11
239.581963
 21
134.921282
  0
LINE
  8
CSLAYER17
  6
CONTINUOUS
 62
     6
 10
239.581963
 20
134.921282
 11
239.656503
 21
135.206721
  0
LINE
  8
CSLAYER17
  6
CONTINUOUS
 62
     6
 10
239.656503
 20
135.206721
 11
239.732511
 21
135.505900
  0
LINE
  8
CSLAYER17
  6
CONTINUOUS
 62
     6
 10
239.732511
 20
135.505900
 11
239.808854
 21
135.815565
  0
LINE
  8
CSLAYER17
  6
CONTINUOUS
 62
     6
 10
239.808854
 20
135.815565
 11
239.884400
 21
136.132465
  0
LINE
  8
CSLAYER17
  6
CONTINUOUS
 62
     6
 10
239.884400
 20
136.132465
 11
239.958016
 21
136.453347
  0
LINE
  8
CSLAYER17
  6
CONTINUOUS
 62
     6
 10
239.958016
 20
136.453347
 11
240.028569
 21
136.774958
  0
LINE
  8
CSLAYER17
  6
CONTINUOUS
 62
     6
 10
240.028569
 20
136.774958
 11
240.094926
 21
137.094046
  0
LINE
  8
CSLAYER17
  6
CONTINUOUS
 62
     6
 10
240.094926
 20
137.094046
 11
240.155954
 21
137.407357
  0
LINE
  8
CSLAYER17
  6
CONTINUOUS
 62
     6
 10
240.155954
 20
137.407357
 11
240.210521
 21
137.711640
  0
LINE
  8
CSLAYER17
  6
CONTINUOUS
 62
     6
 10
240.210521
 20
137.711640
 11
240.288462
 21
138.196154
  0
LINE
  8
CSLAYER17
  6
CONTINUOUS
 62
     6
 10
240.160061
 20
137.430260
 11
240.111815
 21
137.342426
  0
LINE
  8
CSLAYER17
  6
CONTINUOUS
 62
     6
 10
240.111815
 20
137.342426
 11
240.001927
 21
137.150617
  0
LINE
  8
CSLAYER17
  6
CONTINUOUS
 62
     6
 10
240.001927
 20
137.150617
 11
239.883673
 21
136.951130
  0
LINE
  8
CSLAYER17
  6
CONTINUOUS
 62
     6
 10
239.883673
 20
136.951130
 11
239.758635
 21
136.746150
  0
LINE
  8
CSLAYER17
  6
CONTINUOUS
 62
     6
 10
239.758635
 20
136.746150
 11
239.628394
 21
136.537864
  0
LINE
  8
CSLAYER17
  6
CONTINUOUS
 62
     6
 10
239.628394
 20
136.537864
 11
239.494531
 21
136.328459
  0
LINE
  8
CSLAYER17
  6
CONTINUOUS
 62
     6
 10
239.494531
 20
136.328459
 11
239.358629
 21
136.120119
  0
LINE
  8
CSLAYER17
  6
CONTINUOUS
 62
     6
 10
239.358629
 20
136.120119
 11
239.222269
 21
135.915032
  0
LINE
  8
CSLAYER17
  6
CONTINUOUS
 62
     6
 10
239.222269
 20
135.915032
 11
239.087032
 21
135.715382
  0
LINE
  8
CSLAYER17
  6
CONTINUOUS
 62
     6
 10
239.087032
 20
135.715382
 11
238.954501
 21
135.523357
  0
LINE
  8
CSLAYER17
  6
CONTINUOUS
 62
     6
 10
238.954501
 20
135.523357
 11
238.826257
 21
135.341143
  0
LINE
  8
CSLAYER17
  6
CONTINUOUS
 62
     6
 10
238.826257
 20
135.341143
 11
238.721176
 21
135.196964
  0
LINE
  8
CSLAYER17
  6
CONTINUOUS
 62
     6
 10
238.721176
 20
135.196964
 11
238.609285
 21
135.049914
  0
LINE
  8
CSLAYER17
  6
CONTINUOUS
 62
     6
 10
238.609285
 20
135.049914
 11
238.491717
 21
134.900892
  0
LINE
  8
CSLAYER17
  6
CONTINUOUS
 62
     6
 10
238.491717
 20
134.900892
 11
238.369604
 21
134.750798
  0
LINE
  8
CSLAYER17
  6
CONTINUOUS
 62
     6
 10
238.369604
 20
134.750798
 11
238.244078
 21
134.600530
  0
LINE
  8
CSLAYER17
  6
CONTINUOUS
 62
     6
 10
238.244078
 20
134.600530
 11
238.116272
 21
134.450987
  0
LINE
  8
CSLAYER17
  6
CONTINUOUS
 62
     6
 10
238.116272
 20
134.450987
 11
237.987319
 21
134.303069
  0
LINE
  8
CSLAYER17
  6
CONTINUOUS
 62
     6
 10
237.987319
 20
134.303069
 11
237.858352
 21
134.157674
  0
LINE
  8
CSLAYER17
  6
CONTINUOUS
 62
     6
 10
237.858352
 20
134.157674
 11
237.730503
 21
134.015702
  0
LINE
  8
CSLAYER17
  6
CONTINUOUS
 62
     6
 10
237.730503
 20
134.015702
 11
237.604905
 21
133.878052
  0
LINE
  8
CSLAYER17
  6
CONTINUOUS
 62
     6
 10
237.604905
 20
133.878052
 11
237.482690
 21
133.745623
  0
LINE
  8
CSLAYER17
  6
CONTINUOUS
 62
     6
 10
237.482690
 20
133.745623
 11
237.337713
 21
133.593463
  0
LINE
  8
CSLAYER17
  6
CONTINUOUS
 62
     6
 10
237.337713
 20
133.593463
 11
237.184538
 21
133.439512
  0
LINE
  8
CSLAYER17
  6
CONTINUOUS
 62
     6
 10
237.184538
 20
133.439512
 11
237.025129
 21
133.284079
  0
LINE
  8
CSLAYER17
  6
CONTINUOUS
 62
     6
 10
237.025129
 20
133.284079
 11
236.861453
 21
133.127471
  0
LINE
  8
CSLAYER17
  6
CONTINUOUS
 62
     6
 10
236.861453
 20
133.127471
 11
236.695473
 21
132.969997
  0
LINE
  8
CSLAYER17
  6
CONTINUOUS
 62
     6
 10
236.695473
 20
132.969997
 11
236.529155
 21
132.811966
  0
LINE
  8
CSLAYER17
  6
CONTINUOUS
 62
     6
 10
236.529155
 20
132.811966
 11
236.364465
 21
132.653686
  0
LINE
  8
CSLAYER17
  6
CONTINUOUS
 62
     6
 10
236.364465
 20
132.653686
 11
236.203367
 21
132.495466
  0
LINE
  8
CSLAYER17
  6
CONTINUOUS
 62
     6
 10
236.203367
 20
132.495466
 11
236.047828
 21
132.337614
  0
LINE
  8
CSLAYER17
  6
CONTINUOUS
 62
     6
 10
236.047828
 20
132.337614
 11
235.899812
 21
132.180438
  0
LINE
  8
CSLAYER17
  6
CONTINUOUS
 62
     6
 10
235.899812
 20
132.180438
 11
235.761285
 21
132.024248
  0
LINE
  8
CSLAYER17
  6
CONTINUOUS
 62
     6
 10
235.761285
 20
132.024248
 11
235.635370
 21
131.877666
  0
LINE
  8
CSLAYER17
  6
CONTINUOUS
 62
     6
 10
235.635370
 20
131.877666
 11
235.504560
 21
131.727487
  0
LINE
  8
CSLAYER17
  6
CONTINUOUS
 62
     6
 10
235.504560
 20
131.727487
 11
235.368958
 21
131.575268
  0
LINE
  8
CSLAYER17
  6
CONTINUOUS
 62
     6
 10
235.368958
 20
131.575268
 11
235.228664
 21
131.422563
  0
LINE
  8
CSLAYER17
  6
CONTINUOUS
 62
     6
 10
235.228664
 20
131.422563
 11
235.083781
 21
131.270930
  0
LINE
  8
CSLAYER17
  6
CONTINUOUS
 62
     6
 10
235.083781
 20
131.270930
 11
234.934410
 21
131.121923
  0
LINE
  8
CSLAYER17
  6
CONTINUOUS
 62
     6
 10
234.934410
 20
131.121923
 11
234.780654
 21
130.977099
  0
LINE
  8
CSLAYER17
  6
CONTINUOUS
 62
     6
 10
234.780654
 20
130.977099
 11
234.622613
 21
130.838014
  0
LINE
  8
CSLAYER17
  6
CONTINUOUS
 62
     6
 10
234.622613
 20
130.838014
 11
234.460390
 21
130.706224
  0
LINE
  8
CSLAYER17
  6
CONTINUOUS
 62
     6
 10
234.460390
 20
130.706224
 11
234.294086
 21
130.583284
  0
LINE
  8
CSLAYER17
  6
CONTINUOUS
 62
     6
 10
234.294086
 20
130.583284
 11
234.123803
 21
130.470751
  0
LINE
  8
CSLAYER17
  6
CONTINUOUS
 62
     6
 10
234.123803
 20
130.470751
 11
234.031069
 21
130.415325
  0
LINE
  8
CSLAYER17
  6
CONTINUOUS
 62
     6
 10
234.031069
 20
130.415325
 11
233.936476
 21
130.362648
  0
LINE
  8
CSLAYER17
  6
CONTINUOUS
 62
     6
 10
233.936476
 20
130.362648
 11
233.840212
 21
130.312447
  0
LINE
  8
CSLAYER17
  6
CONTINUOUS
 62
     6
 10
233.840212
 20
130.312447
 11
233.742461
 21
130.264446
  0
LINE
  8
CSLAYER17
  6
CONTINUOUS
 62
     6
 10
233.742461
 20
130.264446
 11
233.643409
 21
130.218369
  0
LINE
  8
CSLAYER17
  6
CONTINUOUS
 62
     6
 10
233.643409
 20
130.218369
 11
233.543242
 21
130.173943
  0
LINE
  8
CSLAYER17
  6
CONTINUOUS
 62
     6
 10
233.543242
 20
130.173943
 11
233.442146
 21
130.130891
  0
LINE
  8
CSLAYER17
  6
CONTINUOUS
 62
     6
 10
233.442146
 20
130.130891
 11
233.340307
 21
130.088940
  0
LINE
  8
CSLAYER17
  6
CONTINUOUS
 62
     6
 10
233.340307
 20
130.088940
 11
233.237911
 21
130.047814
  0
LINE
  8
CSLAYER17
  6
CONTINUOUS
 62
     6
 10
233.237911
 20
130.047814
 11
233.135143
 21
130.007237
  0
LINE
  8
CSLAYER17
  6
CONTINUOUS
 62
     6
 10
233.135143
 20
130.007237
 11
233.032189
 21
129.966936
  0
LINE
  8
CSLAYER17
  6
CONTINUOUS
 62
     6
 10
235.930953
 20
127.646304
 11
235.796152
 21
127.480992
  0
LINE
  8
CSLAYER17
  6
CONTINUOUS
 62
     6
 10
235.796152
 20
127.480992
 11
235.657595
 21
127.309339
  0
LINE
  8
CSLAYER17
  6
CONTINUOUS
 62
     6
 10
235.657595
 20
127.309339
 11
235.517319
 21
127.132918
  0
LINE
  8
CSLAYER17
  6
CONTINUOUS
 62
     6
 10
235.517319
 20
127.132918
 11
235.377361
 21
126.953300
  0
LINE
  8
CSLAYER17
  6
CONTINUOUS
 62
     6
 10
235.377361
 20
126.953300
 11
235.239758
 21
126.772056
  0
LINE
  8
CSLAYER17
  6
CONTINUOUS
 62
     6
 10
235.239758
 20
126.772056
 11
235.106546
 21
126.590760
  0
LINE
  8
CSLAYER17
  6
CONTINUOUS
 62
     6
 10
235.106546
 20
126.590760
 11
234.979762
 21
126.410983
  0
LINE
  8
CSLAYER17
  6
CONTINUOUS
 62
     6
 10
234.979762
 20
126.410983
 11
234.861443
 21
126.234297
  0
LINE
  8
CSLAYER17
  6
CONTINUOUS
 62
     6
 10
234.861443
 20
126.234297
 11
234.753625
 21
126.062273
  0
LINE
  8
CSLAYER17
  6
CONTINUOUS
 62
     6
 10
234.753625
 20
126.062273
 11
234.655986
 21
125.898512
  0
LINE
  8
CSLAYER17
  6
CONTINUOUS
 62
     6
 10
234.655986
 20
125.898512
 11
234.556356
 21
125.729245
  0
LINE
  8
CSLAYER17
  6
CONTINUOUS
 62
     6
 10
234.556356
 20
125.729245
 11
234.454530
 21
125.555774
  0
LINE
  8
CSLAYER17
  6
CONTINUOUS
 62
     6
 10
234.454530
 20
125.555774
 11
234.350300
 21
125.379401
  0
LINE
  8
CSLAYER17
  6
CONTINUOUS
 62
     6
 10
234.350300
 20
125.379401
 11
234.243460
 21
125.201428
  0
LINE
  8
CSLAYER17
  6
CONTINUOUS
 62
     6
 10
234.243460
 20
125.201428
 11
234.133803
 21
125.023159
  0
LINE
  8
CSLAYER17
  6
CONTINUOUS
 62
     6
 10
234.133803
 20
125.023159
 11
234.021122
 21
124.845894
  0
LINE
  8
CSLAYER17
  6
CONTINUOUS
 62
     6
 10
234.021122
 20
124.845894
 11
233.905212
 21
124.670936
  0
LINE
  8
CSLAYER17
  6
CONTINUOUS
 62
     6
 10
233.905212
 20
124.670936
 11
233.785864
 21
124.499588
  0
LINE
  8
CSLAYER17
  6
CONTINUOUS
 62
     6
 10
233.785864
 20
124.499588
 11
233.662874
 21
124.333152
  0
LINE
  8
CSLAYER17
  6
CONTINUOUS
 62
     6
 10
233.662874
 20
124.333152
 11
233.536034
 21
124.172930
  0
LINE
  8
CSLAYER17
  6
CONTINUOUS
 62
     6
 10
233.536034
 20
124.172930
 11
233.437213
 21
124.056417
  0
LINE
  8
CSLAYER17
  6
CONTINUOUS
 62
     6
 10
233.437213
 20
124.056417
 11
233.335000
 21
123.942658
  0
LINE
  8
CSLAYER17
  6
CONTINUOUS
 62
     6
 10
233.335000
 20
123.942658
 11
233.229736
 21
123.831377
  0
LINE
  8
CSLAYER17
  6
CONTINUOUS
 62
     6
 10
233.229736
 20
123.831377
 11
233.121759
 21
123.722299
  0
LINE
  8
CSLAYER17
  6
CONTINUOUS
 62
     6
 10
233.121759
 20
123.722299
 11
233.011408
 21
123.615148
  0
LINE
  8
CSLAYER17
  6
CONTINUOUS
 62
     6
 10
233.011408
 20
123.615148
 11
232.899023
 21
123.509650
  0
LINE
  8
CSLAYER17
  6
CONTINUOUS
 62
     6
 10
232.899023
 20
123.509650
 11
232.784942
 21
123.405528
  0
LINE
  8
CSLAYER17
  6
CONTINUOUS
 62
     6
 10
232.784942
 20
123.405528
 11
232.669504
 21
123.302507
  0
LINE
  8
CSLAYER17
  6
CONTINUOUS
 62
     6
 10
232.669504
 20
123.302507
 11
232.553049
 21
123.200313
  0
LINE
  8
CSLAYER17
  6
CONTINUOUS
 62
     6
 10
232.553049
 20
123.200313
 11
232.457023
 21
123.116985
  0
LINE
  8
CSLAYER17
  6
CONTINUOUS
 62
     6
 10
232.457023
 20
123.116985
 11
232.526170
 21
123.082456
  0
LINE
  8
CSLAYER17
  6
CONTINUOUS
 62
     6
 10
232.526170
 20
123.082456
 11
232.610646
 21
123.034840
  0
LINE
  8
CSLAYER17
  6
CONTINUOUS
 62
     6
 10
232.610646
 20
123.034840
 11
232.696579
 21
122.981090
  0
LINE
  8
CSLAYER17
  6
CONTINUOUS
 62
     6
 10
232.696579
 20
122.981090
 11
232.782698
 21
122.921865
  0
LINE
  8
CSLAYER17
  6
CONTINUOUS
 62
     6
 10
232.782698
 20
122.921865
 11
232.867734
 21
122.857828
  0
LINE
  8
CSLAYER17
  6
CONTINUOUS
 62
     6
 10
232.867734
 20
122.857828
 11
232.950416
 21
122.789637
  0
LINE
  8
CSLAYER17
  6
CONTINUOUS
 62
     6
 10
232.950416
 20
122.789637
 11
233.029476
 21
122.717954
  0
LINE
  8
CSLAYER17
  6
CONTINUOUS
 62
     6
 10
233.029476
 20
122.717954
 11
233.103642
 21
122.643438
  0
LINE
  8
CSLAYER17
  6
CONTINUOUS
 62
     6
 10
233.103642
 20
122.643438
 11
233.171644
 21
122.566751
  0
LINE
  8
CSLAYER17
  6
CONTINUOUS
 62
     6
 10
233.171644
 20
122.566751
 11
233.232214
 21
122.488552
  0
LINE
  8
CSLAYER17
  6
CONTINUOUS
 62
     6
 10
233.232214
 20
122.488552
 11
233.284081
 21
122.409502
  0
LINE
  8
CSLAYER17
  6
CONTINUOUS
 62
     6
 10
233.284081
 20
122.409502
 11
233.299987
 21
122.381896
  0
LINE
  8
CSLAYER17
  6
CONTINUOUS
 62
     6
 10
233.299987
 20
122.381896
 11
233.315640
 21
122.353202
  0
LINE
  8
CSLAYER17
  6
CONTINUOUS
 62
     6
 10
233.315640
 20
122.353202
 11
233.331083
 21
122.323589
  0
LINE
  8
CSLAYER17
  6
CONTINUOUS
 62
     6
 10
233.331083
 20
122.323589
 11
233.346356
 21
122.293222
  0
LINE
  8
CSLAYER17
  6
CONTINUOUS
 62
     6
 10
233.346356
 20
122.293222
 11
233.361501
 21
122.262271
  0
LINE
  8
CSLAYER17
  6
CONTINUOUS
 62
     6
 10
233.361501
 20
122.262271
 11
233.376561
 21
122.230901
  0
LINE
  8
CSLAYER17
  6
CONTINUOUS
 62
     6
 10
233.376561
 20
122.230901
 11
233.391578
 21
122.199279
  0
LINE
  8
CSLAYER17
  6
CONTINUOUS
 62
     6
 10
233.391578
 20
122.199279
 11
233.406594
 21
122.167574
  0
LINE
  8
CSLAYER17
  6
CONTINUOUS
 62
     6
 10
233.406594
 20
122.167574
 11
233.421649
 21
122.135952
  0
LINE
  8
CSLAYER17
  6
CONTINUOUS
 62
     6
 10
233.421649
 20
122.135952
 11
233.436787
 21
122.104580
  0
LINE
  8
CSLAYER17
  6
CONTINUOUS
 62
     6
 10
233.436787
 20
122.104580
 11
233.452050
 21
122.073626
  0
LINE
  8
CSLAYER17
  6
CONTINUOUS
 62
     6
 10
233.452050
 20
122.073626
 11
233.492871
 21
121.995489
  0
LINE
  8
CSLAYER17
  6
CONTINUOUS
 62
     6
 10
233.492871
 20
121.995489
 11
233.536206
 21
121.918956
  0
LINE
  8
CSLAYER17
  6
CONTINUOUS
 62
     6
 10
233.536206
 20
121.918956
 11
233.581805
 21
121.843868
  0
LINE
  8
CSLAYER17
  6
CONTINUOUS
 62
     6
 10
233.581805
 20
121.843868
 11
233.629415
 21
121.770063
  0
LINE
  8
CSLAYER17
  6
CONTINUOUS
 62
     6
 10
233.629415
 20
121.770063
 11
233.678785
 21
121.697382
  0
LINE
  8
CSLAYER17
  6
CONTINUOUS
 62
     6
 10
233.678785
 20
121.697382
 11
233.729663
 21
121.625664
  0
LINE
  8
CSLAYER17
  6
CONTINUOUS
 62
     6
 10
233.729663
 20
121.625664
 11
233.781799
 21
121.554747
  0
LINE
  8
CSLAYER17
  6
CONTINUOUS
 62
     6
 10
233.781799
 20
121.554747
 11
233.834941
 21
121.484473
  0
LINE
  8
CSLAYER17
  6
CONTINUOUS
 62
     6
 10
233.834941
 20
121.484473
 11
233.888837
 21
121.414680
  0
LINE
  8
CSLAYER17
  6
CONTINUOUS
 62
     6
 10
233.888837
 20
121.414680
 11
233.943236
 21
121.345208
  0
LINE
  8
CSLAYER17
  6
CONTINUOUS
 62
     6
 10
233.943236
 20
121.345208
 11
233.995309
 21
121.279165
  0
LINE
  8
CSLAYER17
  6
CONTINUOUS
 62
     6
 10
233.995309
 20
121.279165
 11
234.122656
 21
121.388466
  0
LINE
  8
CSLAYER17
  6
CONTINUOUS
 62
     6
 10
234.122656
 20
121.388466
 11
234.259372
 21
121.506499
  0
LINE
  8
CSLAYER17
  6
CONTINUOUS
 62
     6
 10
234.259372
 20
121.506499
 11
234.395259
 21
121.625203
  0
LINE
  8
CSLAYER17
  6
CONTINUOUS
 62
     6
 10
234.395259
 20
121.625203
 11
234.529905
 21
121.744914
  0
LINE
  8
CSLAYER17
  6
CONTINUOUS
 62
     6
 10
234.529905
 20
121.744914
 11
234.662897
 21
121.865969
  0
LINE
  8
CSLAYER17
  6
CONTINUOUS
 62
     6
 10
234.662897
 20
121.865969
 11
234.793819
 21
121.988702
  0
LINE
  8
CSLAYER17
  6
CONTINUOUS
 62
     6
 10
234.793819
 20
121.988702
 11
234.922259
 21
122.113450
  0
LINE
  8
CSLAYER17
  6
CONTINUOUS
 62
     6
 10
234.922259
 20
122.113450
 11
235.047802
 21
122.240547
  0
LINE
  8
CSLAYER17
  6
CONTINUOUS
 62
     6
 10
235.047802
 20
122.240547
 11
235.170036
 21
122.370331
  0
LINE
  8
CSLAYER17
  6
CONTINUOUS
 62
     6
 10
235.170036
 20
122.370331
 11
235.288545
 21
122.503137
  0
LINE
  8
CSLAYER17
  6
CONTINUOUS
 62
     6
 10
235.288545
 20
122.503137
 11
235.402917
 21
122.639300
  0
LINE
  8
CSLAYER17
  6
CONTINUOUS
 62
     6
 10
235.402917
 20
122.639300
 11
235.539413
 21
122.813526
  0
LINE
  8
CSLAYER17
  6
CONTINUOUS
 62
     6
 10
235.539413
 20
122.813526
 11
235.671756
 21
122.994202
  0
LINE
  8
CSLAYER17
  6
CONTINUOUS
 62
     6
 10
235.671756
 20
122.994202
 11
235.800227
 21
123.179972
  0
LINE
  8
CSLAYER17
  6
CONTINUOUS
 62
     6
 10
235.800227
 20
123.179972
 11
235.925109
 21
123.369480
  0
LINE
  8
CSLAYER17
  6
CONTINUOUS
 62
     6
 10
235.925109
 20
123.369480
 11
236.046681
 21
123.561368
  0
LINE
  8
CSLAYER17
  6
CONTINUOUS
 62
     6
 10
236.046681
 20
123.561368
 11
236.165225
 21
123.754281
  0
LINE
  8
CSLAYER17
  6
CONTINUOUS
 62
     6
 10
236.165225
 20
123.754281
 11
236.281023
 21
123.946861
  0
LINE
  8
CSLAYER17
  6
CONTINUOUS
 62
     6
 10
236.281023
 20
123.946861
 11
236.394356
 21
124.137752
  0
LINE
  8
CSLAYER17
  6
CONTINUOUS
 62
     6
 10
236.394356
 20
124.137752
 11
236.505504
 21
124.325597
  0
LINE
  8
CSLAYER17
  6
CONTINUOUS
 62
     6
 10
236.505504
 20
124.325597
 11
236.614750
 21
124.509040
  0
LINE
  8
CSLAYER17
  6
CONTINUOUS
 62
     6
 10
236.614750
 20
124.509040
 11
236.722375
 21
124.686724
  0
LINE
  8
CSLAYER17
  6
CONTINUOUS
 62
     6
 10
236.722375
 20
124.686724
 11
236.827700
 21
124.852411
  0
LINE
  8
CSLAYER17
  6
CONTINUOUS
 62
     6
 10
236.827700
 20
124.852411
 11
236.942429
 21
125.022300
  0
LINE
  8
CSLAYER17
  6
CONTINUOUS
 62
     6
 10
236.942429
 20
125.022300
 11
237.064730
 21
125.194963
  0
LINE
  8
CSLAYER17
  6
CONTINUOUS
 62
     6
 10
237.064730
 20
125.194963
 11
237.192771
 21
125.368973
  0
LINE
  8
CSLAYER17
  6
CONTINUOUS
 62
     6
 10
237.192771
 20
125.368973
 11
237.324724
 21
125.542903
  0
LINE
  8
CSLAYER17
  6
CONTINUOUS
 62
     6
 10
237.324724
 20
125.542903
 11
237.458755
 21
125.715324
  0
LINE
  8
CSLAYER17
  6
CONTINUOUS
 62
     6
 10
237.458755
 20
125.715324
 11
237.593036
 21
125.884809
  0
LINE
  8
CSLAYER17
  6
CONTINUOUS
 62
     6
 10
237.593036
 20
125.884809
 11
237.725735
 21
126.049930
  0
LINE
  8
CSLAYER17
  6
CONTINUOUS
 62
     6
 10
237.725735
 20
126.049930
 11
237.855021
 21
126.209261
  0
LINE
  8
CSLAYER17
  6
CONTINUOUS
 62
     6
 10
237.855021
 20
126.209261
 11
237.979063
 21
126.361373
  0
LINE
  8
CSLAYER17
  6
CONTINUOUS
 62
     6
 10
237.979063
 20
126.361373
 11
238.148321
 21
126.568974
  0
ARC
  8
CSLAYER17
  6
CONTINUOUS
 62
     6
 10
237.066071
 20
126.139202
 40
1.164461
 50
21.658505
 51
86.024005
  0
ARC
  8
CSLAYER17
  6
CONTINUOUS
 62
     6
 10
236.100416
 20
126.789955
 40
1.164461
 50
26.024005
 51
86.024005
  0
ARC
  8
CSLAYER17
  6
CONTINUOUS
 62
     6
 10
237.227555
 20
128.462518
 40
1.164461
 50
206.024005
 51
266.024005
  0
LINE
  8
CSLAYER17
  6
CONTINUOUS
 62
     6
 10
236.181145
 20
127.951617
 11
236.059963
 21
127.803703
  0
LINE
  8
CSLAYER17
  6
CONTINUOUS
 62
     6
 10
236.059963
 20
127.803703
 11
235.930953
 21
127.646304
  0
ARC
  8
CSLAYER17
  6
CONTINUOUS
 62
     6
 10
237.990585
 20
127.545562
 40
1.200008
 50
30.461486
 51
90.461486
  0
LINE
  8
CSLAYER17
  6
CONTINUOUS
 62
     6
 10
233.222071
 20
122.501647
 11
230.779076
 21
120.107012
  0
LINE
  8
CSLAYER17
  6
CONTINUOUS
 62
     6
 10
230.164727
 20
120.319659
 11
232.910574
 21
122.822497
  0
LINE
  8
CSLAYER17
  6
CONTINUOUS
 62
     6
 10
233.502541
 20
121.978410
 11
231.251611
 21
119.539904
  0
LINE
  8
CSLAYER17
  6
CONTINUOUS
 62
     6
 10
224.824731
 20
122.398943
 11
227.050853
 21
125.375181
  0
LINE
  8
CSLAYER17
  6
CONTINUOUS
 62
     6
 10
226.485019
 20
125.521773
 11
224.139489
 21
122.847887
  0
LINE
  8
CSLAYER17
  6
CONTINUOUS
 62
     6
 10
223.596032
 20
123.367693
 11
226.067801
 21
125.769501
  0
LINE
  8
CSLAYER17
  6
CONTINUOUS
 62
     6
 10
246.384378
 20
139.996172
 11
245.940500
 21
140.696154
  0
LINE
  8
CSLAYER17
  6
CONTINUOUS
 62
     6
 10
246.440500
 20
140.696154
 11
246.884378
 21
139.996172
  0
ARC
  8
CSLAYER17
  6
CONTINUOUS
 62
     6
 10
249.088449
 20
140.096148
 40
0.100000
 50
270.000001
 51
359.942691
  0
LINE
  8
CSLAYER17
  6
CONTINUOUS
 62
     6
 10
249.188425
 20
140.096148
 11
249.188425
 21
140.596148
  0
ARC
  8
CSLAYER17
  6
CONTINUOUS
 62
     6
 10
249.088449
 20
140.596148
 40
0.100000
 50
0.000010
 51
90.000016
  0
LINE
  8
CSLAYER17
  6
CONTINUOUS
 62
     6
 10
259.288462
 20
138.696154
 11
259.288462
 21
142.696154
  0
LINE
  8
CSLAYER17
  6
CONTINUOUS
 62
     6
 10
259.288462
 20
138.696154
 11
272.288462
 21
138.696154
  0
LINE
  8
CSLAYER17
  6
CENTER
 62
     3
 10
558.788462
 20
330.750000
 11
558.788462
 21
542.750000
  0
LINE
  8
CSLAYER17
  6
CENTER
 62
     3
 10
588.288462
 20
486.750000
 11
609.288462
 21
486.750000
  0
LINE
  8
CSLAYER17
  6
CENTER
 62
     3
 10
598.788462
 20
497.250000
 11
598.788462
 21
476.250000
  0
LINE
  8
CSLAYER17
  6
CENTER
 62
     3
 10
529.288462
 20
486.750000
 11
508.288462
 21
486.750000
  0
LINE
  8
CSLAYER17
  6
CENTER
 62
     3
 10
518.788462
 20
476.250000
 11
518.788462
 21
497.250000
  0
LINE
  8
CSLAYER17
  6
CENTER
 62
     3
 10
437.288462
 20
482.711941
 11
393.988462
 21
482.711941
  0
LINE
  8
CSLAYER17
  6
CENTER
 62
     3
 10
393.988462
 20
390.778060
 11
437.288462
 21
390.778060
  0
LINE
  8
CSLAYER17
  6
CONTINUOUS
 62
     6
 10
575.788462
 20
336.750000
 11
575.788462
 21
376.750000
  0
LINE
  8
CSLAYER17
  6
CONTINUOUS
 62
     6
 10
575.788462
 20
376.750000
 11
572.788462
 21
376.750000
  0
LINE
  8
CSLAYER17
  6
DASHED
 62
     6
 10
572.788462
 20
376.750000
 11
568.788462
 21
376.750000
  0
LINE
  8
CSLAYER17
  6
DASHED
 62
     6
 10
568.788462
 20
376.750000
 11
568.788462
 21
336.750000
  0
LINE
  8
CSLAYER17
  6
CONTINUOUS
 62
     6
 10
572.788462
 20
336.750000
 11
572.788462
 21
381.750000
  0
LINE
  8
CSLAYER17
  6
CONTINUOUS
 62
     6
 10
573.788462
 20
381.750000
 11
543.788462
 21
381.750000
  0
LINE
  8
CSLAYER17
  6
CONTINUOUS
 62
     6
 10
543.788462
 20
381.750000
 11
543.788462
 21
383.750000
  0
LINE
  8
CSLAYER17
  6
CONTINUOUS
 62
     6
 10
544.788462
 20
381.750000
 11
544.788462
 21
336.750000
  0
LINE
  8
CSLAYER17
  6
CONTINUOUS
 62
     6
 10
544.788462
 20
336.750000
 11
575.788462
 21
336.750000
  0
LINE
  8
CSLAYER17
  6
CONTINUOUS
 62
     6
 10
575.788462
 20
373.750000
 11
610.303659
 21
373.750000
  0
ARC
  8
CSLAYER17
  6
CONTINUOUS
 62
     6
 10
610.196568
 20
375.750000
 40
2.000000
 50
270.000000
 51
340.725869
  0
LINE
  8
CSLAYER17
  6
CONTINUOUS
 62
     6
 10
612.084468
 20
375.089824
 11
621.176362
 21
401.089824
  0
ARC
  8
CSLAYER17
  6
CONTINUOUS
 62
     6
 10
619.288462
 20
401.750000
 40
2.000000
 50
270.000000
 51
360.000000
  0
LINE
  8
CSLAYER17
  6
CONTINUOUS
 62
     6
 10
619.288462
 20
399.750000
 11
498.288462
 21
399.750000
  0
ARC
  8
CSLAYER17
  6
CONTINUOUS
 62
     6
 10
498.288462
 20
401.750000
 40
2.000000
 50
180.000000
 51
270.000000
  0
LINE
  8
CSLAYER17
  6
CONTINUOUS
 62
     6
 10
496.400561
 20
401.089824
 11
505.492455
 21
375.089824
  0
ARC
  8
CSLAYER17
  6
CONTINUOUS
 62
     6
 10
507.380355
 20
375.750000
 40
2.000000
 50
199.274131
 51
270.000000
  0
LINE
  8
CSLAYER17
  6
CONTINUOUS
 62
     6
 10
507.380355
 20
373.750000
 11
544.788462
 21
373.750000
  0
LINE
  8
CSLAYER17
  6
CONTINUOUS
 62
     6
 10
538.788462
 20
375.750000
 11
538.788462
 21
383.750000
  0
LINE
  8
CSLAYER17
  6
CONTINUOUS
 62
     6
 10
621.288462
 20
401.750000
 11
621.288462
 21
471.750000
  0
ARC
  8
CSLAYER17
  6
CONTINUOUS
 62
     6
 10
619.288462
 20
471.750000
 40
2.000000
 50
0.000000
 51
90.000000
  0
LINE
  8
CSLAYER17
  6
CONTINUOUS
 62
     6
 10
619.288462
 20
473.750000
 11
498.288462
 21
473.750000
  0
ARC
  8
CSLAYER17
  6
CONTINUOUS
 62
     6
 10
498.288462
 20
471.750000
 40
2.000000
 50
90.000000
 51
180.000000
  0
LINE
  8
CSLAYER17
  6
CONTINUOUS
 62
     6
 10
496.400561
 20
472.410176
 11
505.492455
 21
498.410176
  0
ARC
  8
CSLAYER17
  6
CONTINUOUS
 62
     6
 10
507.380355
 20
497.750000
 40
2.000000
 50
90.000000
 51
160.725869
  0
LINE
  8
CSLAYER17
  6
CONTINUOUS
 62
     6
 10
507.380355
 20
499.750000
 11
544.788462
 21
499.750000
  0
ARC
  8
CSLAYER17
  6
CONTINUOUS
 62
     6
 10
610.196568
 20
497.750000
 40
2.000000
 50
19.274131
 51
90.000000
  0
LINE
  8
CSLAYER17
  6
CONTINUOUS
 62
     6
 10
612.084468
 20
498.410176
 11
621.176362
 21
472.410176
  0
ARC
  8
CSLAYER17
  6
CONTINUOUS
 62
     6
 10
608.313889
 20
478.750000
 40
5.000000
 50
195.530000
 51
270.000000
  0
LINE
  8
CSLAYER17
  6
CONTINUOUS
 62
     6
 10
603.493889
 20
477.410000
 11
603.033889
 21
479.090000
  0
ARC
  8
CSLAYER17
  6
CONTINUOUS
 62
     6
 10
598.213889
 20
477.750000
 40
5.000000
 50
15.530000
 51
90.000000
  0
LINE
  8
CSLAYER17
  6
CONTINUOUS
 62
     6
 10
598.213889
 20
482.750000
 11
594.256351
 21
482.750000
  0
ARC
  8
CSLAYER17
  6
CONTINUOUS
 62
     6
 10
598.788462
 20
486.750000
 40
5.500000
 50
-64.435030
 51
226.658242
  0
ARC
  8
CSLAYER17
  6
CONTINUOUS
 62
     6
 10
518.788462
 20
486.750000
 40
5.500000
 50
-46.658242
 51
244.435030
  0
LINE
  8
CSLAYER17
  6
CONTINUOUS
 62
     6
 10
538.788462
 20
489.750000
 11
538.788462
 21
497.750000
  0
LINE
  8
CSLAYER17
  6
CONTINUOUS
 62
     6
 10
534.864087
 20
470.750000
 11
534.864087
 21
402.750000
  0
LINE
  8
CSLAYER17
  6
CONTINUOUS
 62
     6
 10
407.288462
 20
383.078060
 11
405.288462
 21
383.078060
  0
LINE
  8
CSLAYER17
  6
CONTINUOUS
 62
     6
 10
405.288462
 20
383.078060
 11
405.288462
 21
398.478060
  0
LINE
  8
CSLAYER17
  6
CONTINUOUS
 62
     6
 10
405.288462
 20
398.478060
 11
407.288462
 21
398.478060
  0
LINE
  8
CSLAYER17
  6
CONTINUOUS
 62
     6
 10
405.288462
 20
397.278060
 11
399.988462
 21
397.278060
  0
LINE
  8
CSLAYER17
  6
CONTINUOUS
 62
     6
 10
399.988462
 20
397.278060
 11
399.988462
 21
384.278060
  0
LINE
  8
CSLAYER17
  6
CONTINUOUS
 62
     6
 10
399.988462
 20
384.278060
 11
405.288462
 21
384.278060
  0
ARC
  8
CSLAYER17
  6
CONTINUOUS
 62
     6
 10
410.744015
 20
387.528060
 40
10.755553
 50
162.412046
 51
197.587954
  0
ARC
  8
CSLAYER17
  6
CONTINUOUS
 62
     6
 10
410.744015
 20
394.028060
 40
10.755553
 50
162.412046
 51
197.587954
  0
ARC
  8
CSLAYER17
  6
CONTINUOUS
 62
     6
 10
410.744015
 20
485.961941
 40
10.755553
 50
162.412046
 51
197.587954
  0
LINE
  8
CSLAYER17
  6
CONTINUOUS
 62
     6
 10
399.988462
 20
489.211941
 11
399.988462
 21
476.211941
  0
LINE
  8
CSLAYER17
  6
CONTINUOUS
 62
     6
 10
399.988462
 20
476.211941
 11
405.288462
 21
476.211941
  0
LINE
  8
CSLAYER17
  6
CONTINUOUS
 62
     6
 10
405.288462
 20
475.011941
 11
405.288462
 21
490.411941
  0
LINE
  8
CSLAYER17
  6
CONTINUOUS
 62
     6
 10
405.288462
 20
490.411941
 11
407.288462
 21
490.411941
  0
LINE
  8
CSLAYER17
  6
CONTINUOUS
 62
     6
 10
405.288462
 20
489.211941
 11
399.988462
 21
489.211941
  0
ARC
  8
CSLAYER17
  6
CONTINUOUS
 62
     6
 10
410.744015
 20
479.461941
 40
10.755553
 50
162.412046
 51
197.587954
  0
LINE
  8
CSLAYER17
  6
CONTINUOUS
 62
     6
 10
405.288462
 20
475.011941
 11
407.288462
 21
475.011941
  0
LINE
  8
CSLAYER17
  6
CONTINUOUS
 62
     6
 10
405.288462
 20
481.479941
 11
407.288462
 21
482.095941
  0
LINE
  8
CSLAYER17
  6
CONTINUOUS
 62
     6
 10
407.288462
 20
483.943941
 11
405.288462
 21
483.327941
  0
LINE
  8
CSLAYER17
  6
CONTINUOUS
 62
     6
 10
405.288462
 20
482.711941
 11
400.491238
 21
482.711941
  0
LINE
  8
CSLAYER17
  6
CONTINUOUS
 62
     6
 10
428.288462
 20
513.610000
 11
428.288462
 21
359.890000
  0
ARC
  8
CSLAYER17
  6
CONTINUOUS
 62
     6
 10
425.288462
 20
359.890000
 40
3.000000
 50
271.500000
 51
360.000000
  0
LINE
  8
CSLAYER17
  6
CONTINUOUS
 62
     6
 10
425.368462
 20
356.890000
 11
420.288462
 21
356.750000
  0
LINE
  8
CSLAYER17
  6
CONTINUOUS
 62
     6
 10
420.288462
 20
356.750000
 11
420.288462
 21
516.750000
  0
LINE
  8
CSLAYER17
  6
CONTINUOUS
 62
     6
 10
420.288462
 20
516.750000
 11
407.288462
 21
516.750000
  0
LINE
  8
CSLAYER17
  6
CONTINUOUS
 62
     6
 10
407.288462
 20
516.750000
 11
407.288462
 21
356.750000
  0
LINE
  8
CSLAYER17
  6
CONTINUOUS
 62
     6
 10
407.288462
 20
356.750000
 11
420.288462
 21
356.750000
  0
LINE
  8
CSLAYER17
  6
CONTINUOUS
 62
     6
 10
407.288462
 20
390.162060
 11
405.288462
 21
389.546060
  0
LINE
  8
CSLAYER17
  6
CONTINUOUS
 62
     6
 10
405.288462
 20
390.778060
 11
400.491238
 21
390.778060
  0
LINE
  8
CSLAYER17
  6
CONTINUOUS
 62
     6
 10
405.288462
 20
391.394060
 11
407.288462
 21
392.010060
  0
LINE
  8
CSLAYER17
  6
CONTINUOUS
 62
     6
 10
573.788462
 20
383.750000
 11
573.788462
 21
381.750000
  0
LINE
  8
CSLAYER17
  6
CONTINUOUS
 62
     6
 10
578.788462
 20
383.750000
 11
578.788462
 21
375.750000
  0
LINE
  8
CSLAYER17
  6
CONTINUOUS
 62
     6
 10
582.712836
 20
402.750000
 11
582.712836
 21
470.750000
  0
LINE
  8
CSLAYER17
  6
CONTINUOUS
 62
     6
 10
578.788462
 20
489.750000
 11
578.788462
 21
497.750000
  0
ARC
  8
CSLAYER17
  6
CONTINUOUS
 62
     6
 10
425.288462
 20
513.610000
 40
3.000000
 50
0.000000
 51
88.500000
  0
LINE
  8
CSLAYER17
  6
CONTINUOUS
 62
     6
 10
425.368462
 20
516.610000
 11
420.288462
 21
516.750000
  0
LINE
  8
CSLAYER17
  6
CONTINUOUS
 62
     6
 10
496.288462
 20
471.750000
 11
496.288462
 21
401.750000
  0
ARC
  8
CSLAYER17
  6
CONTINUOUS
 62
     6
 10
529.068462
 20
484.750000
 40
5.000000
 50
90.000000
 51
164.290000
  0
LINE
  8
CSLAYER17
  6
CONTINUOUS
 62
     6
 10
524.268462
 20
486.110000
 11
521.808462
 21
477.390000
  0
ARC
  8
CSLAYER17
  6
CONTINUOUS
 62
     6
 10
517.008462
 20
478.750000
 40
5.000000
 50
270.000000
 51
344.290000
  0
LINE
  8
CSLAYER17
  6
CONTINUOUS
 62
     6
 10
588.508462
 20
489.750000
 11
529.068462
 21
489.750000
  0
ARC
  8
CSLAYER17
  6
CONTINUOUS
 62
     6
 10
588.508462
 20
484.750000
 40
5.000000
 50
15.710000
 51
90.000000
  0
LINE
  8
CSLAYER17
  6
CONTINUOUS
 62
     6
 10
593.308462
 20
486.110000
 11
595.768462
 21
477.390000
  0
ARC
  8
CSLAYER17
  6
CONTINUOUS
 62
     6
 10
600.568462
 20
478.750000
 40
5.000000
 50
195.710000
 51
270.000000
  0
ARC
  8
CSLAYER17
  6
CONTINUOUS
 62
     6
 10
509.263034
 20
478.750000
 40
5.000000
 50
270.000000
 51
344.470000
  0
LINE
  8
CSLAYER17
  6
CONTINUOUS
 62
     6
 10
514.083034
 20
477.410000
 11
514.543034
 21
479.090000
  0
ARC
  8
CSLAYER17
  6
CONTINUOUS
 62
     6
 10
519.363034
 20
477.750000
 40
5.000000
 50
90.000000
 51
164.470000
  0
LINE
  8
CSLAYER17
  6
CONTINUOUS
 62
     6
 10
519.363034
 20
482.750000
 11
523.320572
 21
482.750000
  0
LINE
  8
CSLAYER17
  6
CENTER
 62
     3
 10
588.288462
 20
386.750000
 11
609.288462
 21
386.750000
  0
LINE
  8
CSLAYER17
  6
CENTER
 62
     3
 10
598.788462
 20
376.250000
 11
598.788462
 21
397.250000
  0
LINE
  8
CSLAYER17
  6
CENTER
 62
     3
 10
529.288462
 20
386.750000
 11
508.288462
 21
386.750000
  0
LINE
  8
CSLAYER17
  6
CENTER
 62
     3
 10
518.788462
 20
397.250000
 11
518.788462
 21
376.250000
  0
ARC
  8
CSLAYER17
  6
CONTINUOUS
 62
     6
 10
608.313889
 20
394.750000
 40
5.000000
 50
90.000000
 51
164.470000
  0
LINE
  8
CSLAYER17
  6
CONTINUOUS
 62
     6
 10
603.493889
 20
396.090000
 11
603.033889
 21
394.410000
  0
ARC
  8
CSLAYER17
  6
CONTINUOUS
 62
     6
 10
598.213889
 20
395.750000
 40
5.000000
 50
270.000000
 51
344.470000
  0
LINE
  8
CSLAYER17
  6
CONTINUOUS
 62
     6
 10
598.213889
 20
390.750000
 11
594.256351
 21
390.750000
  0
ARC
  8
CSLAYER17
  6
CONTINUOUS
 62
     6
 10
598.788462
 20
386.750000
 40
5.500000
 50
-226.658242
 51
64.435030
  0
ARC
  8
CSLAYER17
  6
CONTINUOUS
 62
     6
 10
518.788462
 20
386.750000
 40
5.500000
 50
-244.435030
 51
46.658242
  0
ARC
  8
CSLAYER17
  6
CONTINUOUS
 62
     6
 10
529.068462
 20
388.750000
 40
5.000000
 50
195.710000
 51
270.000000
  0
LINE
  8
CSLAYER17
  6
CONTINUOUS
 62
     6
 10
524.268462
 20
387.390000
 11
521.808462
 21
396.110000
  0
ARC
  8
CSLAYER17
  6
CONTINUOUS
 62
     6
 10
517.008462
 20
394.750000
 40
5.000000
 50
15.710000
 51
90.000000
  0
LINE
  8
CSLAYER17
  6
CONTINUOUS
 62
     6
 10
588.508462
 20
383.750000
 11
529.068462
 21
383.750000
  0
ARC
  8
CSLAYER17
  6
CONTINUOUS
 62
     6
 10
588.508462
 20
388.750000
 40
5.000000
 50
270.000000
 51
344.290000
  0
LINE
  8
CSLAYER17
  6
CONTINUOUS
 62
     6
 10
593.308462
 20
387.390000
 11
595.768462
 21
396.110000
  0
ARC
  8
CSLAYER17
  6
CONTINUOUS
 62
     6
 10
600.568462
 20
394.750000
 40
5.000000
 50
90.000000
 51
164.290000
  0
ARC
  8
CSLAYER17
  6
CONTINUOUS
 62
     6
 10
509.263034
 20
394.750000
 40
5.000000
 50
15.530000
 51
90.000000
  0
LINE
  8
CSLAYER17
  6
CONTINUOUS
 62
     6
 10
514.083034
 20
396.090000
 11
514.543034
 21
394.410000
  0
ARC
  8
CSLAYER17
  6
CONTINUOUS
 62
     6
 10
519.363034
 20
395.750000
 40
5.000000
 50
195.530000
 51
270.000000
  0
LINE
  8
CSLAYER17
  6
CONTINUOUS
 62
     6
 10
519.363034
 20
390.750000
 11
523.320572
 21
390.750000
  0
LINE
  8
CSLAYER17
  6
CONTINUOUS
 62
     6
 10
476.288462
 20
372.750000
 11
476.288462
 21
500.750000
  0
LINE
  8
CSLAYER17
  6
CONTINUOUS
 62
     6
 10
431.208462
 20
501.930000
 11
476.288462
 21
500.750000
  0
ARC
  8
CSLAYER17
  6
CONTINUOUS
 62
     6
 10
430.228462
 20
359.150000
 40
2.000000
 50
166.830000
 51
171.680000
  0
LINE
  8
CSLAYER17
  6
CONTINUOUS
 62
     6
 10
436.328462
 20
503.790000
 11
433.148462
 21
503.890000
  0
ARC
  8
CSLAYER17
  6
CONTINUOUS
 62
     6
 10
433.288462
 20
508.890000
 40
5.000000
 50
180.000000
 51
268.500000
  0
ARC
  8
CSLAYER17
  6
CONTINUOUS
 62
     6
 10
436.288462
 20
501.810000
 40
2.000000
 50
28.420000
 51
88.500000
  0
LINE
  8
CSLAYER17
  6
CONTINUOUS
 62
     6
 10
431.208462
 20
371.570000
 11
476.288462
 21
372.750000
  0
LINE
  8
CSLAYER17
  6
CONTINUOUS
 62
     6
 10
436.328462
 20
369.690000
 11
433.148462
 21
369.610000
  0
ARC
  8
CSLAYER17
  6
CONTINUOUS
 62
     6
 10
433.288462
 20
364.610000
 40
5.000000
 50
91.490000
 51
180.000000
  0
ARC
  8
CSLAYER17
  6
CONTINUOUS
 62
     6
 10
436.288462
 20
371.690000
 40
2.000000
 50
271.490000
 51
331.570000
  0
LINE
  8
CSLAYER17
  6
CONTINUOUS
 62
     6
 10
438.288462
 20
430.750000
 11
438.288462
 21
442.750000
  0
LINE
  8
CSLAYER17
  6
CONTINUOUS
 62
     6
 10
452.788462
 20
395.910000
 11
452.788462
 21
385.650000
  0
LINE
  8
CSLAYER17
  6
CONTINUOUS
 62
     6
 10
452.788462
 20
487.830000
 11
452.788462
 21
477.570000
  0
LINE
  8
CSLAYER17
  6
CONTINUOUS
 62
     6
 10
436.288462
 20
444.750000
 11
428.288462
 21
444.750000
  0
LINE
  8
CSLAYER17
  6
CONTINUOUS
 62
     6
 10
436.288462
 20
428.750000
 11
428.288462
 21
428.750000
  0
LINE
  8
CSLAYER17
  6
CONTINUOUS
 62
     6
 10
447.908462
 20
492.830000
 11
428.288462
 21
493.350000
  0
LINE
  8
CSLAYER17
  6
CONTINUOUS
 62
     6
 10
447.908462
 20
472.590000
 11
428.288462
 21
472.070000
  0
LINE
  8
CSLAYER17
  6
CONTINUOUS
 62
     6
 10
447.908462
 20
400.910000
 11
428.288462
 21
401.430000
  0
LINE
  8
CSLAYER17
  6
CONTINUOUS
 62
     6
 10
447.908462
 20
380.670000
 11
428.288462
 21
380.150000
  0
ARC
  8
CSLAYER17
  6
CONTINUOUS
 62
     6
 10
447.788462
 20
395.910000
 40
5.000000
 50
0.000000
 51
88.500000
  0
ARC
  8
CSLAYER17
  6
CONTINUOUS
 62
     6
 10
447.788462
 20
385.650000
 40
5.000000
 50
271.500000
 51
360.000000
  0
ARC
  8
CSLAYER17
  6
CONTINUOUS
 62
     6
 10
447.788462
 20
487.830000
 40
5.000000
 50
0.000000
 51
88.490000
  0
ARC
  8
CSLAYER17
  6
CONTINUOUS
 62
     6
 10
447.788462
 20
477.570000
 40
5.000000
 50
271.500000
 51
360.000000
  0
ARC
  8
CSLAYER17
  6
CONTINUOUS
 62
     6
 10
436.288462
 20
442.750000
 40
2.000000
 50
0.000000
 51
90.000000
  0
ARC
  8
CSLAYER17
  6
CONTINUOUS
 62
     6
 10
436.288462
 20
430.750000
 40
2.000000
 50
270.000000
 51
360.000000
  0
ARC
  8
CSLAYER17
  6
CONTINUOUS
 62
     6
 10
431.288462
 20
504.930000
 40
3.000000
 50
180.000000
 51
268.500000
  0
ARC
  8
CSLAYER17
  6
CONTINUOUS
 62
     6
 10
431.288462
 20
368.570000
 40
3.000000
 50
91.490000
 51
180.000000
  0
ARC
  8
CSLAYER17
  6
CONTINUOUS
 62
     6
 10
439.808462
 20
503.710000
 40
2.000000
 50
208.420000
 51
268.500000
  0
ARC
  8
CSLAYER17
  6
CONTINUOUS
 62
     6
 10
439.808462
 20
369.790000
 40
2.000000
 50
91.490000
 51
151.570000
  0
LINE
  8
CSLAYER17
  6
CONTINUOUS
 62
     6
 10
476.288462
 20
500.250000
 11
486.728539
 21
500.250000
  0
LINE
  8
CSLAYER17
  6
CONTINUOUS
 62
     6
 10
476.288462
 20
373.250000
 11
486.728539
 21
373.250000
  0
LINE
  8
CSLAYER17
  6
CONTINUOUS
 62
     7
 10
496.288462
 20
473.522609
 11
496.288462
 21
399.977391
  0
LINE
  8
CSLAYER17
  6
CONTINUOUS
 62
     7
 10
488.641149
 20
374.665257
 11
496.201071
 21
399.392648
  0
ARC
  8
CSLAYER17
  6
CONTINUOUS
 62
     7
 10
494.288462
 20
399.977391
 40
2.000000
 50
343.000000
 51
360.000000
  0
ARC
  8
CSLAYER17
  6
CONTINUOUS
 62
     7
 10
486.728539
 20
375.250000
 40
2.000000
 50
270.000000
 51
343.000000
  0
LINE
  8
CSLAYER17
  6
CONTINUOUS
 62
     7
 10
488.641149
 20
498.834743
 11
496.201071
 21
474.107352
  0
ARC
  8
CSLAYER17
  6
CONTINUOUS
 62
     7
 10
494.288462
 20
473.522609
 40
2.000000
 50
0.000000
 51
17.000000
  0
ARC
  8
CSLAYER17
  6
CONTINUOUS
 62
     7
 10
486.728539
 20
498.250000
 40
2.000000
 50
17.000000
 51
90.000000
  0
LINE
  8
CSLAYER17
  6
CENTER
 62
     3
 10
57.600409
 20
127.060101
 11
76.948633
 21
146.408325
  0
ARC
  8
CSLAYER17
  6
CENTER
 62
     3
 10
113.236462
 20
182.696154
 40
65.000000
 50
212.917958
 51
237.082042
  0
LINE
  8
CSLAYER17
  6
CENTER
 62
     3
 10
113.236462
 20
96.696154
 11
113.236462
 21
282.196154
  0
ARC
  8
CSLAYER17
  6
CENTER
 62
     3
 10
113.236462
 20
182.696154
 40
65.000000
 50
32.917958
 51
57.082042
  0
LINE
  8
CSLAYER17
  6
CENTER
 62
     3
 10
176.486599
 20
221.696154
 11
218.184462
 21
221.696154
  0
LINE
  8
CSLAYER17
  6
CENTER
 62
     3
 10
199.856462
 20
182.696154
 11
27.036462
 21
182.696154
  0
ARC
  8
CSLAYER17
  6
CENTER
 62
     3
 10
113.236462
 20
182.696154
 40
65.000000
 50
122.917958
 51
147.082042
  0
LINE
  8
CSLAYER17
  6
CENTER
 62
     3
 10
76.948633
 20
218.983983
 11
57.600409
 21
238.332207
  0
LINE
  8
CSLAYER17
  6
CENTER
 62
     3
 10
149.524290
 20
218.983983
 11
168.872514
 21
238.332207
  0
ARC
  8
CSLAYER17
  6
CENTER
 62
     3
 10
113.236462
 20
182.696154
 40
65.000000
 50
302.917958
 51
327.082042
  0
LINE
  8
CSLAYER17
  6
CENTER
 62
     3
 10
168.872514
 20
127.060101
 11
149.524290
 21
146.408325
  0
LINE
  8
CSLAYER17
  6
CONTINUOUS
 62
     6
 10
159.198402
 20
129.228660
 11
152.698402
 21
132.981436
  0
LINE
  8
CSLAYER17
  6
CONTINUOUS
 62
     6
 10
152.698402
 20
132.981436
 11
152.698402
 21
140.486990
  0
LINE
  8
CSLAYER17
  6
CONTINUOUS
 62
     6
 10
152.698402
 20
140.486990
 11
159.198402
 21
144.239767
  0
LINE
  8
CSLAYER17
  6
CONTINUOUS
 62
     6
 10
159.198402
 20
144.239767
 11
165.698402
 21
140.486990
  0
LINE
  8
CSLAYER17
  6
CONTINUOUS
 62
     6
 10
165.698402
 20
140.486990
 11
165.698402
 21
132.981436
  0
LINE
  8
CSLAYER17
  6
CONTINUOUS
 62
     6
 10
165.698402
 20
132.981436
 11
159.198402
 21
129.228660
  0
CIRCLE
  8
CSLAYER17
  6
CONTINUOUS
 62
     6
 10
159.198402
 20
136.734213
 40
7.700000
  0
CIRCLE
  8
CSLAYER17
  6
CONTINUOUS
 62
     6
 10
159.198402
 20
136.734213
 40
6.305000
  0
ARC
  8
CSLAYER17
  6
CONTINUOUS
 62
     6
 10
157.236462
 20
157.696154
 40
1.000000
 50
270.000001
 51
359.942687
  0
LINE
  8
CSLAYER17
  6
CONTINUOUS
 62
     6
 10
158.236462
 20
157.696154
 11
158.236462
 21
158.696154
  0
ARC
  8
CSLAYER17
  6
CONTINUOUS
 62
     6
 10
157.251507
 20
158.696154
 40
1.000000
 50
0.000000
 51
89.999981
  0
LINE
  8
CSLAYER17
  6
CONTINUOUS
 62
     6
 10
157.251507
 20
159.696154
 11
152.575314
 21
159.941271
  0
ARC
  8
CSLAYER17
  6
CONTINUOUS
 62
     6
 10
152.627667
 20
160.939898
 40
1.000000
 50
151.088398
 51
266.999020
  0
ARC
  8
CSLAYER17
  6
CONTINUOUS
 62
     6
 10
153.952633
 20
161.290667
 40
2.000000
 50
92.999645
 51
152.268175
  0
LINE
  8
CSLAYER17
  6
CONTINUOUS
 62
     6
 10
153.847973
 20
163.287951
 11
161.256878
 21
163.676196
  0
ARC
  8
CSLAYER17
  6
CONTINUOUS
 62
     6
 10
161.236462
 20
164.675951
 40
1.000000
 50
271.169236
 51
359.942687
  0
LINE
  8
CSLAYER17
  6
CONTINUOUS
 62
     6
 10
162.236462
 20
164.675951
 11
162.236462
 21
200.716357
  0
ARC
  8
CSLAYER17
  6
CONTINUOUS
 62
     6
 10
161.236462
 20
200.716357
 40
1.000000
 50
0.000000
 51
88.830746
  0
LINE
  8
CSLAYER17
  6
CONTINUOUS
 62
     6
 10
161.256878
 20
201.716113
 11
153.847973
 21
202.104357
  0
ARC
  8
CSLAYER17
  6
CONTINUOUS
 62
     6
 10
153.952633
 20
204.101641
 40
2.000000
 50
207.731807
 51
267.000395
  0
ARC
  8
CSLAYER17
  6
CONTINUOUS
 62
     6
 10
152.627667
 20
204.452410
 40
1.000000
 50
93.000962
 51
208.911585
  0
LINE
  8
CSLAYER17
  6
CONTINUOUS
 62
     6
 10
152.575314
 20
205.451037
 11
157.251507
 21
205.696154
  0
ARC
  8
CSLAYER17
  6
CONTINUOUS
 62
     6
 10
157.251507
 20
206.696154
 40
1.000000
 50
270.000001
 51
359.942687
  0
LINE
  8
CSLAYER17
  6
CONTINUOUS
 62
     6
 10
158.236462
 20
206.696154
 11
158.236462
 21
207.696154
  0
ARC
  8
CSLAYER17
  6
CONTINUOUS
 62
     6
 10
157.236462
 20
207.696154
 40
1.000000
 50
0.000000
 51
89.999981
  0
LINE
  8
CSLAYER17
  6
CONTINUOUS
 62
     6
 10
157.236462
 20
208.696154
 11
149.307980
 21
209.111651
  0
ARC
  8
CSLAYER17
  6
CONTINUOUS
 62
     6
 10
149.412655
 20
211.108904
 40
2.000000
 50
218.145716
 51
266.999937
  0
ARC
  8
CSLAYER17
  6
CONTINUOUS
 62
     6
 10
113.236462
 20
182.696185
 40
45.000000
 50
35.914342
 51
144.085657
  0
ARC
  8
CSLAYER17
  6
CONTINUOUS
 62
     6
 10
77.060253
 20
211.108904
 40
2.000000
 50
273.000065
 51
321.854286
  0
LINE
  8
CSLAYER17
  6
CONTINUOUS
 62
     6
 10
77.164929
 20
209.111651
 11
69.236462
 21
208.696154
  0
ARC
  8
CSLAYER17
  6
CONTINUOUS
 62
     6
 10
69.236462
 20
207.696154
 40
1.000000
 50
90.000039
 51
180.000020
  0
LINE
  8
CSLAYER17
  6
CONTINUOUS
 62
     6
 10
68.236462
 20
207.696154
 11
68.236462
 21
206.696154
  0
ARC
  8
CSLAYER17
  6
CONTINUOUS
 62
     6
 10
69.221417
 20
206.696154
 40
1.000000
 50
180.000020
 51
270.000001
  0
LINE
  8
CSLAYER17
  6
CONTINUOUS
 62
     6
 10
69.221417
 20
205.696154
 11
73.897595
 21
205.451037
  0
ARC
  8
CSLAYER17
  6
CONTINUOUS
 62
     6
 10
73.845257
 20
204.452410
 40
1.000000
 50
-28.911583
 51
86.999040
  0
ARC
  8
CSLAYER17
  6
CONTINUOUS
 62
     6
 10
72.520275
 20
204.101641
 40
2.000000
 50
272.999664
 51
332.268195
  0
LINE
  8
CSLAYER17
  6
CONTINUOUS
 62
     6
 10
72.624951
 20
202.104357
 11
65.216046
 21
201.716113
  0
ARC
  8
CSLAYER17
  6
CONTINUOUS
 62
     6
 10
65.236462
 20
200.716357
 40
1.000000
 50
91.169216
 51
180.000020
  0
LINE
  8
CSLAYER17
  6
CONTINUOUS
 62
     6
 10
64.236462
 20
200.716357
 11
64.236462
 21
164.675951
  0
ARC
  8
CSLAYER17
  6
CONTINUOUS
 62
     6
 10
65.236462
 20
164.675951
 40
1.000000
 50
180.000020
 51
268.830766
  0
LINE
  8
CSLAYER17
  6
CONTINUOUS
 62
     6
 10
65.216046
 20
163.676196
 11
72.624951
 21
163.287951
  0
ARC
  8
CSLAYER17
  6
CONTINUOUS
 62
     6
 10
72.520275
 20
161.290667
 40
2.000000
 50
27.731845
 51
87.000375
  0
ARC
  8
CSLAYER17
  6
CONTINUOUS
 62
     6
 10
73.845257
 20
160.939898
 40
1.000000
 50
-86.999018
 51
28.911605
  0
LINE
  8
CSLAYER17
  6
CONTINUOUS
 62
     6
 10
73.897595
 20
159.941271
 11
69.221417
 21
159.696154
  0
ARC
  8
CSLAYER17
  6
CONTINUOUS
 62
     6
 10
69.221417
 20
158.696154
 40
1.000000
 50
90.000039
 51
180.000020
  0
LINE
  8
CSLAYER17
  6
CONTINUOUS
 62
     6
 10
68.236462
 20
158.696154
 11
68.236462
 21
157.696154
  0
ARC
  8
CSLAYER17
  6
CONTINUOUS
 62
     6
 10
69.236462
 20
157.696154
 40
1.000000
 50
180.000020
 51
270.000001
  0
LINE
  8
CSLAYER17
  6
CONTINUOUS
 62
     6
 10
69.236462
 20
156.696154
 11
77.164929
 21
156.280657
  0
ARC
  8
CSLAYER17
  6
CONTINUOUS
 62
     6
 10
77.060253
 20
154.283404
 40
2.000000
 50
38.145754
 51
86.999917
  0
ARC
  8
CSLAYER17
  6
CONTINUOUS
 62
     6
 10
113.236462
 20
182.696124
 40
45.000000
 50
215.914344
 51
267.450134
  0
LINE
  8
CSLAYER17
  6
CONTINUOUS
 62
     6
 10
149.307980
 20
156.280657
 11
157.236462
 21
156.696154
  0
ARC
  8
CSLAYER17
  6
CONTINUOUS
 62
     6
 10
113.236462
 20
182.696124
 40
45.000000
 50
329.814347
 51
334.449464
  0
ARC
  8
CSLAYER17
  6
CONTINUOUS
 62
     6
 10
149.412655
 20
154.283404
 40
2.000000
 50
93.000103
 51
141.854266
  0
ARC
  8
CSLAYER17
  6
CONTINUOUS
 62
     6
 10
136.236462
 20
156.314288
 40
2.000000
 50
180.000020
 51
311.082221
  0
LINE
  8
CSLAYER17
  6
CONTINUOUS
 62
     6
 10
134.236462
 20
156.314288
 11
134.236447
 21
169.696154
  0
ARC
  8
CSLAYER17
  6
CONTINUOUS
 62
     6
 10
137.236447
 20
169.696154
 40
3.000000
 50
89.999981
 51
180.000020
  0
LINE
  8
CSLAYER17
  6
CONTINUOUS
 62
     6
 10
137.236447
 20
172.696154
 11
143.236447
 21
172.696154
  0
ARC
  8
CSLAYER17
  6
CONTINUOUS
 62
     6
 10
143.236447
 20
170.696154
 40
2.000000
 50
0.000115
 51
89.999981
  0
LINE
  8
CSLAYER17
  6
CONTINUOUS
 62
     6
 10
145.236447
 20
170.696154
 11
145.236462
 21
164.668353
  0
ARC
  8
CSLAYER17
  6
CONTINUOUS
 62
     6
 10
143.236462
 20
164.668353
 40
2.000000
 50
328.997351
 51
359.942687
  0
ARC
  8
CSLAYER17
  6
CONTINUOUS
 62
     6
 10
113.236462
 20
182.696124
 40
37.000008
 50
311.082278
 51
328.997236
  0
LINE
  8
CSLAYER17
  6
CONTINUOUS
 62
     6
 10
127.236462
 20
152.696154
 11
127.236462
 21
163.074725
  0
ARC
  8
CSLAYER17
  6
CONTINUOUS
 62
     6
 10
125.236462
 20
163.074725
 40
2.000000
 50
0.000000
 51
121.448890
  0
ARC
  8
CSLAYER17
  6
CONTINUOUS
 62
     6
 10
113.236462
 20
182.696124
 40
20.999992
 50
287.718950
 51
301.449024
  0
ARC
  8
CSLAYER17
  6
CONTINUOUS
 62
     6
 10
120.236462
 20
160.787219
 40
2.000000
 50
107.718758
 51
180.000020
  0
LINE
  8
CSLAYER17
  6
CONTINUOUS
 62
     6
 10
118.236462
 20
160.787219
 11
118.236462
 21
152.696154
  0
ARC
  8
CSLAYER17
  6
CONTINUOUS
 62
     6
 10
120.236462
 20
152.696154
 40
2.000000
 50
180.000020
 51
270.000001
  0
LINE
  8
CSLAYER17
  6
CONTINUOUS
 62
     6
 10
120.236462
 20
150.696154
 11
125.236462
 21
150.696154
  0
ARC
  8
CSLAYER17
  6
CONTINUOUS
 62
     6
 10
125.236462
 20
152.696154
 40
2.000000
 50
270.000001
 51
359.942687
  0
LINE
  8
CSLAYER17
  6
CONTINUOUS
 62
     6
 10
108.236462
 20
152.696154
 11
108.236462
 21
160.787219
  0
ARC
  8
CSLAYER17
  6
CONTINUOUS
 62
     6
 10
106.236462
 20
160.787219
 40
2.000000
 50
0.000000
 51
72.281261
  0
ARC
  8
CSLAYER17
  6
CONTINUOUS
 62
     6
 10
113.236462
 20
182.696124
 40
20.999992
 50
238.550978
 51
252.281052
  0
ARC
  8
CSLAYER17
  6
CONTINUOUS
 62
     6
 10
101.236462
 20
163.074725
 40
2.000000
 50
58.551130
 51
180.000020
  0
LINE
  8
CSLAYER17
  6
CONTINUOUS
 62
     6
 10
99.236462
 20
163.074725
 11
99.236462
 21
152.696154
  0
ARC
  8
CSLAYER17
  6
CONTINUOUS
 62
     6
 10
101.236462
 20
152.696154
 40
2.000000
 50
180.000020
 51
270.000001
  0
LINE
  8
CSLAYER17
  6
CONTINUOUS
 62
     6
 10
101.236462
 20
150.696154
 11
106.236462
 21
150.696154
  0
ARC
  8
CSLAYER17
  6
CONTINUOUS
 62
     6
 10
106.236462
 20
152.696154
 40
2.000000
 50
270.000001
 51
359.942687
  0
LINE
  8
CSLAYER17
  6
CONTINUOUS
 62
     6
 10
67.274521
 20
129.228660
 11
60.774521
 21
132.981436
  0
LINE
  8
CSLAYER17
  6
CONTINUOUS
 62
     6
 10
60.774521
 20
132.981436
 11
60.774521
 21
140.486990
  0
LINE
  8
CSLAYER17
  6
CONTINUOUS
 62
     6
 10
60.774521
 20
140.486990
 11
67.274521
 21
144.239767
  0
LINE
  8
CSLAYER17
  6
CONTINUOUS
 62
     6
 10
67.274521
 20
144.239767
 11
73.774521
 21
140.486990
  0
LINE
  8
CSLAYER17
  6
CONTINUOUS
 62
     6
 10
73.774521
 20
140.486990
 11
73.774521
 21
132.981436
  0
LINE
  8
CSLAYER17
  6
CONTINUOUS
 62
     6
 10
73.774521
 20
132.981436
 11
67.274521
 21
129.228660
  0
CIRCLE
  8
CSLAYER17
  6
CONTINUOUS
 62
     6
 10
67.274521
 20
136.734213
 40
7.700000
  0
CIRCLE
  8
CSLAYER17
  6
CONTINUOUS
 62
     6
 10
67.274521
 20
136.734213
 40
6.305000
  0
ARC
  8
CSLAYER17
  6
CONTINUOUS
 62
     6
 10
113.236462
 20
182.696124
 40
45.000000
 50
205.550536
 51
210.185653
  0
ARC
  8
CSLAYER17
  6
CONTINUOUS
 62
     6
 10
90.236462
 20
156.314288
 40
2.000000
 50
228.917781
 51
359.942687
  0
LINE
  8
CSLAYER17
  6
CONTINUOUS
 62
     6
 10
92.236462
 20
156.314288
 11
92.236477
 21
169.696154
  0
ARC
  8
CSLAYER17
  6
CONTINUOUS
 62
     6
 10
89.236477
 20
169.696154
 40
3.000000
 50
-0.000018
 51
90.000021
  0
LINE
  8
CSLAYER17
  6
CONTINUOUS
 62
     6
 10
89.236477
 20
172.696154
 11
83.236477
 21
172.696154
  0
ARC
  8
CSLAYER17
  6
CONTINUOUS
 62
     6
 10
83.236477
 20
170.696154
 40
2.000000
 50
89.999981
 51
179.999905
  0
LINE
  8
CSLAYER17
  6
CONTINUOUS
 62
     6
 10
81.236477
 20
170.696154
 11
81.236462
 21
164.668353
  0
ARC
  8
CSLAYER17
  6
CONTINUOUS
 62
     6
 10
83.236462
 20
164.668353
 40
2.000000
 50
180.000020
 51
211.002709
  0
ARC
  8
CSLAYER17
  6
CONTINUOUS
 62
     6
 10
113.236462
 20
182.696124
 40
37.000008
 50
211.002766
 51
228.917724
  0
ARC
  8
CSLAYER17
  6
CONTINUOUS
 62
     6
 10
113.236462
 20
181.903032
 40
13.065822
 50
-37.903067
 51
217.903051
  0
ARC
  8
CSLAYER17
  6
CONTINUOUS
 62
     6
 10
122.470081
 20
174.714081
 40
1.363635
 50
230.236329
 51
322.096590
  0
ARC
  8
CSLAYER17
  6
CONTINUOUS
 62
     6
 10
119.728582
 20
171.419418
 40
2.922462
 50
50.235851
 51
203.481549
  0
LINE
  8
CSLAYER17
  6
CONTINUOUS
 62
     6
 10
117.048133
 20
170.254959
 11
117.630478
 21
168.354189
  0
CIRCLE
  8
CSLAYER17
  6
CONTINUOUS
 62
     6
 10
119.728582
 20
171.419418
 40
1.363635
  0
ARC
  8
CSLAYER17
  6
CONTINUOUS
 62
     6
 10
106.744333
 20
171.419418
 40
2.922462
 50
-23.481547
 51
129.764151
  0
ARC
  8
CSLAYER17
  6
CONTINUOUS
 62
     6
 10
104.002831
 20
174.714081
 40
1.363635
 50
217.903413
 51
309.763730
  0
CIRCLE
  8
CSLAYER17
  6
CONTINUOUS
 62
     6
 10
106.744333
 20
171.419418
 40
1.363635
  0
LINE
  8
CSLAYER17
  6
CONTINUOUS
 62
     6
 10
109.424779
 20
170.254959
 11
108.842434
 21
168.354189
  0
CIRCLE
  8
CSLAYER17
  6
CONTINUOUS
 62
     6
 10
113.236462
 20
182.696154
 40
80.000000
  0
CIRCLE
  8
CSLAYER17
  6
CONTINUOUS
 62
     6
 10
113.236462
 20
182.696185
 40
15.000000
  0
CIRCLE
  8
CSLAYER17
  6
CONTINUOUS
 62
     6
 10
113.236462
 20
182.696185
 40
44.000000
  0
ARC
  8
CSLAYER17
  6
CONTINUOUS
 62
     6
 10
101.236462
 20
202.317584
 40
2.000000
 50
180.000020
 51
301.448852
  0
LINE
  8
CSLAYER17
  6
CONTINUOUS
 62
     6
 10
99.236462
 20
202.317584
 11
99.236462
 21
212.696154
  0
ARC
  8
CSLAYER17
  6
CONTINUOUS
 62
     6
 10
101.236462
 20
212.696154
 40
2.000000
 50
90.000039
 51
180.000020
  0
LINE
  8
CSLAYER17
  6
CONTINUOUS
 62
     6
 10
101.236462
 20
214.696154
 11
106.236462
 21
214.696154
  0
ARC
  8
CSLAYER17
  6
CONTINUOUS
 62
     6
 10
106.236462
 20
212.696154
 40
2.000000
 50
0.000000
 51
90.000039
  0
LINE
  8
CSLAYER17
  6
CONTINUOUS
 62
     6
 10
108.236462
 20
212.696154
 11
108.236462
 21
204.605090
  0
ARC
  8
CSLAYER17
  6
CONTINUOUS
 62
     6
 10
106.236462
 20
204.605090
 40
2.000000
 50
287.718778
 51
359.942687
  0
ARC
  8
CSLAYER17
  6
CONTINUOUS
 62
     6
 10
113.236462
 20
182.696185
 40
20.999992
 50
107.718930
 51
121.449062
  0
LINE
  8
CSLAYER17
  6
CONTINUOUS
 62
     6
 10
92.236477
 20
195.696154
 11
92.236462
 21
209.078021
  0
ARC
  8
CSLAYER17
  6
CONTINUOUS
 62
     6
 10
90.236462
 20
209.078021
 40
2.000000
 50
0.000000
 51
131.082258
  0
ARC
  8
CSLAYER17
  6
CONTINUOUS
 62
     6
 10
113.236462
 20
182.696185
 40
37.000008
 50
131.082316
 51
148.997274
  0
ARC
  8
CSLAYER17
  6
CONTINUOUS
 62
     6
 10
83.236462
 20
200.723956
 40
2.000000
 50
148.997331
 51
180.000020
  0
LINE
  8
CSLAYER17
  6
CONTINUOUS
 62
     6
 10
81.236462
 20
200.723956
 11
81.236477
 21
194.696154
  0
ARC
  8
CSLAYER17
  6
CONTINUOUS
 62
     6
 10
83.236477
 20
194.696154
 40
2.000000
 50
180.000134
 51
270.000001
  0
LINE
  8
CSLAYER17
  6
CONTINUOUS
 62
     6
 10
83.236477
 20
192.696154
 11
89.236477
 21
192.696154
  0
ARC
  8
CSLAYER17
  6
CONTINUOUS
 62
     6
 10
89.236477
 20
195.696154
 40
3.000000
 50
270.000001
 51
359.942687
  0
ARC
  8
CSLAYER17
  6
CONTINUOUS
 62
     6
 10
113.236462
 20
182.696185
 40
45.000000
 50
149.814348
 51
154.449374
  0
LINE
  8
CSLAYER17
  6
CONTINUOUS
 62
     6
 10
67.274521
 20
221.152541
 11
73.774521
 21
224.905318
  0
LINE
  8
CSLAYER17
  6
CONTINUOUS
 62
     6
 10
73.774521
 20
224.905318
 11
73.774521
 21
232.410871
  0
LINE
  8
CSLAYER17
  6
CONTINUOUS
 62
     6
 10
73.774521
 20
232.410871
 11
67.274521
 21
236.163648
  0
LINE
  8
CSLAYER17
  6
CONTINUOUS
 62
     6
 10
67.274521
 20
236.163648
 11
60.774521
 21
232.410871
  0
LINE
  8
CSLAYER17
  6
CONTINUOUS
 62
     6
 10
60.774521
 20
232.410871
 11
60.774521
 21
224.905318
  0
LINE
  8
CSLAYER17
  6
CONTINUOUS
 62
     6
 10
60.774521
 20
224.905318
 11
67.274521
 21
221.152541
  0
CIRCLE
  8
CSLAYER17
  6
CONTINUOUS
 62
     6
 10
67.274521
 20
228.658095
 40
7.700000
  0
CIRCLE
  8
CSLAYER17
  6
CONTINUOUS
 62
     6
 10
67.274521
 20
228.658095
 40
6.305000
  0
LINE
  8
CSLAYER17
  6
CONTINUOUS
 62
     6
 10
159.198402
 20
236.163648
 11
152.698402
 21
232.410871
  0
LINE
  8
CSLAYER17
  6
CONTINUOUS
 62
     6
 10
152.698402
 20
232.410871
 11
152.698402
 21
224.905318
  0
LINE
  8
CSLAYER17
  6
CONTINUOUS
 62
     6
 10
152.698402
 20
224.905318
 11
159.198402
 21
221.152541
  0
LINE
  8
CSLAYER17
  6
CONTINUOUS
 62
     6
 10
159.198402
 20
221.152541
 11
165.698402
 21
224.905318
  0
LINE
  8
CSLAYER17
  6
CONTINUOUS
 62
     6
 10
165.698402
 20
224.905318
 11
165.698402
 21
232.410871
  0
LINE
  8
CSLAYER17
  6
CONTINUOUS
 62
     6
 10
165.698402
 20
232.410871
 11
159.198402
 21
236.163648
  0
CIRCLE
  8
CSLAYER17
  6
CONTINUOUS
 62
     6
 10
159.198402
 20
228.658095
 40
7.700000
  0
CIRCLE
  8
CSLAYER17
  6
CONTINUOUS
 62
     6
 10
159.198402
 20
228.658095
 40
6.305000
  0
LINE
  8
CSLAYER17
  6
CONTINUOUS
 62
     6
 10
173.161415
 20
235.696154
 11
213.236462
 21
235.696154
  0
LINE
  8
CSLAYER17
  6
CONTINUOUS
 62
     6
 10
213.236462
 20
235.696154
 11
213.236462
 21
207.696154
  0
LINE
  8
CSLAYER17
  6
CONTINUOUS
 62
     6
 10
213.236462
 20
207.696154
 11
189.229882
 21
207.696154
  0
ARC
  8
CSLAYER17
  6
CONTINUOUS
 62
     6
 10
113.236462
 20
182.696185
 40
45.000000
 50
25.550535
 51
30.185652
  0
ARC
  8
CSLAYER17
  6
CONTINUOUS
 62
     6
 10
143.236462
 20
200.723956
 40
2.000000
 50
0.000000
 51
31.002689
  0
LINE
  8
CSLAYER17
  6
CONTINUOUS
 62
     6
 10
145.236462
 20
200.723956
 11
145.236447
 21
194.696154
  0
ARC
  8
CSLAYER17
  6
CONTINUOUS
 62
     6
 10
143.236447
 20
194.696154
 40
2.000000
 50
270.000001
 51
359.942687
  0
LINE
  8
CSLAYER17
  6
CONTINUOUS
 62
     6
 10
143.236447
 20
192.696154
 11
137.236447
 21
192.696154
  0
ARC
  8
CSLAYER17
  6
CONTINUOUS
 62
     6
 10
137.236447
 20
195.696154
 40
3.000000
 50
179.999963
 51
270.000001
  0
LINE
  8
CSLAYER17
  6
CONTINUOUS
 62
     6
 10
134.236447
 20
195.696154
 11
134.236462
 21
209.078021
  0
ARC
  8
CSLAYER17
  6
CONTINUOUS
 62
     6
 10
136.236462
 20
209.078021
 40
2.000000
 50
48.917761
 51
180.000020
  0
ARC
  8
CSLAYER17
  6
CONTINUOUS
 62
     6
 10
113.236462
 20
182.696185
 40
37.000008
 50
31.002746
 51
48.917704
  0
ARC
  8
CSLAYER17
  6
CONTINUOUS
 62
     6
 10
125.236462
 20
202.317584
 40
2.000000
 50
238.551150
 51
359.942687
  0
ARC
  8
CSLAYER17
  6
CONTINUOUS
 62
     6
 10
113.236462
 20
182.696185
 40
20.999992
 50
58.550958
 51
72.281032
  0
ARC
  8
CSLAYER17
  6
CONTINUOUS
 62
     6
 10
120.236462
 20
204.605090
 40
2.000000
 50
180.000020
 51
252.281281
  0
LINE
  8
CSLAYER17
  6
CONTINUOUS
 62
     6
 10
118.236462
 20
204.605090
 11
118.236462
 21
212.696154
  0
ARC
  8
CSLAYER17
  6
CONTINUOUS
 62
     6
 10
120.236462
 20
212.696154
 40
2.000000
 50
89.999981
 51
180.000020
  0
LINE
  8
CSLAYER17
  6
CONTINUOUS
 62
     6
 10
120.236462
 20
214.696154
 11
125.236462
 21
214.696154
  0
ARC
  8
CSLAYER17
  6
CONTINUOUS
 62
     6
 10
125.236462
 20
212.696154
 40
2.000000
 50
0.000000
 51
89.999981
  0
LINE
  8
CSLAYER17
  6
CONTINUOUS
 62
     6
 10
127.236462
 20
212.696154
 11
127.236462
 21
202.317584
  0
ARC
  8
CSLAYER17
  6
CONTINUOUS
 62
     6
 10
113.236462
 20
182.696124
 40
45.000000
 50
272.549866
 51
324.085657
  0
LINE
  8
CSLAYER17
  6
CENTER
 62
     3
 10
437.288462
 20
228.658095
 11
393.988462
 21
228.658095
  0
LINE
  8
CSLAYER17
  6
CENTER
 62
     3
 10
393.988462
 20
136.724214
 11
437.288462
 21
136.724214
  0
ARC
  8
CSLAYER17
  6
CONTINUOUS
 62
     6
 10
403.741238
 20
223.028929
 40
3.752777
 50
150.000000
 51
195.446648
  0
LINE
  8
CSLAYER17
  6
CONTINUOUS
 62
     6
 10
399.988462
 20
222.353095
 11
399.988462
 21
234.963095
  0
LINE
  8
CSLAYER17
  6
CONTINUOUS
 62
     6
 10
399.988462
 20
234.963095
 11
400.491238
 21
236.163648
  0
LINE
  8
CSLAYER17
  6
CONTINUOUS
 62
     6
 10
400.491238
 20
236.163648
 11
405.288462
 21
236.163648
  0
LINE
  8
CSLAYER17
  6
CONTINUOUS
 62
     6
 10
405.288462
 20
236.358095
 11
405.288462
 21
220.958095
  0
LINE
  8
CSLAYER17
  6
CONTINUOUS
 62
     6
 10
405.288462
 20
220.958095
 11
407.288462
 21
220.958095
  0
LINE
  8
CSLAYER17
  6
CONTINUOUS
 62
     6
 10
405.288462
 20
221.152541
 11
400.491238
 21
221.152541
  0
LINE
  8
CSLAYER17
  6
CONTINUOUS
 62
     6
 10
400.491238
 20
221.152541
 11
399.988462
 21
222.353095
  0
LINE
  8
CSLAYER17
  6
CONTINUOUS
 62
     6
 10
400.491238
 20
224.905318
 11
405.288462
 21
224.905318
  0
LINE
  8
CSLAYER17
  6
CONTINUOUS
 62
     6
 10
405.288462
 20
227.426095
 11
407.288462
 21
228.042095
  0
LINE
  8
CSLAYER17
  6
CONTINUOUS
 62
     6
 10
407.288462
 20
229.890095
 11
405.288462
 21
229.274095
  0
LINE
  8
CSLAYER17
  6
CONTINUOUS
 62
     6
 10
405.288462
 20
232.410871
 11
400.491238
 21
232.410871
  0
ARC
  8
CSLAYER17
  6
CONTINUOUS
 62
     6
 10
403.741238
 20
234.287260
 40
3.752777
 50
164.553352
 51
210.000000
  0
ARC
  8
CSLAYER17
  6
CONTINUOUS
 62
     6
 10
414.245403
 20
228.658095
 40
14.256942
 50
164.738520
 51
195.261480
  0
LINE
  8
CSLAYER17
  6
CONTINUOUS
 62
     6
 10
405.288462
 20
236.358095
 11
407.288462
 21
236.358095
  0
LINE
  8
CSLAYER17
  6
CONTINUOUS
 62
     6
 10
420.288462
 20
262.696154
 11
407.288462
 21
262.696154
  0
LINE
  8
CSLAYER17
  6
CONTINUOUS
 62
     6
 10
407.288462
 20
262.696154
 11
407.288462
 21
102.696154
  0
LINE
  8
CSLAYER17
  6
CONTINUOUS
 62
     6
 10
407.288462
 20
102.696154
 11
420.288462
 21
102.696154
  0
LINE
  8
CSLAYER17
  6
CONTINUOUS
 62
     6
 10
400.491238
 20
140.476991
 11
405.288462
 21
140.476991
  0
LINE
  8
CSLAYER17
  6
CONTINUOUS
 62
     6
 10
405.288462
 20
137.340214
 11
407.288462
 21
137.956214
  0
LINE
  8
CSLAYER17
  6
CONTINUOUS
 62
     6
 10
407.288462
 20
136.108214
 11
405.288462
 21
135.492214
  0
LINE
  8
CSLAYER17
  6
CONTINUOUS
 62
     6
 10
405.288462
 20
132.971437
 11
400.491238
 21
132.971437
  0
ARC
  8
CSLAYER17
  6
CONTINUOUS
 62
     6
 10
414.245403
 20
136.724214
 40
14.256942
 50
164.738520
 51
195.261480
  0
ARC
  8
CSLAYER17
  6
CONTINUOUS
 62
     6
 10
403.741238
 20
142.353379
 40
3.752777
 50
164.553352
 51
210.000000
  0
LINE
  8
CSLAYER17
  6
CONTINUOUS
 62
     6
 10
399.988462
 20
143.029214
 11
400.491238
 21
144.229768
  0
LINE
  8
CSLAYER17
  6
CONTINUOUS
 62
     6
 10
400.491238
 20
144.229768
 11
405.288462
 21
144.229768
  0
LINE
  8
CSLAYER17
  6
CONTINUOUS
 62
     6
 10
405.288462
 20
144.424214
 11
405.288462
 21
129.024214
  0
LINE
  8
CSLAYER17
  6
CONTINUOUS
 62
     6
 10
405.288462
 20
129.024214
 11
407.288462
 21
129.024214
  0
LINE
  8
CSLAYER17
  6
CONTINUOUS
 62
     6
 10
405.288462
 20
129.218661
 11
400.491238
 21
129.218661
  0
LINE
  8
CSLAYER17
  6
CONTINUOUS
 62
     6
 10
400.491238
 20
129.218661
 11
399.988462
 21
130.419214
  0
LINE
  8
CSLAYER17
  6
CONTINUOUS
 62
     6
 10
399.988462
 20
130.419214
 11
399.988462
 21
143.029214
  0
LINE
  8
CSLAYER17
  6
CONTINUOUS
 62
     6
 10
405.288462
 20
144.424214
 11
407.288462
 21
144.424214
  0
ARC
  8
CSLAYER17
  6
CONTINUOUS
 62
     6
 10
403.741238
 20
131.095049
 40
3.752777
 50
150.000000
 51
195.446648
  0
LINE
  8
CSLAYER17
  6
CONTINUOUS
 62
     3
 10
329.288431
 20
227.696154
 11
329.288431
 21
221.781832
  0
LINE
  8
CSLAYER17
  6
CONTINUOUS
 62
     3
 10
361.288431
 20
221.781832
 11
361.288431
 21
227.696154
  0
LINE
  8
CSLAYER17
  6
CONTINUOUS
 62
     3
 10
331.288431
 20
219.781832
 11
359.288431
 21
219.781832
  0
ARC
  8
CSLAYER17
  6
CONTINUOUS
 62
     3
 10
331.288431
 20
221.781832
 40
2.000000
 50
180.000005
 51
270.000001
  0
ARC
  8
CSLAYER17
  6
CONTINUOUS
 62
     3
 10
359.288431
 20
221.781832
 40
2.000000
 50
270.000001
 51
359.942691
  0
LINE
  8
CSLAYER17
  6
CONTINUOUS
 62
     6
 10
621.288462
 20
244.076154
 11
621.288462
 21
98.696154
  0
LINE
  8
CSLAYER17
  6
CONTINUOUS
 62
     6
 10
496.288462
 20
98.696154
 11
621.288462
 21
98.696154
  0
LINE
  8
CSLAYER17
  6
CONTINUOUS
 62
     6
 10
536.348462
 20
273.196154
 11
581.228462
 21
273.196154
  0
LINE
  8
CSLAYER17
  6
CONTINUOUS
 62
     6
 10
584.068462
 20
272.316154
 11
619.128462
 21
248.176154
  0
LINE
  8
CSLAYER17
  6
CONTINUOUS
 62
     6
 10
499.288462
 20
113.696154
 11
618.288462
 21
113.696154
  0
LINE
  8
CSLAYER17
  6
CONTINUOUS
 62
     6
 10
611.288462
 20
112.156154
 11
611.288462
 21
98.696154
  0
LINE
  8
CSLAYER17
  6
CONTINUOUS
 62
     6
 10
507.288462
 20
112.156154
 11
507.288462
 21
98.696154
  0
LINE
  8
CSLAYER17
  6
CONTINUOUS
 62
     6
 10
577.048462
 20
120.696154
 11
540.528462
 21
120.696154
  0
LINE
  8
CSLAYER17
  6
CONTINUOUS
 62
     6
 10
579.648462
 20
119.176154
 11
581.928462
 21
115.216154
  0
LINE
  8
CSLAYER17
  6
CONTINUOUS
 62
     6
 10
537.928462
 20
119.176154
 11
535.648462
 21
115.216154
  0
ARC
  8
CSLAYER17
  6
CONTINUOUS
 62
     6
 10
538.788462
 20
168.696154
 40
26.500000
 50
170.520000
 51
270.000000
  0
ARC
  8
CSLAYER17
  6
CONTINUOUS
 62
     6
 10
578.788462
 20
168.696154
 40
26.500000
 50
-90.000000
 51
9.470000
  0
LINE
  8
CSLAYER17
  6
CONTINUOUS
 62
     6
 10
512.648462
 20
173.056154
 11
521.308462
 21
224.956154
  0
LINE
  8
CSLAYER17
  6
CONTINUOUS
 62
     6
 10
596.268462
 20
224.956154
 11
604.928462
 21
173.056154
  0
LINE
  8
CSLAYER17
  6
CONTINUOUS
 62
     6
 10
538.788462
 20
142.196154
 11
578.788462
 21
142.196154
  0
ARC
  8
CSLAYER17
  6
CONTINUOUS
 62
     6
 10
616.288462
 20
244.076154
 40
5.000000
 50
0.000000
 51
55.460000
  0
ARC
  8
CSLAYER17
  6
CONTINUOUS
 62
     6
 10
581.228462
 20
268.196154
 40
5.000000
 50
55.460000
 51
90.000000
  0
ARC
  8
CSLAYER17
  6
CONTINUOUS
 62
     6
 10
536.368462
 20
268.196154
 40
5.000000
 50
90.000000
 51
91.030000
  0
LINE
  8
CSLAYER17
  6
CONTINUOUS
 62
     6
 10
538.788462
 20
120.136154
 11
538.788462
 21
113.696154
  0
LINE
  8
CSLAYER17
  6
CONTINUOUS
 62
     6
 10
578.788462
 20
120.136154
 11
578.788462
 21
113.696154
  0
LINE
  8
CSLAYER17
  6
CONTINUOUS
 62
     6
 10
496.288462
 20
98.696154
 11
496.288462
 21
244.076154
  0
ARC
  8
CSLAYER17
  6
CONTINUOUS
 62
     6
 10
540.528462
 20
117.696154
 40
3.000000
 50
90.000000
 51
150.250000
  0
ARC
  8
CSLAYER17
  6
CONTINUOUS
 62
     6
 10
577.048462
 20
117.696154
 40
3.000000
 50
29.740000
 51
90.000000
  0
ARC
  8
CSLAYER17
  6
CONTINUOUS
 62
     6
 10
538.788462
 20
168.696154
 40
24.000000
 50
169.570000
 51
273.140000
  0
ARC
  8
CSLAYER17
  6
CONTINUOUS
 62
     6
 10
578.788462
 20
168.696154
 40
24.000000
 50
-91.540000
 51
9.446627
  0
LINE
  8
CSLAYER17
  6
CONTINUOUS
 62
     6
 10
538.788462
 20
144.696154
 11
578.788462
 21
144.696154
  0
CIRCLE
  8
CSLAYER17
  6
CONTINUOUS
 62
     6
 10
558.788462
 20
218.696154
 40
33.500000
  0
ARC
  8
CSLAYER17
  6
CONTINUOUS
 62
     6
 10
558.788462
 20
218.696154
 40
38.000000
 50
9.470000
 51
170.520000
  0
ARC
  8
CSLAYER17
  6
CONTINUOUS
 62
     6
 10
558.788462
 20
218.696154
 40
35.500000
 50
-189.480000
 51
9.470000
  0
LINE
  8
CSLAYER17
  6
CONTINUOUS
 62
     6
 10
515.176253
 20
173.042435
 11
523.768462
 21
224.536154
  0
LINE
  8
CSLAYER17
  6
CONTINUOUS
 62
     6
 10
593.808462
 20
224.536154
 11
602.468462
 21
172.636154
  0
LINE
  8
CSLAYER17
  6
CONTINUOUS
 62
     6
 10
476.288462
 20
246.196154
 11
494.268462
 21
246.196154
  0
LINE
  8
CSLAYER17
  6
CONTINUOUS
 62
     6
 10
476.288462
 20
119.196154
 11
491.288462
 21
119.196154
  0
LINE
  8
CSLAYER17
  6
CONTINUOUS
 62
     6
 10
476.288462
 20
118.696154
 11
476.288462
 21
246.696154
  0
LINE
  8
CSLAYER17
  6
CONTINUOUS
 62
     6
 10
498.448462
 20
248.176154
 11
533.508462
 21
272.316154
  0
ARC
  8
CSLAYER17
  6
CONTINUOUS
 62
     6
 10
536.348462
 20
268.196154
 40
5.000000
 50
90.000000
 51
124.540000
  0
ARC
  8
CSLAYER17
  6
CONTINUOUS
 62
     6
 10
501.288462
 20
244.076154
 40
5.000000
 50
124.540000
 51
180.000000
  0
ARC
  8
CSLAYER17
  6
CONTINUOUS
 62
     6
 10
494.268462
 20
251.196154
 40
5.000000
 50
270.000000
 51
314.530000
  0
ARC
  8
CSLAYER17
  6
CONTINUOUS
 62
     6
 10
491.288462
 20
114.196154
 40
5.000000
 50
0.000000
 51
90.000000
  0
ARC
  8
CSLAYER17
  6
CONTINUOUS
 62
     6
 10
499.288462
 20
110.696154
 40
3.000000
 50
90.000000
 51
180.000000
  0
ARC
  8
CSLAYER17
  6
CONTINUOUS
 62
     6
 10
533.048462
 20
116.696154
 40
3.000000
 50
270.000000
 51
330.250000
  0
ARC
  8
CSLAYER17
  6
CONTINUOUS
 62
     6
 10
584.528462
 20
116.696154
 40
3.000000
 50
209.740000
 51
270.000000
  0
ARC
  8
CSLAYER17
  6
CONTINUOUS
 62
     6
 10
618.288462
 20
110.696154
 40
3.000000
 50
0.000000
 51
90.000000
  0
ARC
  8
CSLAYER17
  6
CONTINUOUS
 62
     6
 10
656.888462
 20
182.696154
 40
168.680000
 50
162.180000
 51
197.810000
  0
LINE
  8
CSLAYER17
  6
CONTINUOUS
 62
     6
 10
568.788462
 20
214.696154
 11
568.788462
 21
222.696154
  0
LINE
  8
CSLAYER17
  6
CONTINUOUS
 62
     6
 10
575.788462
 20
214.696154
 11
575.788462
 21
222.696154
  0
LINE
  8
CSLAYER17
  6
CONTINUOUS
 62
     6
 10
575.788462
 20
214.696154
 11
568.788462
 21
214.696154
  0
LINE
  8
CSLAYER17
  6
CONTINUOUS
 62
     6
 10
575.788462
 20
222.696154
 11
568.788462
 21
222.696154
  0
ARC
  8
CSLAYER17
  6
CONTINUOUS
 62
     6
 10
558.788462
 20
218.696154
 40
14.000000
 50
16.600000
 51
343.390000
  0
LINE
  8
CSLAYER17
  6
CONTINUOUS
 62
     6
 10
431.208462
 20
247.876154
 11
476.288462
 21
246.696154
  0
LINE
  8
CSLAYER17
  6
CONTINUOUS
 62
     6
 10
425.368462
 20
262.556154
 11
420.288462
 21
262.696154
  0
LINE
  8
CSLAYER17
  6
CONTINUOUS
 62
     6
 10
425.368462
 20
102.836154
 11
420.288462
 21
102.696154
  0
LINE
  8
CSLAYER17
  6
CONTINUOUS
 62
     6
 10
428.288462
 20
105.556154
 11
428.288462
 21
259.556154
  0
ARC
  8
CSLAYER17
  6
CONTINUOUS
 62
     6
 10
425.288462
 20
259.556154
 40
3.000000
 50
0.000000
 51
88.490000
  0
ARC
  8
CSLAYER17
  6
CONTINUOUS
 62
     6
 10
425.288462
 20
105.836154
 40
3.000000
 50
271.500000
 51
351.680000
  0
ARC
  8
CSLAYER17
  6
CONTINUOUS
 62
     6
 10
430.228462
 20
105.096154
 40
2.000000
 50
166.830000
 51
171.680000
  0
LINE
  8
CSLAYER17
  6
CONTINUOUS
 62
     6
 10
436.328462
 20
249.736154
 11
433.148462
 21
249.836154
  0
ARC
  8
CSLAYER17
  6
CONTINUOUS
 62
     6
 10
433.288462
 20
254.836154
 40
5.000000
 50
180.000000
 51
268.500000
  0
ARC
  8
CSLAYER17
  6
CONTINUOUS
 62
     6
 10
436.288462
 20
247.756154
 40
2.000000
 50
28.420000
 51
88.500000
  0
LINE
  8
CSLAYER17
  6
CONTINUOUS
 62
     6
 10
431.208462
 20
117.516154
 11
476.288462
 21
118.696154
  0
LINE
  8
CSLAYER17
  6
CONTINUOUS
 62
     6
 10
436.328462
 20
115.636154
 11
433.148462
 21
115.556154
  0
ARC
  8
CSLAYER17
  6
CONTINUOUS
 62
     6
 10
433.288462
 20
110.556154
 40
5.000000
 50
91.490000
 51
180.000000
  0
ARC
  8
CSLAYER17
  6
CONTINUOUS
 62
     6
 10
436.288462
 20
117.636154
 40
2.000000
 50
271.490000
 51
331.570000
  0
LINE
  8
CSLAYER17
  6
CONTINUOUS
 62
     6
 10
438.288462
 20
176.696154
 11
438.288462
 21
188.696154
  0
LINE
  8
CSLAYER17
  6
CONTINUOUS
 62
     6
 10
452.788462
 20
141.856154
 11
452.788462
 21
131.596154
  0
LINE
  8
CSLAYER17
  6
CONTINUOUS
 62
     6
 10
452.788462
 20
233.776154
 11
452.788462
 21
223.516154
  0
LINE
  8
CSLAYER17
  6
CONTINUOUS
 62
     6
 10
436.288462
 20
190.696154
 11
428.288462
 21
190.696154
  0
LINE
  8
CSLAYER17
  6
CONTINUOUS
 62
     6
 10
436.288462
 20
174.696154
 11
428.288462
 21
174.696154
  0
LINE
  8
CSLAYER17
  6
CONTINUOUS
 62
     6
 10
447.908462
 20
238.776154
 11
428.288462
 21
239.296154
  0
LINE
  8
CSLAYER17
  6
CONTINUOUS
 62
     6
 10
447.908462
 20
218.536154
 11
428.288462
 21
218.016154
  0
LINE
  8
CSLAYER17
  6
CONTINUOUS
 62
     6
 10
447.908462
 20
146.856154
 11
428.288462
 21
147.376154
  0
LINE
  8
CSLAYER17
  6
CONTINUOUS
 62
     6
 10
447.908462
 20
126.616154
 11
428.288462
 21
126.096154
  0
ARC
  8
CSLAYER17
  6
CONTINUOUS
 62
     6
 10
447.788462
 20
141.856154
 40
5.000000
 50
0.000000
 51
88.500000
  0
ARC
  8
CSLAYER17
  6
CONTINUOUS
 62
     6
 10
447.788462
 20
131.596154
 40
5.000000
 50
271.500000
 51
360.000000
  0
ARC
  8
CSLAYER17
  6
CONTINUOUS
 62
     6
 10
447.788462
 20
233.776154
 40
5.000000
 50
0.000000
 51
88.490000
  0
ARC
  8
CSLAYER17
  6
CONTINUOUS
 62
     6
 10
447.788462
 20
223.516154
 40
5.000000
 50
271.500000
 51
360.000000
  0
ARC
  8
CSLAYER17
  6
CONTINUOUS
 62
     6
 10
436.288462
 20
188.696154
 40
2.000000
 50
0.000000
 51
90.000000
  0
ARC
  8
CSLAYER17
  6
CONTINUOUS
 62
     6
 10
436.288462
 20
176.696154
 40
2.000000
 50
270.000000
 51
360.000000
  0
ARC
  8
CSLAYER17
  6
CONTINUOUS
 62
     6
 10
431.288462
 20
250.876154
 40
3.000000
 50
180.000000
 51
268.500000
  0
ARC
  8
CSLAYER17
  6
CONTINUOUS
 62
     6
 10
431.288462
 20
114.516154
 40
3.000000
 50
91.490000
 51
180.000000
  0
ARC
  8
CSLAYER17
  6
CONTINUOUS
 62
     6
 10
439.808462
 20
249.656154
 40
2.000000
 50
208.420000
 51
268.500000
  0
ARC
  8
CSLAYER17
  6
CONTINUOUS
 62
     6
 10
439.808462
 20
115.736154
 40
2.000000
 50
91.490000
 51
151.570000
  0
LINE
  8
CSLAYER17
  6
CENTER
 62
     3
 10
516.442533
 20
218.696154
 11
600.788462
 21
218.696154
  0
LINE
  8
CSLAYER17
  6
CENTER
 62
     3
 10
558.788462
 20
279.196154
 11
558.788462
 21
92.196154
  0
LINE
  8
CSLAYER17
  6
CENTER
 62
     3
 10
598.788462
 20
120.936154
 11
598.788462
 21
91.436154
  0
LINE
  8
CSLAYER17
  6
CENTER
 62
     3
 10
518.788462
 20
120.936154
 11
518.788462
 21
92.696154
  0
LINE
  8
CSLAYER17
  6
DASHED
 62
     6
 10
604.288462
 20
113.696154
 11
604.288462
 21
98.696154
  0
LINE
  8
CSLAYER17
  6
DASHED
 62
     6
 10
593.288462
 20
113.696154
 11
593.288462
 21
98.696154
  0
LINE
  8
CSLAYER17
  6
DASHED
 62
     6
 10
524.288462
 20
113.696154
 11
524.288462
 21
98.696154
  0
LINE
  8
CSLAYER17
  6
DASHED
 62
     6
 10
513.288462
 20
113.696154
 11
513.288462
 21
98.696154
  0
LINE
  8
CSLAYER17
  6
CONTINUOUS
 62
     6
 10
420.288462
 20
262.696154
 11
420.288462
 21
102.696154
  0
LINE
  8
CSLAYER17
  6
CONTINUOUS
 62
     6
 10
668.040725
 20
98.696154
 11
703.540725
 21
98.696154
  0
LINE
  8
CSLAYER17
  6
CONTINUOUS
 62
     6
 10
670.540725
 20
113.696154
 11
691.040725
 21
113.696154
  0
LINE
  8
CSLAYER17
  6
CONTINUOUS
 62
     6
 10
791.540725
 20
113.696154
 11
771.040725
 21
113.696154
  0
LINE
  8
CSLAYER17
  6
CONTINUOUS
 62
     6
 10
695.540725
 20
246.696154
 11
766.280725
 21
246.696154
  0
LINE
  8
CSLAYER17
  6
CONTINUOUS
 62
     6
 10
765.080725
 20
272.596154
 11
731.040725
 21
273.196154
  0
LINE
  8
CSLAYER17
  6
CONTINUOUS
 62
     6
 10
696.980725
 20
272.596154
 11
731.040725
 21
273.196154
  0
LINE
  8
CSLAYER17
  6
CONTINUOUS
 62
     6
 10
768.040725
 20
269.596154
 11
768.040725
 21
98.696154
  0
LINE
  8
CSLAYER17
  6
CONTINUOUS
 62
     6
 10
694.040725
 20
269.596154
 11
694.040725
 21
98.696154
  0
LINE
  8
CSLAYER17
  6
CONTINUOUS
 62
     6
 10
678.040725
 20
188.976154
 11
678.040725
 21
248.416154
  0
LINE
  8
CSLAYER17
  6
CONTINUOUS
 62
     6
 10
784.040725
 20
248.416154
 11
784.040725
 21
188.976154
  0
LINE
  8
CSLAYER17
  6
CONTINUOUS
 62
     6
 10
685.040725
 20
148.496154
 11
685.040725
 21
221.196154
  0
LINE
  8
CSLAYER17
  6
CONTINUOUS
 62
     6
 10
777.040725
 20
148.496154
 11
777.040725
 21
221.196154
  0
LINE
  8
CSLAYER17
  6
CONTINUOUS
 62
     6
 10
794.040725
 20
111.396154
 11
794.040725
 21
98.696154
  0
LINE
  8
CSLAYER17
  6
CONTINUOUS
 62
     6
 10
668.040725
 20
111.396154
 11
668.040725
 21
98.696154
  0
ARC
  8
CSLAYER17
  6
CONTINUOUS
 62
     6
 10
697.040725
 20
269.596154
 40
3.000000
 50
91.000000
 51
180.000000
  0
ARC
  8
CSLAYER17
  6
CONTINUOUS
 62
     6
 10
765.040725
 20
269.596154
 40
3.000000
 50
0.000000
 51
89.000000
  0
LINE
  8
CSLAYER17
  6
CONTINUOUS
 62
     6
 10
758.540725
 20
98.696154
 11
794.040725
 21
98.696154
  0
LINE
  8
CSLAYER17
  6
CONTINUOUS
 62
     6
 10
704.540725
 20
99.696154
 11
757.540725
 21
99.696154
  0
LINE
  8
CSLAYER17
  6
CONTINUOUS
 62
     6
 10
681.680725
 20
253.216154
 11
690.400725
 21
255.676154
  0
LINE
  8
CSLAYER17
  6
CONTINUOUS
 62
     6
 10
681.680725
 20
184.176154
 11
682.840725
 21
183.836154
  0
LINE
  8
CSLAYER17
  6
CONTINUOUS
 62
     6
 10
688.700725
 20
143.676154
 11
690.380725
 21
143.216154
  0
LINE
  8
CSLAYER17
  6
CONTINUOUS
 62
     6
 10
773.380725
 20
143.676154
 11
771.700725
 21
143.216154
  0
LINE
  8
CSLAYER17
  6
CONTINUOUS
 62
     6
 10
780.400725
 20
184.176154
 11
779.220725
 21
183.836154
  0
LINE
  8
CSLAYER17
  6
CONTINUOUS
 62
     6
 10
780.400725
 20
253.216154
 11
771.680725
 21
255.676154
  0
ARC
  8
CSLAYER17
  6
CONTINUOUS
 62
     6
 10
683.040725
 20
248.416154
 40
5.000000
 50
105.700000
 51
180.000000
  0
ARC
  8
CSLAYER17
  6
CONTINUOUS
 62
     6
 10
683.040725
 20
188.976154
 40
5.000000
 50
180.000000
 51
254.290000
  0
ARC
  8
CSLAYER17
  6
CONTINUOUS
 62
     6
 10
690.040725
 20
148.496154
 40
5.000000
 50
180.000000
 51
254.470000
  0
ARC
  8
CSLAYER17
  6
CONTINUOUS
 62
     6
 10
772.040725
 20
148.496154
 40
5.000000
 50
285.520000
 51
360.000000
  0
ARC
  8
CSLAYER17
  6
CONTINUOUS
 62
     6
 10
779.040725
 20
188.976154
 40
5.000000
 50
285.700000
 51
360.000000
  0
ARC
  8
CSLAYER17
  6
CONTINUOUS
 62
     6
 10
779.040725
 20
248.416154
 40
5.000000
 50
0.000000
 51
74.290000
  0
ARC
  8
CSLAYER17
  6
CONTINUOUS
 62
     6
 10
780.040725
 20
180.956154
 40
3.000000
 50
105.700000
 51
180.000000
  0
ARC
  8
CSLAYER17
  6
CONTINUOUS
 62
     6
 10
682.040725
 20
180.956154
 40
3.000000
 50
0.000000
 51
74.290000
  0
ARC
  8
CSLAYER17
  6
CONTINUOUS
 62
     6
 10
689.040725
 20
260.476154
 40
5.000000
 50
285.700000
 51
360.000000
  0
ARC
  8
CSLAYER17
  6
CONTINUOUS
 62
     6
 10
773.040725
 20
260.476154
 40
5.000000
 50
180.000000
 51
254.290000
  0
ARC
  8
CSLAYER17
  6
CONTINUOUS
 62
     6
 10
773.040725
 20
138.396154
 40
5.000000
 50
105.520000
 51
180.000000
  0
ARC
  8
CSLAYER17
  6
CONTINUOUS
 62
     6
 10
689.040725
 20
138.396154
 40
5.000000
 50
0.000000
 51
74.470000
  0
LINE
  8
CSLAYER17
  6
CONTINUOUS
 62
     6
 10
758.540725
 20
98.696154
 11
757.540725
 21
99.696154
  0
LINE
  8
CSLAYER17
  6
CONTINUOUS
 62
     6
 10
703.540725
 20
98.696154
 11
704.540725
 21
99.696154
  0
ARC
  8
CSLAYER17
  6
CONTINUOUS
 62
     6
 10
691.040725
 20
116.696154
 40
3.000000
 50
270.000000
 51
360.000000
  0
ARC
  8
CSLAYER17
  6
CONTINUOUS
 62
     6
 10
771.040725
 20
116.696154
 40
3.000000
 50
180.000000
 51
270.000000
  0
LINE
  8
CSLAYER17
  6
CONTINUOUS
 62
     6
 10
791.820725
 20
114.296154
 11
770.260725
 21
120.096154
  0
LINE
  8
CSLAYER17
  6
CONTINUOUS
 62
     6
 10
670.260725
 20
114.296154
 11
691.820725
 21
120.096154
  0
ARC
  8
CSLAYER17
  6
CONTINUOUS
 62
     6
 10
691.040725
 20
122.996154
 40
3.000000
 50
285.060000
 51
360.000000
  0
ARC
  8
CSLAYER17
  6
CONTINUOUS
 62
     6
 10
671.040725
 20
111.396154
 40
3.000000
 50
105.060000
 51
180.000000
  0
ARC
  8
CSLAYER17
  6
CONTINUOUS
 62
     6
 10
670.540725
 20
111.196154
 40
2.500000
 50
90.000000
 51
180.000000
  0
ARC
  8
CSLAYER17
  6
CONTINUOUS
 62
     6
 10
771.040725
 20
122.996154
 40
3.000000
 50
180.000000
 51
254.930000
  0
ARC
  8
CSLAYER17
  6
CONTINUOUS
 62
     6
 10
791.540725
 20
111.196154
 40
2.500000
 50
0.000000
 51
90.000000
  0
ARC
  8
CSLAYER17
  6
CONTINUOUS
 62
     6
 10
791.040725
 20
111.396154
 40
3.000000
 50
0.000000
 51
74.930000
  0
ARC
  8
CSLAYER17
  6
CONTINUOUS
 62
     6
 10
731.040725
 20
182.696154
 40
63.500000
 50
-54.370000
 51
20.270743
  0
ARC
  8
CSLAYER17
  6
CONTINUOUS
 62
     6
 10
731.040725
 20
182.696154
 40
63.500000
 50
159.729257
 51
234.360000
  0
LINE
  8
CSLAYER17
  6
CONTINUOUS
 62
     6
 10
631.040725
 20
204.696154
 11
631.040725
 21
232.696154
  0
LINE
  8
CSLAYER17
  6
CONTINUOUS
 62
     6
 10
676.040725
 20
232.696154
 11
631.040725
 21
232.696154
  0
LINE
  8
CSLAYER17
  6
CONTINUOUS
 62
     6
 10
676.040725
 20
204.696154
 11
631.040725
 21
204.696154
  0
LINE
  8
CSLAYER17
  6
CONTINUOUS
 62
     6
 10
676.040725
 20
233.696154
 11
676.040725
 21
203.696154
  0
LINE
  8
CSLAYER17
  6
CONTINUOUS
 62
     6
 10
678.040725
 20
203.696154
 11
676.040725
 21
203.696154
  0
ARC
  8
CSLAYER17
  6
CONTINUOUS
 62
     6
 10
667.040725
 20
218.696154
 40
4.000000
 50
-90.000000
 51
90.000000
  0
LINE
  8
CSLAYER17
  6
CONTINUOUS
 62
     6
 10
667.040725
 20
222.696154
 11
631.040725
 21
222.696154
  0
LINE
  8
CSLAYER17
  6
CONTINUOUS
 62
     6
 10
667.040725
 20
214.696154
 11
631.040725
 21
214.696154
  0
LINE
  8
CSLAYER17
  6
CONTINUOUS
 62
     6
 10
678.040725
 20
233.696154
 11
676.040725
 21
233.696154
  0
ARC
  8
CSLAYER17
  6
CONTINUOUS
 62
     6
 10
777.000725
 20
136.736154
 40
10.000000
 50
-115.900000
 51
25.890000
  0
ARC
  8
CSLAYER17
  6
CONTINUOUS
 62
     6
 10
795.000725
 20
145.476154
 40
10.000000
 50
149.790000
 51
205.890000
  0
ARC
  8
CSLAYER17
  6
CONTINUOUS
 62
     6
 10
768.260725
 20
118.736154
 40
10.000000
 50
64.100000
 51
91.310000
  0
ARC
  8
CSLAYER17
  6
CONTINUOUS
 62
     6
 10
783.540725
 20
182.696154
 40
14.500000
 50
-39.080000
 51
39.070000
  0
ARC
  8
CSLAYER17
  6
CONTINUOUS
 62
     6
 10
797.120725
 20
193.716154
 40
3.000000
 50
189.470000
 51
219.070000
  0
ARC
  8
CSLAYER17
  6
CONTINUOUS
 62
     6
 10
797.120725
 20
171.656154
 40
3.000000
 50
140.920000
 51
170.520000
  0
ARC
  8
CSLAYER17
  6
CONTINUOUS
 62
     6
 10
685.080725
 20
136.736154
 40
10.000000
 50
154.100000
 51
295.890000
  0
ARC
  8
CSLAYER17
  6
CONTINUOUS
 62
     6
 10
667.080725
 20
145.476154
 40
10.000000
 50
-25.900000
 51
30.200000
  0
ARC
  8
CSLAYER17
  6
CONTINUOUS
 62
     6
 10
693.800725
 20
118.736154
 40
10.000000
 50
88.680000
 51
115.890000
  0
ARC
  8
CSLAYER17
  6
CONTINUOUS
 62
     6
 10
678.540725
 20
182.696154
 40
14.500000
 50
140.920000
 51
219.070000
  0
ARC
  8
CSLAYER17
  6
CONTINUOUS
 62
     6
 10
664.960725
 20
193.716154
 40
3.000000
 50
320.920000
 51
350.520000
  0
ARC
  8
CSLAYER17
  6
CONTINUOUS
 62
     6
 10
664.960725
 20
171.656154
 40
3.000000
 50
9.470000
 51
39.070000
  0
ARC
  8
CSLAYER17
  6
CONTINUOUS
 62
     6
 10
731.040725
 20
182.696154
 40
80.000000
 50
-53.980000
 51
15.962014
  0
ARC
  8
CSLAYER17
  6
CONTINUOUS
 62
     6
 10
731.040725
 20
182.696154
 40
64.000000
 50
-54.690000
 51
20.105510
  0
ARC
  8
CSLAYER17
  6
CONTINUOUS
 62
     6
 10
731.040725
 20
182.696154
 40
64.000000
 50
159.894490
 51
234.680000
  0
ARC
  8
CSLAYER17
  6
CONTINUOUS
 62
     6
 10
731.040725
 20
182.696154
 40
80.000000
 50
164.037986
 51
233.970000
  0
ARC
  8
CSLAYER17
  6
CONTINUOUS
 62
     6
 10
731.040725
 20
182.696154
 40
80.000000
 50
131.490000
 51
141.317813
  0
ARC
  8
CSLAYER17
  6
CONTINUOUS
 62
     6
 10
731.040725
 20
182.696154
 40
80.000000
 50
38.682187
 51
48.500000
  0
LINE
  8
CSLAYER17
  6
CENTER
 62
     3
 10
731.040725
 20
92.696154
 11
731.040725
 21
279.196154
  0
LINE
  8
CSLAYER17
  6
CENTER
 62
     3
 10
624.760725
 20
218.696154
 11
837.406366
 21
218.696154
  0
LINE
  8
CSLAYER17
  6
CENTER
 62
     3
 10
681.040725
 20
121.696154
 11
681.040725
 21
92.696154
  0
LINE
  8
CSLAYER17
  6
CENTER
 62
     3
 10
781.040725
 20
122.196154
 11
781.040725
 21
92.696154
  0
LINE
  8
CSLAYER17
  6
CENTER
 62
     3
 10
645.040725
 20
182.696154
 11
817.040725
 21
182.696154
  0
LINE
  8
CSLAYER17
  6
DASHED
 62
     6
 10
675.540725
 20
113.696154
 11
675.540725
 21
98.696154
  0
LINE
  8
CSLAYER17
  6
DASHED
 62
     6
 10
686.540725
 20
113.696154
 11
686.540725
 21
98.696154
  0
LINE
  8
CSLAYER17
  6
DASHED
 62
     6
 10
775.540725
 20
113.696154
 11
775.540725
 21
98.696154
  0
LINE
  8
CSLAYER17
  6
DASHED
 62
     6
 10
786.540725
 20
113.696154
 11
786.540725
 21
98.696154
  0
LINE
  8
CSLAYER17
  6
CONTINUOUS
 62
     6
 10
176.236462
 20
98.696154
 11
140.736462
 21
98.696154
  0
LINE
  8
CSLAYER17
  6
CONTINUOUS
 62
     6
 10
173.736462
 20
113.696154
 11
153.721026
 21
113.696154
  0
LINE
  8
CSLAYER17
  6
CONTINUOUS
 62
     6
 10
52.736462
 20
113.696154
 11
72.751897
 21
113.696154
  0
LINE
  8
CSLAYER17
  6
CONTINUOUS
 62
     6
 10
79.196462
 20
272.596154
 11
113.236462
 21
273.196154
  0
LINE
  8
CSLAYER17
  6
CONTINUOUS
 62
     6
 10
147.296462
 20
272.596154
 11
113.236462
 21
273.196154
  0
LINE
  8
CSLAYER17
  6
CONTINUOUS
 62
     6
 10
166.236462
 20
242.621107
 11
166.236462
 21
248.416154
  0
LINE
  8
CSLAYER17
  6
CONTINUOUS
 62
     6
 10
60.236462
 20
248.416154
 11
60.236462
 21
242.621107
  0
LINE
  8
CSLAYER17
  6
CONTINUOUS
 62
     6
 10
50.236462
 20
111.396154
 11
50.236462
 21
98.696154
  0
LINE
  8
CSLAYER17
  6
CONTINUOUS
 62
     6
 10
176.236462
 20
111.396154
 11
176.236462
 21
98.696154
  0
ARC
  8
CSLAYER17
  6
CONTINUOUS
 62
     6
 10
147.236462
 20
269.596154
 40
3.000000
 50
0.000000
 51
89.000000
  0
ARC
  8
CSLAYER17
  6
CONTINUOUS
 62
     6
 10
79.236462
 20
269.596154
 40
3.000000
 50
91.000000
 51
180.000000
  0
LINE
  8
CSLAYER17
  6
CONTINUOUS
 62
     6
 10
85.736462
 20
98.696154
 11
50.236462
 21
98.696154
  0
LINE
  8
CSLAYER17
  6
CONTINUOUS
 62
     6
 10
139.736462
 20
99.696154
 11
86.736462
 21
99.696154
  0
LINE
  8
CSLAYER17
  6
CONTINUOUS
 62
     6
 10
162.596462
 20
253.216154
 11
153.876462
 21
255.676154
  0
LINE
  8
CSLAYER17
  6
CONTINUOUS
 62
     6
 10
63.876462
 20
253.216154
 11
72.596462
 21
255.676154
  0
ARC
  8
CSLAYER17
  6
CONTINUOUS
 62
     6
 10
161.236462
 20
248.416154
 40
5.000000
 50
0.000000
 51
74.300000
  0
ARC
  8
CSLAYER17
  6
CONTINUOUS
 62
     6
 10
65.236462
 20
248.416154
 40
5.000000
 50
105.710000
 51
180.000000
  0
ARC
  8
CSLAYER17
  6
CONTINUOUS
 62
     6
 10
155.236462
 20
260.476154
 40
5.000000
 50
180.000000
 51
254.300000
  0
ARC
  8
CSLAYER17
  6
CONTINUOUS
 62
     6
 10
71.236462
 20
260.476154
 40
5.000000
 50
285.710000
 51
360.000000
  0
LINE
  8
CSLAYER17
  6
CONTINUOUS
 62
     6
 10
85.736462
 20
98.696154
 11
86.736462
 21
99.696154
  0
LINE
  8
CSLAYER17
  6
CONTINUOUS
 62
     6
 10
140.736462
 20
98.696154
 11
139.736462
 21
99.696154
  0
LINE
  8
CSLAYER17
  6
CONTINUOUS
 62
     6
 10
52.456462
 20
114.296154
 11
66.191277
 21
117.991049
  0
LINE
  8
CSLAYER17
  6
CONTINUOUS
 62
     6
 10
174.016462
 20
114.296154
 11
160.281646
 21
117.991049
  0
ARC
  8
CSLAYER17
  6
CONTINUOUS
 62
     6
 10
173.236462
 20
111.396154
 40
3.000000
 50
0.000000
 51
74.940000
  0
ARC
  8
CSLAYER17
  6
CONTINUOUS
 62
     6
 10
173.736462
 20
111.196154
 40
2.500000
 50
0.000000
 51
90.000000
  0
ARC
  8
CSLAYER17
  6
CONTINUOUS
 62
     6
 10
52.736462
 20
111.196154
 40
2.500000
 50
90.000000
 51
180.000000
  0
ARC
  8
CSLAYER17
  6
CONTINUOUS
 62
     6
 10
53.236462
 20
111.396154
 40
3.000000
 50
105.070000
 51
180.000000
  0
LINE
  8
CSLAYER17
  6
CENTER
 62
     3
 10
163.236462
 20
121.696154
 11
163.236462
 21
92.696154
  0
LINE
  8
CSLAYER17
  6
CENTER
 62
     3
 10
63.236462
 20
122.196154
 11
63.236462
 21
92.696154
  0
LINE
  8
CSLAYER17
  6
DASHED
 62
     6
 10
168.736462
 20
113.696154
 11
168.736462
 21
98.696154
  0
LINE
  8
CSLAYER17
  6
DASHED
 62
     6
 10
157.736462
 20
113.696154
 11
157.736462
 21
98.696154
  0
LINE
  8
CSLAYER17
  6
DASHED
 62
     6
 10
68.736462
 20
113.696154
 11
68.736462
 21
98.696154
  0
LINE
  8
CSLAYER17
  6
DASHED
 62
     6
 10
57.736462
 20
113.696154
 11
57.736462
 21
98.696154
  0
LINE
  8
CSLAYER17
  6
CONTINUOUS
 62
     6
 10
76.236462
 20
269.596154
 11
76.236462
 21
253.625696
  0
LINE
  8
CSLAYER17
  6
CONTINUOUS
 62
     6
 10
150.236462
 20
269.596154
 11
150.236462
 21
253.625696
  0
ARC
  8
CSLAYER17
  6
CONTINUOUS
 62
     6
 10
98.895924
 20
129.489991
 40
14.340522
 50
332.536225
 51
359.942687
  0
ARC
  8
CSLAYER17
  6
CONTINUOUS
 62
     6
 10
98.895924
 20
129.489991
 40
12.338538
 50
332.536225
 51
359.942687
  0
LINE
  8
CSLAYER17
  6
CONTINUOUS
 62
     6
 10
109.843922
 20
123.799638
 11
111.620305
 21
122.876328
  0
ARC
  8
CSLAYER17
  6
CONTINUOUS
 62
     6
 10
111.734975
 20
133.007004
 40
1.001006
 50
239.999981
 51
299.999981
  0
ARC
  8
CSLAYER17
  6
CONTINUOUS
 62
     6
 10
112.735981
 20
133.007003
 40
1.001006
 50
239.999981
 51
299.999981
  0
ARC
  8
CSLAYER17
  6
CONTINUOUS
 62
     6
 10
112.735980
 20
131.273210
 40
1.001006
 50
59.999981
 51
119.999981
  0
ARC
  8
CSLAYER17
  6
CONTINUOUS
 62
     6
 10
127.577000
 20
129.489991
 40
12.338538
 50
179.999963
 51
207.463892
  0
LINE
  8
CSLAYER17
  6
CONTINUOUS
 62
     6
 10
116.629018
 20
123.799607
 11
114.852635
 21
122.876328
  0
ARC
  8
CSLAYER17
  6
CONTINUOUS
 62
     6
 10
127.577000
 20
129.490037
 40
14.340522
 50
180.000020
 51
207.463892
  0
ARC
  8
CSLAYER17
  6
CONTINUOUS
 62
     6
 10
113.736989
 20
133.007004
 40
1.001006
 50
239.999981
 51
299.999981
  0
ARC
  8
CSLAYER17
  6
CONTINUOUS
 62
     6
 10
114.737995
 20
133.007003
 40
1.001006
 50
239.999981
 51
299.999981
  0
ARC
  8
CSLAYER17
  6
CONTINUOUS
 62
     6
 10
114.737994
 20
131.273210
 40
1.001006
 50
59.999981
 51
119.999981
  0
ARC
  8
CSLAYER17
  6
CONTINUOUS
 62
     6
 10
112.735952
 20
129.781749
 40
1.000999
 50
60.000345
 51
120.000345
  0
ARC
  8
CSLAYER17
  6
CONTINUOUS
 62
     6
 10
111.734953
 20
129.781743
 40
1.000999
 50
60.000345
 51
120.000345
  0
ARC
  8
CSLAYER17
  6
CONTINUOUS
 62
     6
 10
111.734943
 20
131.515524
 40
1.000999
 50
240.000345
 51
300.000345
  0
ARC
  8
CSLAYER17
  6
CONTINUOUS
 62
     6
 10
114.737966
 20
129.781749
 40
1.000999
 50
60.000345
 51
120.000345
  0
ARC
  8
CSLAYER17
  6
CONTINUOUS
 62
     6
 10
113.736967
 20
129.781743
 40
1.000999
 50
60.000345
 51
120.000345
  0
ARC
  8
CSLAYER17
  6
CONTINUOUS
 62
     6
 10
113.736957
 20
131.515524
 40
1.000999
 50
240.000345
 51
300.000345
  0
LINE
  8
CSLAYER17
  6
CONTINUOUS
 62
     6
 10
111.234456
 20
129.490037
 11
111.234456
 21
130.648637
  0
LINE
  8
CSLAYER17
  6
CONTINUOUS
 62
     6
 10
115.238469
 20
129.490037
 11
115.238469
 21
130.648637
  0
LINE
  8
CSLAYER17
  6
CONTINUOUS
 62
     6
 10
111.234461
 20
138.741754
 11
111.234471
 21
132.140107
  0
LINE
  8
CSLAYER17
  6
CONTINUOUS
 62
     6
 10
115.238459
 20
138.741754
 11
115.238469
 21
132.140107
  0
LINE
  8
CSLAYER17
  6
CONTINUOUS
 62
     6
 10
115.740826
 20
123.337967
 11
117.061978
 21
120.770056
  0
LINE
  8
CSLAYER17
  6
CONTINUOUS
 62
     6
 10
110.732113
 20
123.337983
 11
109.321978
 21
120.590056
  0
LINE
  8
CSLAYER17
  6
CONTINUOUS
 62
     6
 10
116.199180
 20
123.576198
 11
117.651978
 21
121.180056
  0
LINE
  8
CSLAYER17
  6
CONTINUOUS
 62
     6
 10
111.206652
 20
123.091332
 11
109.951978
 21
120.360056
  0
LINE
  8
CSLAYER17
  6
CONTINUOUS
 62
     6
 10
115.280508
 20
123.103555
 11
116.385365
 21
120.528403
  0
LINE
  8
CSLAYER17
  6
CONTINUOUS
 62
     6
 10
110.255027
 20
123.579671
 11
108.767768
 21
120.967749
  0
LINE
  8
CSLAYER17
  6
CONTINUOUS
 62
     6
 10
113.236458
 20
138.696185
 11
113.236484
 21
132.140106
  0
LINE
  8
CSLAYER17
  6
CONTINUOUS
 62
     6
 10
113.236463
 20
130.648631
 11
113.236438
 21
129.475646
  0
LINE
  8
CSLAYER17
  6
CONTINUOUS
 62
     6
 10
575.788462
 20
536.750000
 11
575.788462
 21
496.750000
  0
LINE
  8
CSLAYER17
  6
CONTINUOUS
 62
     6
 10
575.788462
 20
496.750000
 11
572.788462
 21
496.750000
  0
LINE
  8
CSLAYER17
  6
DASHED
 62
     6
 10
572.788462
 20
496.750000
 11
568.788462
 21
496.750000
  0
LINE
  8
CSLAYER17
  6
DASHED
 62
     6
 10
568.788462
 20
496.750000
 11
568.788462
 21
536.750000
  0
LINE
  8
CSLAYER17
  6
CONTINUOUS
 62
     6
 10
572.788462
 20
536.750000
 11
572.788462
 21
491.750000
  0
LINE
  8
CSLAYER17
  6
CONTINUOUS
 62
     6
 10
573.788462
 20
491.750000
 11
543.788462
 21
491.750000
  0
LINE
  8
CSLAYER17
  6
CONTINUOUS
 62
     6
 10
543.788462
 20
491.750000
 11
543.788462
 21
489.750000
  0
LINE
  8
CSLAYER17
  6
CONTINUOUS
 62
     6
 10
544.788462
 20
491.750000
 11
544.788462
 21
536.750000
  0
LINE
  8
CSLAYER17
  6
CONTINUOUS
 62
     6
 10
544.788462
 20
536.750000
 11
575.788462
 21
536.750000
  0
LINE
  8
CSLAYER17
  6
CONTINUOUS
 62
     6
 10
573.788462
 20
489.750000
 11
573.788462
 21
491.750000
  0
LINE
  8
CSLAYER17
  6
CONTINUOUS
 62
     6
 10
575.788462
 20
499.750000
 11
610.196568
 21
499.750000
  0
LINE
  8
CSLAYER17
  6
CENTER
 62
     3
 10
49.986324
 20
221.696154
 11
8.288462
 21
221.696154
  0
LINE
  8
CSLAYER17
  6
CONTINUOUS
 62
     6
 10
53.311508
 20
235.696154
 11
13.236462
 21
235.696154
  0
LINE
  8
CSLAYER17
  6
CONTINUOUS
 62
     6
 10
13.236462
 20
235.696154
 11
13.236462
 21
207.696154
  0
LINE
  8
CSLAYER17
  6
CONTINUOUS
 62
     6
 10
13.236462
 20
207.696154
 11
37.243041
 21
207.696154
  0
LINE
  8
CSLAYER17
  6
CONTINUOUS
 62
     6
 10
831.040725
 20
204.696154
 11
831.040725
 21
232.696154
  0
LINE
  8
CSLAYER17
  6
CONTINUOUS
 62
     6
 10
786.040725
 20
232.696154
 11
831.040725
 21
232.696154
  0
LINE
  8
CSLAYER17
  6
CONTINUOUS
 62
     6
 10
786.040725
 20
204.696154
 11
831.040725
 21
204.696154
  0
ARC
  8
CSLAYER17
  6
CONTINUOUS
 62
     6
 10
795.040725
 20
218.696154
 40
4.000000
 50
90.000000
 51
270.000000
  0
LINE
  8
CSLAYER17
  6
CONTINUOUS
 62
     6
 10
795.040725
 20
222.696154
 11
831.040725
 21
222.696154
  0
LINE
  8
CSLAYER17
  6
CONTINUOUS
 62
     6
 10
795.040725
 20
214.696154
 11
831.040725
 21
214.696154
  0
LINE
  8
CSLAYER17
  6
CONTINUOUS
 62
     6
 10
786.040725
 20
233.696154
 11
786.040725
 21
203.696154
  0
LINE
  8
CSLAYER17
  6
CONTINUOUS
 62
     6
 10
784.040725
 20
203.696154
 11
786.040725
 21
203.696154
  0
LINE
  8
CSLAYER17
  6
CONTINUOUS
 62
     6
 10
784.040725
 20
233.696154
 11
786.040725
 21
233.696154
  0
ENDSEC
  0
EOF
