  0
SECTION
  2
HEADER
  9
$ACADVER
  1
AC1006
  9
$INSBASE
 10
0.000000
 20
0.000000
 30
0.0
  9
$EXTMIN
 10
0.000000
 20
0.000000
  9
$EXTMAX
 10
841.000000
 20
594.000000
  9
$LIMMIN
 10
0.000000
 20
0.000000
  9
$LIMMAX
 10
841.000000
 20
594.000000
  9
$VIEWCTR
 10
420.500000
 20
297.000000
  9
$VIEWSIZE
 40
594.000000
  9
$SNAPMODE
 70
     0
  9
$SNAPUNIT
 10
1.0
 20
1.0
  9
$SNAPBASE
 10
0.0
 20
0.0
  9
$SNAPANG
 50
0.0
  9
$SNAPSTYLE
 70
     0
  9
$SNAPISOPAIR
 70
     0
  9
$GRIDMODE
 70
     0
  9
$GRIDUNIT
 10
0.0
 20
0.0
  9
$ORTHOMODE
 70
     0
  9
$REGENMODE
 70
     1
  9
$FILLMODE
 70
     1
  9
$QTEXTMODE
 70
     0
  9
$DRAGMODE
 70
     2
  9
$LTSCALE
 40
15.000000
  9
$OSMODE
 70
     0
  9
$ATTMODE
 70
     1
  9
$TEXTSIZE
 40
0.2
  9
$TRACEWID
 40
0.05
  9
$TEXTSTYLE
  7
STANDARD
  9
$CLAYER
  8
CSLAYER1
  9
$CELTYPE
  6
BYLAYER
  9
$CECOLOR
 62
   256
  9
$DIMSCALE
 40
1.0
  9
$DIMASZ
 40
0.18
  9
$DIMEXO
 40
0.0625
  9
$DIMDLI
 40
0.38
  9
$DIMRND
 40
0.0
  9
$DIMDLE
 40
0.0
  9
$DIMEXE
 40
0.18
  9
$DIMTP
 40
0.0
  9
$DIMTM
 40
0.0
  9
$DIMTXT
 40
0.18
  9
$DIMCEN
 40
0.09
  9
$DIMTSZ
 40
0.0
  9
$DIMTOL
 70
     0
  9
$DIMLIM
 70
     0
  9
$DIMTIH
 70
     1
  9
$DIMTOH
 70
     1
  9
$DIMSE1
 70
     0
  9
$DIMSE2
 70
     0
  9
$DIMTAD
 70
     0
  9
$DIMZIN
 70
     0
  9
$DIMBLK
  1

  9
$LUNITS
 70
     2
  9
$LUPREC
 70
     4
  9
$AXISMODE
 70
     0
  9
$AXISUNIT
 10
0.0
 20
0.0
  9
$SKETCHINC
 40
0.1
  9
$FILLETRAD
 40
0.0
  9
$AUNITS
 70
     0
  9
$AUPREC
 70
     0
  9
$MENU
  1
ACAD
  9
$ELEVATION
 40
0.0
  9
$THICKNESS
 40
0.0
  9
$VIEWDIR
 10
0.0
 20
0.0
 30
1.0
  9
$LIMCHECK
 70
     0
  9
$BLIPMODE
 70
     1
  9
$CHAMFERA
 40
0.0
  9
$CHAMFERB
 40
0.0
  9
$FASTZOOM
 70
     1
  9
$SKPOLY
 70
     0
  9
$TDCREATE
 40
2452885.000000
  9
$TDUPDATE
 40
2452885.000000
  9
$TDINDWG
 40
0.0
  9
$TDUSRTIMER
 40
0.0
  9
$USRTIMER
 70
     1
  9
$ANGBASE
 50
0.0
  9
$ANGDIR
 70
     0
  9
$PDMODE
 70
     0
  9
$PDSIZE
 40
0.0
  9
$PLINEWID
 40
0.0
  9
$COORDS
 70
     0
  9
$USERI1
 70
     0
  9
$USERI2
 70
     0
  9
$USERI3
 70
     0
  9
$USERI4
 70
     0
  9
$USERI5
 70
     0
  9
$USERR1
 40
0.0
  9
$USERR2
 40
0.0
  9
$USERR3
 40
0.0
  9
$USERR4
 40
0.0
  9
$USERR5
 40
0.0
  0
ENDSEC
  0
SECTION
  2
TABLES
  0
TABLE
  2
LTYPE
 70
     9
  0
LTYPE
  2
CONTINUOUS
 70
    64
  3
Solid line
 72
    65
 73
     0
 40
0.0
  0
LTYPE
  2
DASHED
 70
    64
  3
__ __ __ __ __ __ __ __ __ __ __ __ __ __ __
 72
    65
 73
     2
 40
0.75
 49
0.5
 49
-0.25
  0
LTYPE
  2
HIDDEN
 70
    64
  3
_ _ _ _ _ _ _ _ _ _ _ _ _ _ _ _ _ _ _ _ _ _ _
 72
    65
 73
     2
 40
0.375
 49
0.25
 49
-0.125
  0
LTYPE
  2
DOT
 70
    64
  3
...............................................
 72
    65
 73
     2
 40
0.25
 49
0.0
 49
-0.25
  0
LTYPE
  2
DASHDOT
 70
    64
  3
__ . __ . __ . __ . __ . __ . __ . __ . __ . __
 72
    65
 73
     4
 40
1.0
 49
0.5
 49
-0.25
 49
0.0
 49
-0.25
  0
LTYPE
  2
DIVIDE
 70
    64
  3
__ . . __ . . __ . . __ . . __ . . __ . . __
 72
    65
 73
     6
 40
1.25
 49
0.5
 49
-0.25
 49
0.0
 49
-0.25
 49
0.0
 49
-0.25
  0
LTYPE
  2
CENTER
 70
    64
  3
____ _ ____ _ ____ _ ____ _ ____ _ ____ _ ____ 
 72
    65
 73
     4
 40
2.0
 49
1.25
 49
-0.25
 49
0.25
 49
-0.25
  0
LTYPE
  2
PHANTOM
 70
    64
  3
______  __  __  ______  __  __  ______  __  __ 
 72
    65
 73
     6
 40
2.5
 49
1.25
 49
-0.25
 49
0.25
 49
-0.25
 49
0.25
 49
-0.25
  0
LTYPE
  2
BORDER
 70
    64
  3
__ __ . __ __ . __ __ . __ __ . __ __ . __ __ .
 72
    65
 73
     6
 40
1.75
 49
0.5
 49
-0.25
 49
0.5
 49
-0.25
 49
0.0
 49
-0.25
  0
ENDTAB
  0
TABLE
  2
LAYER
 70
    16
  0
LAYER
  2
CSLAYER1
 70
    64
 62
     7
  6
CONTINUOUS
  0
LAYER
  2
CSLAYER2
 70
    64
 62
     7
  6
CONTINUOUS
  0
LAYER
  2
CSLAYER3
 70
    64
 62
     7
  6
CONTINUOUS
  0
LAYER
  2
CSLAYER4
 70
    64
 62
     7
  6
CONTINUOUS
  0
LAYER
  2
CSLAYER5
 70
    64
 62
     7
  6
CONTINUOUS
  0
LAYER
  2
CSLAYER6
 70
    64
 62
     7
  6
CONTINUOUS
  0
LAYER
  2
CSLAYER7
 70
    64
 62
     7
  6
CONTINUOUS
  0
LAYER
  2
CSLAYER8
 70
    64
 62
     7
  6
CONTINUOUS
  0
LAYER
  2
CSLAYER9
 70
    64
 62
     7
  6
CONTINUOUS
  0
LAYER
  2
CSLAYER10
 70
    64
 62
     7
  6
CONTINUOUS
  0
LAYER
  2
CSLAYER11
 70
    64
 62
     7
  6
CONTINUOUS
  0
LAYER
  2
CSLAYER12
 70
    64
 62
     7
  6
CONTINUOUS
  0
LAYER
  2
CSLAYER13
 70
    64
 62
     7
  6
CONTINUOUS
  0
LAYER
  2
CSLAYER14
 70
    64
 62
     7
  6
CONTINUOUS
  0
LAYER
  2
CSLAYER15
 70
    64
 62
     7
  6
CONTINUOUS
  0
LAYER
  2
CSLAYER16
 70
    64
 62
     7
  6
CONTINUOUS
  0
ENDTAB
  0
TABLE
  2
STYLE
 70
     1
  0
STYLE
  2
FX_FONT
 70
     0
 40
1.0
 41
1.0
 50
0.0
 71
     0
 42
1.0
  3
monotxt
  4
bigfont
  0
ENDTAB
  0
TABLE
  2
VIEW
 70
     0
  0
ENDTAB
  0
ENDSEC
  0
SECTION
  2
BLOCKS
  0
ENDSEC
  0
SECTION
  2
ENTITIES
  0
LINE
  8
CSLAYER1
  6
CENTER
 62
     3
 10
76.473542
 20
149.606760
 11
95.821766
 21
168.954984
  0
ARC
  8
CSLAYER1
  6
CENTER
 62
     3
 10
132.109595
 20
205.242813
 40
65.000000
 50
212.917958
 51
237.082042
  0
LINE
  8
CSLAYER1
  6
CENTER
 62
     3
 10
46.109426
 20
205.243012
 11
218.109365
 21
205.243012
  0
LINE
  8
CSLAYER1
  6
CENTER
 62
     3
 10
240.773953
 20
205.243012
 11
600.773973
 21
205.243012
  0
LINE
  8
CSLAYER1
  6
CENTER
 62
     3
 10
187.745250
 20
260.879263
 11
168.397026
 21
241.531039
  0
ARC
  8
CSLAYER1
  6
CENTER
 62
     3
 10
132.109197
 20
205.243210
 40
65.000000
 50
32.917958
 51
57.082042
  0
ARC
  8
CSLAYER1
  6
CENTER
 62
     3
 10
132.109197
 20
205.242813
 40
65.000000
 50
302.917958
 51
327.082042
  0
LINE
  8
CSLAYER1
  6
CENTER
 62
     3
 10
168.397026
 20
168.954984
 11
188.677740
 21
148.674271
  0
LINE
  8
CSLAYER1
  6
CENTER
 62
     3
 10
132.109396
 20
131.243042
 11
132.109396
 21
291.242981
  0
ARC
  8
CSLAYER1
  6
CENTER
 62
     3
 10
132.109595
 20
205.243210
 40
65.000000
 50
122.917958
 51
147.082042
  0
LINE
  8
CSLAYER1
  6
CENTER
 62
     3
 10
95.821766
 20
241.531039
 11
76.473542
 21
260.879263
  0
LINE
  8
CSLAYER1
  6
CENTER
 62
     3
 10
278.773923
 20
237.243012
 11
278.773923
 21
173.243012
  0
LINE
  8
CSLAYER1
  6
CENTER
 62
     3
 10
273.773923
 20
168.243012
 11
273.773923
 21
157.543000
  0
LINE
  8
CSLAYER1
  6
CONTINUOUS
 62
     6
 10
79.647654
 20
155.528096
 11
86.147654
 21
151.775319
  0
LINE
  8
CSLAYER1
  6
CONTINUOUS
 62
     6
 10
86.147654
 20
151.775319
 11
92.647654
 21
155.528096
  0
LINE
  8
CSLAYER1
  6
CONTINUOUS
 62
     6
 10
92.647654
 20
155.528096
 11
92.647654
 21
163.033649
  0
LINE
  8
CSLAYER1
  6
CONTINUOUS
 62
     6
 10
92.647654
 20
163.033649
 11
86.147654
 21
166.786426
  0
LINE
  8
CSLAYER1
  6
CONTINUOUS
 62
     6
 10
86.147654
 20
166.786426
 11
79.647654
 21
163.033649
  0
LINE
  8
CSLAYER1
  6
CONTINUOUS
 62
     6
 10
79.647654
 20
163.033649
 11
79.647654
 21
155.528096
  0
CIRCLE
  8
CSLAYER1
  6
CONTINUOUS
 62
     6
 10
86.147654
 20
159.280872
 40
7.700000
  0
CIRCLE
  8
CSLAYER1
  6
CONTINUOUS
 62
     6
 10
86.147654
 20
159.280872
 40
6.305000
  0
LINE
  8
CSLAYER1
  6
CONTINUOUS
 62
     6
 10
88.109396
 20
179.243012
 11
96.957244
 21
178.779334
  0
ARC
  8
CSLAYER1
  6
CONTINUOUS
 62
     6
 10
132.109396
 20
205.243012
 40
45.000000
 50
215.914393
 51
324.085608
  0
LINE
  8
CSLAYER1
  6
CONTINUOUS
 62
     6
 10
167.261548
 20
178.779335
 11
176.109396
 21
179.243012
  0
ARC
  8
CSLAYER1
  6
CONTINUOUS
 62
     6
 10
176.109396
 20
180.243012
 40
1.000000
 50
270.000019
 51
360.000000
  0
LINE
  8
CSLAYER1
  6
CONTINUOUS
 62
     6
 10
177.109396
 20
180.243012
 11
177.109396
 21
181.243012
  0
ARC
  8
CSLAYER1
  6
CONTINUOUS
 62
     6
 10
176.124441
 20
181.243012
 40
1.000000
 50
0.000018
 51
89.999999
  0
LINE
  8
CSLAYER1
  6
CONTINUOUS
 62
     6
 10
176.124441
 20
182.243012
 11
172.550121
 21
182.430371
  0
ARC
  8
CSLAYER1
  6
CONTINUOUS
 62
     6
 10
172.639113
 20
184.128115
 40
1.700075
 50
92.999690
 51
266.999412
  0
LINE
  8
CSLAYER1
  6
CONTINUOUS
 62
     6
 10
172.550147
 20
185.825861
 11
180.129812
 21
186.223053
  0
ARC
  8
CSLAYER1
  6
CONTINUOUS
 62
     6
 10
180.109396
 20
187.222809
 40
1.000000
 50
271.169236
 51
359.999982
  0
LINE
  8
CSLAYER1
  6
CONTINUOUS
 62
     6
 10
181.109396
 20
187.222809
 11
181.109396
 21
223.263215
  0
ARC
  8
CSLAYER1
  6
CONTINUOUS
 62
     6
 10
180.109396
 20
223.263215
 40
1.000000
 50
0.000000
 51
88.830746
  0
LINE
  8
CSLAYER1
  6
CONTINUOUS
 62
     6
 10
180.129812
 20
224.262971
 11
172.550147
 21
224.660163
  0
ARC
  8
CSLAYER1
  6
CONTINUOUS
 62
     6
 10
172.639113
 20
226.357909
 40
1.700075
 50
93.000588
 51
267.000310
  0
LINE
  8
CSLAYER1
  6
CONTINUOUS
 62
     6
 10
172.550121
 20
228.055653
 11
176.124441
 21
228.243012
  0
ARC
  8
CSLAYER1
  6
CONTINUOUS
 62
     6
 10
176.124441
 20
229.243012
 40
1.000000
 50
270.000001
 51
359.999982
  0
LINE
  8
CSLAYER1
  6
CONTINUOUS
 62
     6
 10
177.109396
 20
229.243012
 11
177.109396
 21
230.243012
  0
ARC
  8
CSLAYER1
  6
CONTINUOUS
 62
     6
 10
176.109396
 20
230.243012
 40
1.000000
 50
0.000000
 51
89.999981
  0
LINE
  8
CSLAYER1
  6
CONTINUOUS
 62
     6
 10
176.109396
 20
231.243012
 11
167.261548
 21
231.706689
  0
ARC
  8
CSLAYER1
  6
CONTINUOUS
 62
     6
 10
132.109396
 20
205.243012
 40
45.000000
 50
35.914392
 51
144.085607
  0
LINE
  8
CSLAYER1
  6
CONTINUOUS
 62
     6
 10
96.957244
 20
231.706690
 11
88.109396
 21
231.243012
  0
ARC
  8
CSLAYER1
  6
CONTINUOUS
 62
     6
 10
88.109396
 20
230.243012
 40
1.000000
 50
90.000039
 51
180.000020
  0
LINE
  8
CSLAYER1
  6
CONTINUOUS
 62
     6
 10
87.109396
 20
230.243012
 11
87.109396
 21
229.243012
  0
ARC
  8
CSLAYER1
  6
CONTINUOUS
 62
     6
 10
88.094351
 20
229.243012
 40
1.000000
 50
180.000020
 51
270.000001
  0
LINE
  8
CSLAYER1
  6
CONTINUOUS
 62
     6
 10
88.094351
 20
228.243012
 11
91.668671
 21
228.055653
  0
ARC
  8
CSLAYER1
  6
CONTINUOUS
 62
     6
 10
91.579679
 20
226.357909
 40
1.700075
 50
-87.000310
 51
86.999412
  0
LINE
  8
CSLAYER1
  6
CONTINUOUS
 62
     6
 10
91.668644
 20
224.660163
 11
84.088980
 21
224.262971
  0
ARC
  8
CSLAYER1
  6
CONTINUOUS
 62
     6
 10
84.109396
 20
223.263215
 40
1.000000
 50
91.169216
 51
180.000020
  0
LINE
  8
CSLAYER1
  6
CONTINUOUS
 62
     6
 10
83.109396
 20
223.263215
 11
83.109396
 21
187.222809
  0
ARC
  8
CSLAYER1
  6
CONTINUOUS
 62
     6
 10
84.109396
 20
187.222809
 40
1.000000
 50
180.000020
 51
268.830766
  0
LINE
  8
CSLAYER1
  6
CONTINUOUS
 62
     6
 10
84.088980
 20
186.223053
 11
91.668644
 21
185.825861
  0
ARC
  8
CSLAYER1
  6
CONTINUOUS
 62
     6
 10
91.579679
 20
184.128115
 40
1.700075
 50
-86.999412
 51
87.000310
  0
LINE
  8
CSLAYER1
  6
CONTINUOUS
 62
     6
 10
91.668671
 20
182.430371
 11
88.094351
 21
182.243012
  0
ARC
  8
CSLAYER1
  6
CONTINUOUS
 62
     6
 10
88.094351
 20
181.243012
 40
1.000000
 50
90.000039
 51
180.000020
  0
LINE
  8
CSLAYER1
  6
CONTINUOUS
 62
     6
 10
87.109396
 20
181.243012
 11
87.109396
 21
180.243012
  0
ARC
  8
CSLAYER1
  6
CONTINUOUS
 62
     6
 10
88.109396
 20
180.243012
 40
1.000000
 50
180.000020
 51
270.000001
  0
ARC
  8
CSLAYER1
  6
CONTINUOUS
 62
     6
 10
132.109396
 20
205.243012
 40
45.000000
 50
205.543092
 51
209.475790
  0
ARC
  8
CSLAYER1
  6
CONTINUOUS
 62
     6
 10
132.109396
 20
205.243012
 40
37.000000
 50
210.132722
 51
228.917667
  0
ARC
  8
CSLAYER1
  6
CONTINUOUS
 62
     6
 10
109.109396
 20
178.861200
 40
2.000000
 50
228.917667
 51
360.000000
  0
LINE
  8
CSLAYER1
  6
CONTINUOUS
 62
     6
 10
111.109396
 20
178.861200
 11
111.109396
 21
192.243012
  0
ARC
  8
CSLAYER1
  6
CONTINUOUS
 62
     6
 10
108.109396
 20
192.243012
 40
3.000000
 50
0.000000
 51
90.000000
  0
LINE
  8
CSLAYER1
  6
CONTINUOUS
 62
     6
 10
108.109396
 20
195.243012
 11
102.109396
 21
195.243012
  0
ARC
  8
CSLAYER1
  6
CONTINUOUS
 62
     6
 10
102.109396
 20
193.243012
 40
2.000000
 50
90.000000
 51
180.000000
  0
LINE
  8
CSLAYER1
  6
CONTINUOUS
 62
     6
 10
100.109396
 20
193.243012
 11
100.109396
 21
186.668836
  0
LINE
  8
CSLAYER1
  6
CONTINUOUS
 62
     6
 10
118.109396
 20
185.621595
 11
118.109396
 21
175.243012
  0
ARC
  8
CSLAYER1
  6
CONTINUOUS
 62
     6
 10
120.109396
 20
175.243012
 40
2.000000
 50
180.000000
 51
270.000000
  0
LINE
  8
CSLAYER1
  6
CONTINUOUS
 62
     6
 10
120.109396
 20
173.243012
 11
125.109396
 21
173.243012
  0
ARC
  8
CSLAYER1
  6
CONTINUOUS
 62
     6
 10
125.109396
 20
175.243012
 40
2.000000
 50
270.000000
 51
360.000000
  0
LINE
  8
CSLAYER1
  6
CONTINUOUS
 62
     6
 10
127.109396
 20
175.243012
 11
127.109396
 21
183.334109
  0
ARC
  8
CSLAYER1
  6
CONTINUOUS
 62
     6
 10
125.109396
 20
183.334109
 40
2.000000
 50
0.000000
 51
72.281068
  0
ARC
  8
CSLAYER1
  6
CONTINUOUS
 62
     6
 10
132.109396
 20
205.243012
 40
21.000000
 50
238.551019
 51
252.281068
  0
ARC
  8
CSLAYER1
  6
CONTINUOUS
 62
     6
 10
120.109396
 20
185.621595
 40
2.000000
 50
58.551019
 51
180.000000
  0
LINE
  8
CSLAYER1
  6
CONTINUOUS
 62
     6
 10
127.715368
 20
190.901047
 11
128.297713
 21
192.801817
  0
ARC
  8
CSLAYER1
  6
CONTINUOUS
 62
     6
 10
125.617267
 20
193.966276
 40
2.922462
 50
-23.481547
 51
129.764151
  0
ARC
  8
CSLAYER1
  6
CONTINUOUS
 62
     6
 10
122.875765
 20
197.260939
 40
1.363635
 50
217.903413
 51
309.763730
  0
ARC
  8
CSLAYER1
  6
CONTINUOUS
 62
     6
 10
132.109396
 20
204.449890
 40
13.065822
 50
-37.903067
 51
217.903051
  0
ARC
  8
CSLAYER1
  6
CONTINUOUS
 62
     6
 10
141.343015
 20
197.260939
 40
1.363635
 50
230.236329
 51
322.096590
  0
ARC
  8
CSLAYER1
  6
CONTINUOUS
 62
     6
 10
138.601516
 20
193.966276
 40
2.922462
 50
50.235851
 51
203.481549
  0
LINE
  8
CSLAYER1
  6
CONTINUOUS
 62
     6
 10
135.921067
 20
192.801817
 11
136.503412
 21
190.901047
  0
CIRCLE
  8
CSLAYER1
  6
CONTINUOUS
 62
     6
 10
138.601516
 20
193.966276
 40
1.363635
  0
ARC
  8
CSLAYER1
  6
CONTINUOUS
 62
     6
 10
132.109396
 20
205.243012
 40
21.000000
 50
287.718932
 51
301.448981
  0
ARC
  8
CSLAYER1
  6
CONTINUOUS
 62
     6
 10
139.109396
 20
183.334109
 40
2.000000
 50
107.718932
 51
180.000000
  0
LINE
  8
CSLAYER1
  6
CONTINUOUS
 62
     6
 10
137.109396
 20
183.334109
 11
137.109396
 21
175.243012
  0
ARC
  8
CSLAYER1
  6
CONTINUOUS
 62
     6
 10
139.109396
 20
175.243012
 40
2.000000
 50
180.000000
 51
270.000000
  0
LINE
  8
CSLAYER1
  6
CONTINUOUS
 62
     6
 10
139.109396
 20
173.243012
 11
144.109396
 21
173.243012
  0
ARC
  8
CSLAYER1
  6
CONTINUOUS
 62
     6
 10
144.109396
 20
175.243012
 40
2.000000
 50
270.000000
 51
360.000000
  0
LINE
  8
CSLAYER1
  6
CONTINUOUS
 62
     6
 10
146.109396
 20
175.243012
 11
146.109396
 21
185.621595
  0
ARC
  8
CSLAYER1
  6
CONTINUOUS
 62
     6
 10
144.109396
 20
185.621595
 40
2.000000
 50
0.000000
 51
121.448981
  0
LINE
  8
CSLAYER1
  6
CONTINUOUS
 62
     6
 10
153.109396
 20
192.243012
 11
153.109396
 21
178.861200
  0
ARC
  8
CSLAYER1
  6
CONTINUOUS
 62
     6
 10
155.109396
 20
178.861200
 40
2.000000
 50
180.000000
 51
311.082333
  0
ARC
  8
CSLAYER1
  6
CONTINUOUS
 62
     6
 10
132.109396
 20
205.243012
 40
37.000000
 50
311.082333
 51
329.867278
  0
LINE
  8
CSLAYER1
  6
CONTINUOUS
 62
     6
 10
164.109396
 20
186.668836
 11
164.109396
 21
193.243012
  0
ARC
  8
CSLAYER1
  6
CONTINUOUS
 62
     6
 10
162.109396
 20
193.243012
 40
2.000000
 50
0.000000
 51
90.000000
  0
LINE
  8
CSLAYER1
  6
CONTINUOUS
 62
     6
 10
162.109396
 20
195.243012
 11
156.109396
 21
195.243012
  0
ARC
  8
CSLAYER1
  6
CONTINUOUS
 62
     6
 10
156.109396
 20
192.243012
 40
3.000000
 50
90.000000
 51
180.000000
  0
ARC
  8
CSLAYER1
  6
CONTINUOUS
 62
     6
 10
132.109396
 20
205.243012
 40
45.000000
 50
330.524210
 51
334.456908
  0
LINE
  8
CSLAYER1
  6
CONTINUOUS
 62
     6
 10
178.071138
 20
166.786426
 11
171.571138
 21
163.033649
  0
LINE
  8
CSLAYER1
  6
CONTINUOUS
 62
     6
 10
171.571138
 20
163.033649
 11
171.571138
 21
155.528096
  0
LINE
  8
CSLAYER1
  6
CONTINUOUS
 62
     6
 10
171.571138
 20
155.528096
 11
178.071138
 21
151.775319
  0
LINE
  8
CSLAYER1
  6
CONTINUOUS
 62
     6
 10
178.071138
 20
151.775319
 11
184.571138
 21
155.528096
  0
LINE
  8
CSLAYER1
  6
CONTINUOUS
 62
     6
 10
184.571138
 20
155.528096
 11
184.571138
 21
163.033649
  0
LINE
  8
CSLAYER1
  6
CONTINUOUS
 62
     6
 10
184.571138
 20
163.033649
 11
178.071138
 21
166.786426
  0
CIRCLE
  8
CSLAYER1
  6
CONTINUOUS
 62
     6
 10
178.071138
 20
159.280872
 40
7.700000
  0
CIRCLE
  8
CSLAYER1
  6
CONTINUOUS
 62
     6
 10
178.071138
 20
159.280872
 40
6.305000
  0
LINE
  8
CSLAYER1
  6
CONTINUOUS
 62
     6
 10
136.345886
 20
141.640791
 11
134.127609
 21
140.487836
  0
ARC
  8
CSLAYER1
  6
CONTINUOUS
 62
     6
 10
150.017295
 20
148.746775
 40
17.907879
 50
180.000020
 51
207.463892
  0
LINE
  8
CSLAYER1
  6
CONTINUOUS
 62
     6
 10
132.109367
 20
148.728805
 11
132.109397
 21
150.193582
  0
ARC
  8
CSLAYER1
  6
CONTINUOUS
 62
     6
 10
132.734395
 20
151.276124
 40
1.250008
 50
240.000345
 51
300.000345
  0
ARC
  8
CSLAYER1
  6
CONTINUOUS
 62
     6
 10
132.734408
 20
149.111047
 40
1.250008
 50
60.000345
 51
120.000345
  0
ARC
  8
CSLAYER1
  6
CONTINUOUS
 62
     6
 10
131.484380
 20
149.111054
 40
1.250008
 50
60.000345
 51
120.000345
  0
ARC
  8
CSLAYER1
  6
CONTINUOUS
 62
     6
 10
130.234372
 20
149.111047
 40
1.250008
 50
60.000345
 51
120.000345
  0
ARC
  8
CSLAYER1
  6
CONTINUOUS
 62
     6
 10
130.234359
 20
151.276124
 40
1.250008
 50
240.000345
 51
300.000345
  0
LINE
  8
CSLAYER1
  6
CONTINUOUS
 62
     6
 10
129.609370
 20
150.193589
 11
129.609370
 21
148.746775
  0
ARC
  8
CSLAYER1
  6
CONTINUOUS
 62
     6
 10
114.201497
 20
148.746718
 40
15.407880
 50
332.536225
 51
359.942687
  0
LINE
  8
CSLAYER1
  6
CONTINUOUS
 62
     6
 10
127.872926
 20
141.640829
 11
130.091203
 21
140.487836
  0
ARC
  8
CSLAYER1
  6
CONTINUOUS
 62
     6
 10
114.201497
 20
148.746718
 40
17.907879
 50
332.536225
 51
359.942687
  0
ARC
  8
CSLAYER1
  6
CONTINUOUS
 62
     6
 10
133.984416
 20
149.111054
 40
1.250008
 50
60.000345
 51
120.000345
  0
LINE
  8
CSLAYER1
  6
CONTINUOUS
 62
     6
 10
134.609423
 20
150.193589
 11
134.609423
 21
148.746775
  0
ARC
  8
CSLAYER1
  6
CONTINUOUS
 62
     6
 10
150.017295
 20
148.746718
 40
15.407880
 50
179.999963
 51
207.463892
  0
LINE
  8
CSLAYER1
  6
CONTINUOUS
 62
     6
 10
135.809122
 20
141.361806
 11
137.623318
 21
138.369598
  0
LINE
  8
CSLAYER1
  6
CONTINUOUS
 62
     6
 10
136.886550
 20
137.857607
 11
135.236748
 21
141.064313
  0
LINE
  8
CSLAYER1
  6
CONTINUOUS
 62
     6
 10
134.661920
 20
140.771588
 11
136.041623
 21
137.555840
  0
LINE
  8
CSLAYER1
  6
CONTINUOUS
 62
     6
 10
129.574650
 20
140.756325
 11
128.007862
 21
137.345615
  0
LINE
  8
CSLAYER1
  6
CONTINUOUS
 62
     6
 10
127.221143
 20
137.632830
 11
128.982064
 21
141.064333
  0
LINE
  8
CSLAYER1
  6
CONTINUOUS
 62
     6
 10
128.386298
 20
141.366143
 11
126.529068
 21
138.104478
  0
ARC
  8
CSLAYER1
  6
CONTINUOUS
 62
     6
 10
133.984451
 20
150.973532
 40
1.250017
 50
59.999981
 51
119.999981
  0
ARC
  8
CSLAYER1
  6
CONTINUOUS
 62
     6
 10
133.984452
 20
153.138625
 40
1.250017
 50
239.999981
 51
299.999981
  0
LINE
  8
CSLAYER1
  6
CONTINUOUS
 62
     6
 10
134.609423
 20
152.056078
 11
134.609413
 21
160.298651
  0
LINE
  8
CSLAYER1
  6
CONTINUOUS
 62
     6
 10
132.109396
 20
160.243012
 11
132.109423
 21
152.056078
  0
ARC
  8
CSLAYER1
  6
CONTINUOUS
 62
     6
 10
131.484415
 20
153.138625
 40
1.250017
 50
239.999981
 51
299.999981
  0
ARC
  8
CSLAYER1
  6
CONTINUOUS
 62
     6
 10
131.484415
 20
150.973532
 40
1.250017
 50
59.999981
 51
119.999981
  0
ARC
  8
CSLAYER1
  6
CONTINUOUS
 62
     6
 10
132.734435
 20
153.138625
 40
1.250017
 50
239.999981
 51
299.999981
  0
ARC
  8
CSLAYER1
  6
CONTINUOUS
 62
     6
 10
130.234398
 20
153.138625
 40
1.250017
 50
239.999981
 51
299.999981
  0
LINE
  8
CSLAYER1
  6
CONTINUOUS
 62
     6
 10
129.609388
 20
152.056078
 11
129.609378
 21
160.298651
  0
CIRCLE
  8
CSLAYER1
  6
CONTINUOUS
 62
     6
 10
125.617267
 20
193.966276
 40
1.363635
  0
CIRCLE
  8
CSLAYER1
  6
CONTINUOUS
 62
     6
 10
132.109396
 20
205.243012
 40
44.000000
  0
CIRCLE
  8
CSLAYER1
  6
CONTINUOUS
 62
     6
 10
132.109396
 20
205.243012
 40
15.000000
  0
ARC
  8
CSLAYER1
  6
CONTINUOUS
 62
     6
 10
132.109396
 20
205.243012
 40
21.000000
 50
107.718932
 51
121.448981
  0
ARC
  8
CSLAYER1
  6
CONTINUOUS
 62
     6
 10
120.109396
 20
224.864429
 40
2.000000
 50
180.000000
 51
301.448981
  0
LINE
  8
CSLAYER1
  6
CONTINUOUS
 62
     6
 10
118.109396
 20
224.864429
 11
118.109396
 21
235.243012
  0
ARC
  8
CSLAYER1
  6
CONTINUOUS
 62
     6
 10
120.109396
 20
235.243012
 40
2.000000
 50
90.000000
 51
180.000000
  0
LINE
  8
CSLAYER1
  6
CONTINUOUS
 62
     6
 10
120.109396
 20
237.243012
 11
125.109396
 21
237.243012
  0
ARC
  8
CSLAYER1
  6
CONTINUOUS
 62
     6
 10
125.109396
 20
235.243012
 40
2.000000
 50
0.000000
 51
90.000000
  0
LINE
  8
CSLAYER1
  6
CONTINUOUS
 62
     6
 10
127.109396
 20
235.243012
 11
127.109396
 21
227.151914
  0
ARC
  8
CSLAYER1
  6
CONTINUOUS
 62
     6
 10
125.109396
 20
227.151914
 40
2.000000
 50
287.718932
 51
360.000000
  0
LINE
  8
CSLAYER1
  6
CONTINUOUS
 62
     6
 10
137.109396
 20
227.151914
 11
137.109396
 21
235.243012
  0
ARC
  8
CSLAYER1
  6
CONTINUOUS
 62
     6
 10
139.109396
 20
235.243012
 40
2.000000
 50
90.000000
 51
180.000000
  0
LINE
  8
CSLAYER1
  6
CONTINUOUS
 62
     6
 10
139.109396
 20
237.243012
 11
144.109396
 21
237.243012
  0
ARC
  8
CSLAYER1
  6
CONTINUOUS
 62
     6
 10
144.109396
 20
235.243012
 40
2.000000
 50
0.000000
 51
90.000000
  0
LINE
  8
CSLAYER1
  6
CONTINUOUS
 62
     6
 10
146.109396
 20
235.243012
 11
146.109396
 21
224.864429
  0
ARC
  8
CSLAYER1
  6
CONTINUOUS
 62
     6
 10
144.109396
 20
224.864429
 40
2.000000
 50
238.551019
 51
360.000000
  0
ARC
  8
CSLAYER1
  6
CONTINUOUS
 62
     6
 10
132.109396
 20
205.243012
 40
21.000000
 50
58.551019
 51
72.281068
  0
ARC
  8
CSLAYER1
  6
CONTINUOUS
 62
     6
 10
139.109396
 20
227.151914
 40
2.000000
 50
180.000000
 51
252.281068
  0
LINE
  8
CSLAYER1
  6
CONTINUOUS
 62
     6
 10
153.109396
 20
231.624824
 11
153.109396
 21
218.243012
  0
ARC
  8
CSLAYER1
  6
CONTINUOUS
 62
     6
 10
156.109396
 20
218.243012
 40
3.000000
 50
180.000000
 51
270.000000
  0
LINE
  8
CSLAYER1
  6
CONTINUOUS
 62
     6
 10
156.109396
 20
215.243012
 11
162.109396
 21
215.243012
  0
ARC
  8
CSLAYER1
  6
CONTINUOUS
 62
     6
 10
162.109396
 20
217.243012
 40
2.000000
 50
270.000000
 51
360.000000
  0
LINE
  8
CSLAYER1
  6
CONTINUOUS
 62
     6
 10
164.109396
 20
217.243012
 11
164.109396
 21
223.817187
  0
ARC
  8
CSLAYER1
  6
CONTINUOUS
 62
     6
 10
132.109396
 20
205.243012
 40
37.000000
 50
30.132722
 51
48.917667
  0
ARC
  8
CSLAYER1
  6
CONTINUOUS
 62
     6
 10
155.109396
 20
231.624824
 40
2.000000
 50
48.917667
 51
180.000000
  0
ARC
  8
CSLAYER1
  6
CONTINUOUS
 62
     6
 10
132.109396
 20
205.243012
 40
45.000000
 50
25.550580
 51
29.475790
  0
LINE
  8
CSLAYER1
  6
CONTINUOUS
 62
     6
 10
178.071138
 20
243.699598
 11
171.571138
 21
247.452374
  0
LINE
  8
CSLAYER1
  6
CONTINUOUS
 62
     6
 10
171.571138
 20
247.452374
 11
171.571138
 21
254.957928
  0
LINE
  8
CSLAYER1
  6
CONTINUOUS
 62
     6
 10
171.571138
 20
254.957928
 11
178.071138
 21
258.710705
  0
LINE
  8
CSLAYER1
  6
CONTINUOUS
 62
     6
 10
178.071138
 20
258.710705
 11
184.571138
 21
254.957928
  0
LINE
  8
CSLAYER1
  6
CONTINUOUS
 62
     6
 10
184.571138
 20
254.957928
 11
184.571138
 21
247.452374
  0
LINE
  8
CSLAYER1
  6
CONTINUOUS
 62
     6
 10
184.571138
 20
247.452374
 11
178.071138
 21
243.699598
  0
CIRCLE
  8
CSLAYER1
  6
CONTINUOUS
 62
     6
 10
178.071138
 20
251.205151
 40
7.700000
  0
CIRCLE
  8
CSLAYER1
  6
CONTINUOUS
 62
     6
 10
178.071138
 20
251.205151
 40
6.305000
  0
LINE
  8
CSLAYER1
  6
CONTINUOUS
 62
     6
 10
111.109396
 20
231.624824
 11
111.109396
 21
218.243012
  0
ARC
  8
CSLAYER1
  6
CONTINUOUS
 62
     6
 10
108.109396
 20
218.243012
 40
3.000000
 50
270.000000
 51
360.000000
  0
LINE
  8
CSLAYER1
  6
CONTINUOUS
 62
     6
 10
108.109396
 20
215.243012
 11
102.109396
 21
215.243012
  0
ARC
  8
CSLAYER1
  6
CONTINUOUS
 62
     6
 10
102.109396
 20
217.243012
 40
2.000000
 50
180.000000
 51
270.000000
  0
LINE
  8
CSLAYER1
  6
CONTINUOUS
 62
     6
 10
100.109396
 20
217.243012
 11
100.109396
 21
223.817187
  0
ARC
  8
CSLAYER1
  6
CONTINUOUS
 62
     6
 10
132.109396
 20
205.243012
 40
37.000000
 50
131.082333
 51
149.867278
  0
ARC
  8
CSLAYER1
  6
CONTINUOUS
 62
     6
 10
109.109396
 20
231.624824
 40
2.000000
 50
0.000000
 51
131.082333
  0
ARC
  8
CSLAYER1
  6
CONTINUOUS
 62
     6
 10
132.109396
 20
205.243012
 40
45.000000
 50
150.524210
 51
154.449420
  0
LINE
  8
CSLAYER1
  6
CONTINUOUS
 62
     6
 10
86.147654
 20
243.699598
 11
92.647654
 21
247.452374
  0
LINE
  8
CSLAYER1
  6
CONTINUOUS
 62
     6
 10
92.647654
 20
247.452374
 11
92.647654
 21
254.957928
  0
LINE
  8
CSLAYER1
  6
CONTINUOUS
 62
     6
 10
92.647654
 20
254.957928
 11
86.147654
 21
258.710705
  0
LINE
  8
CSLAYER1
  6
CONTINUOUS
 62
     6
 10
86.147654
 20
258.710705
 11
79.647654
 21
254.957928
  0
LINE
  8
CSLAYER1
  6
CONTINUOUS
 62
     6
 10
79.647654
 20
254.957928
 11
79.647654
 21
247.452374
  0
LINE
  8
CSLAYER1
  6
CONTINUOUS
 62
     6
 10
79.647654
 20
247.452374
 11
86.147654
 21
243.699598
  0
CIRCLE
  8
CSLAYER1
  6
CONTINUOUS
 62
     6
 10
86.147654
 20
251.205151
 40
7.700000
  0
CIRCLE
  8
CSLAYER1
  6
CONTINUOUS
 62
     6
 10
86.147654
 20
251.205151
 40
6.305000
  0
LINE
  8
CSLAYER1
  6
CONTINUOUS
 62
     6
 10
246.773923
 20
248.131470
 11
247.773923
 21
249.131470
  0
LINE
  8
CSLAYER1
  6
CONTINUOUS
 62
     6
 10
247.773923
 20
249.131470
 11
299.773923
 21
249.131470
  0
LINE
  8
CSLAYER1
  6
CONTINUOUS
 62
     6
 10
299.773923
 20
250.243012
 11
427.473958
 21
250.243012
  0
LINE
  8
CSLAYER1
  6
CONTINUOUS
 62
     6
 10
427.473993
 20
160.243012
 11
299.773923
 21
160.243012
  0
LINE
  8
CSLAYER1
  6
CONTINUOUS
 62
     6
 10
299.773923
 20
160.243012
 11
299.773923
 21
250.243012
  0
LINE
  8
CSLAYER1
  6
CONTINUOUS
 62
     6
 10
296.773923
 20
231.243012
 11
260.773923
 21
231.243012
  0
ARC
  8
CSLAYER1
  6
CONTINUOUS
 62
     6
 10
260.773923
 20
230.243012
 40
1.000000
 50
90.000016
 51
180.000005
  0
LINE
  8
CSLAYER1
  6
CONTINUOUS
 62
     6
 10
259.773923
 20
230.243012
 11
259.773923
 21
229.243012
  0
ARC
  8
CSLAYER1
  6
CONTINUOUS
 62
     6
 10
260.773923
 20
229.243012
 40
1.000000
 50
180.000019
 51
270.000001
  0
LINE
  8
CSLAYER1
  6
CONTINUOUS
 62
     6
 10
260.773923
 20
228.243012
 11
296.773923
 21
228.243012
  0
ARC
  8
CSLAYER1
  6
CONTINUOUS
 62
     6
 10
296.773923
 20
229.243012
 40
1.000000
 50
270.000001
 51
359.942691
  0
LINE
  8
CSLAYER1
  6
CONTINUOUS
 62
     6
 10
297.773923
 20
229.243012
 11
297.773923
 21
230.243012
  0
ARC
  8
CSLAYER1
  6
CONTINUOUS
 62
     6
 10
296.773923
 20
230.243012
 40
1.000000
 50
0.000000
 51
90.000003
  0
ARC
  8
CSLAYER1
  6
CONTINUOUS
 62
     6
 10
296.773923
 20
223.243012
 40
1.000000
 50
0.000000
 51
90.000003
  0
LINE
  8
CSLAYER1
  6
CONTINUOUS
 62
     6
 10
297.773923
 20
223.243012
 11
297.773923
 21
222.243012
  0
ARC
  8
CSLAYER1
  6
CONTINUOUS
 62
     6
 10
296.773923
 20
222.243012
 40
1.000000
 50
270.000001
 51
359.942691
  0
LINE
  8
CSLAYER1
  6
CONTINUOUS
 62
     6
 10
296.773923
 20
221.243012
 11
292.002683
 21
221.243012
  0
ARC
  8
CSLAYER1
  6
CONTINUOUS
 62
     6
 10
292.002683
 20
220.243012
 40
1.000000
 50
90.000003
 51
228.590367
  0
ARC
  8
CSLAYER1
  6
CONTINUOUS
 62
     6
 10
278.773923
 20
205.243012
 40
19.000000
 50
-48.590366
 51
48.590386
  0
ARC
  8
CSLAYER1
  6
CONTINUOUS
 62
     6
 10
292.002683
 20
190.243012
 40
1.000000
 50
131.409643
 51
270.000001
  0
LINE
  8
CSLAYER1
  6
CONTINUOUS
 62
     6
 10
292.002683
 20
189.243012
 11
296.773923
 21
189.243012
  0
ARC
  8
CSLAYER1
  6
CONTINUOUS
 62
     6
 10
296.773923
 20
188.243012
 40
1.000000
 50
0.057309
 51
89.999999
  0
LINE
  8
CSLAYER1
  6
CONTINUOUS
 62
     6
 10
297.773923
 20
188.243012
 11
297.773923
 21
187.243012
  0
ARC
  8
CSLAYER1
  6
CONTINUOUS
 62
     6
 10
296.773923
 20
187.243012
 40
1.000000
 50
269.999997
 51
360.000000
  0
LINE
  8
CSLAYER1
  6
CONTINUOUS
 62
     6
 10
296.773923
 20
186.243012
 11
260.773923
 21
186.243012
  0
ARC
  8
CSLAYER1
  6
CONTINUOUS
 62
     6
 10
260.773923
 20
187.243012
 40
1.000000
 50
179.999995
 51
269.999984
  0
LINE
  8
CSLAYER1
  6
CONTINUOUS
 62
     6
 10
259.773923
 20
187.243012
 11
259.773923
 21
188.243012
  0
ARC
  8
CSLAYER1
  6
CONTINUOUS
 62
     6
 10
260.773923
 20
188.243012
 40
1.000000
 50
89.999999
 51
179.999981
  0
LINE
  8
CSLAYER1
  6
CONTINUOUS
 62
     6
 10
260.773923
 20
189.243012
 11
265.545163
 21
189.243012
  0
ARC
  8
CSLAYER1
  6
CONTINUOUS
 62
     6
 10
265.545163
 20
190.243012
 40
1.000000
 50
-89.999999
 51
48.590386
  0
ARC
  8
CSLAYER1
  6
CONTINUOUS
 62
     6
 10
278.773923
 20
205.243012
 40
19.000000
 50
131.409657
 51
228.590367
  0
ARC
  8
CSLAYER1
  6
CONTINUOUS
 62
     6
 10
265.545163
 20
220.243012
 40
1.000000
 50
-48.590366
 51
90.000019
  0
LINE
  8
CSLAYER1
  6
CONTINUOUS
 62
     6
 10
265.545163
 20
221.243012
 11
260.773923
 21
221.243012
  0
ARC
  8
CSLAYER1
  6
CONTINUOUS
 62
     6
 10
260.773923
 20
222.243012
 40
1.000000
 50
180.000019
 51
270.000001
  0
LINE
  8
CSLAYER1
  6
CONTINUOUS
 62
     6
 10
259.773923
 20
222.243012
 11
259.773923
 21
223.243012
  0
ARC
  8
CSLAYER1
  6
CONTINUOUS
 62
     6
 10
260.773923
 20
223.243012
 40
1.000000
 50
90.000016
 51
180.000005
  0
LINE
  8
CSLAYER1
  6
CONTINUOUS
 62
     6
 10
260.773923
 20
224.243012
 11
296.773923
 21
224.243012
  0
LINE
  8
CSLAYER1
  6
CONTINUOUS
 62
     6
 10
284.773923
 20
206.143006
 11
272.773923
 21
206.143006
  0
LINE
  8
CSLAYER1
  6
CONTINUOUS
 62
     6
 10
272.773923
 20
206.143006
 11
272.773923
 21
204.343018
  0
LINE
  8
CSLAYER1
  6
CONTINUOUS
 62
     6
 10
272.773923
 20
204.343018
 11
284.773923
 21
204.343018
  0
LINE
  8
CSLAYER1
  6
CONTINUOUS
 62
     6
 10
284.773923
 20
204.343018
 11
284.773923
 21
206.143006
  0
CIRCLE
  8
CSLAYER1
  6
CONTINUOUS
 62
     6
 10
278.773923
 20
205.243012
 40
12.000000
  0
CIRCLE
  8
CSLAYER1
  6
CONTINUOUS
 62
     6
 10
278.773923
 20
205.243012
 40
15.000000
  0
CIRCLE
  8
CSLAYER1
  6
CONTINUOUS
 62
     6
 10
278.773923
 20
205.243012
 40
16.000000
  0
ARC
  8
CSLAYER1
  6
CONTINUOUS
 62
     6
 10
260.773923
 20
181.243012
 40
1.000000
 50
89.999999
 51
179.999981
  0
LINE
  8
CSLAYER1
  6
CONTINUOUS
 62
     6
 10
259.773923
 20
181.243012
 11
259.773923
 21
180.243012
  0
ARC
  8
CSLAYER1
  6
CONTINUOUS
 62
     6
 10
260.773923
 20
180.243012
 40
1.000000
 50
179.999995
 51
269.999984
  0
LINE
  8
CSLAYER1
  6
CONTINUOUS
 62
     6
 10
260.773923
 20
179.243012
 11
296.773923
 21
179.243012
  0
ARC
  8
CSLAYER1
  6
CONTINUOUS
 62
     6
 10
296.773923
 20
180.243012
 40
1.000000
 50
269.999997
 51
360.000000
  0
LINE
  8
CSLAYER1
  6
CONTINUOUS
 62
     6
 10
297.773923
 20
180.243012
 11
297.773923
 21
181.243012
  0
ARC
  8
CSLAYER1
  6
CONTINUOUS
 62
     6
 10
296.773923
 20
181.243012
 40
1.000000
 50
0.057309
 51
89.999999
  0
LINE
  8
CSLAYER1
  6
CONTINUOUS
 62
     6
 10
296.773923
 20
182.243012
 11
260.773923
 21
182.243012
  0
LINE
  8
CSLAYER1
  6
CONTINUOUS
 62
     6
 10
260.773923
 20
165.243012
 11
260.773923
 21
161.243012
  0
LINE
  8
CSLAYER1
  6
CONTINUOUS
 62
     6
 10
260.773923
 20
161.243012
 11
247.773923
 21
161.243012
  0
LINE
  8
CSLAYER1
  6
CONTINUOUS
 62
     6
 10
247.773923
 20
161.243012
 11
247.773923
 21
249.131470
  0
LINE
  8
CSLAYER1
  6
CONTINUOUS
 62
     6
 10
246.773923
 20
248.131470
 11
246.773923
 21
162.243012
  0
LINE
  8
CSLAYER1
  6
CONTINUOUS
 62
     6
 10
246.773923
 20
162.243012
 11
247.773923
 21
161.243012
  0
LINE
  8
CSLAYER1
  6
CONTINUOUS
 62
     6
 10
256.657762
 20
152.239195
 11
256.486867
 21
152.072183
  0
LINE
  8
CSLAYER1
  6
CONTINUOUS
 62
     6
 10
256.486867
 20
152.072183
 11
256.313864
 21
151.904068
  0
LINE
  8
CSLAYER1
  6
CONTINUOUS
 62
     6
 10
256.313864
 20
151.904068
 11
256.140528
 21
151.737173
  0
LINE
  8
CSLAYER1
  6
CONTINUOUS
 62
     6
 10
256.140528
 20
151.737173
 11
255.968637
 21
151.573824
  0
LINE
  8
CSLAYER1
  6
CONTINUOUS
 62
     6
 10
255.968637
 20
151.573824
 11
255.799964
 21
151.416344
  0
LINE
  8
CSLAYER1
  6
CONTINUOUS
 62
     6
 10
255.799964
 20
151.416344
 11
255.636287
 21
151.267060
  0
LINE
  8
CSLAYER1
  6
CONTINUOUS
 62
     6
 10
255.636287
 20
151.267060
 11
255.479381
 21
151.128296
  0
LINE
  8
CSLAYER1
  6
CONTINUOUS
 62
     6
 10
255.479381
 20
151.128296
 11
255.338150
 21
151.005498
  0
LINE
  8
CSLAYER1
  6
CONTINUOUS
 62
     6
 10
255.338150
 20
151.005498
 11
255.191967
 21
150.877612
  0
LINE
  8
CSLAYER1
  6
CONTINUOUS
 62
     6
 10
255.191967
 20
150.877612
 11
255.041973
 21
150.745106
  0
LINE
  8
CSLAYER1
  6
CONTINUOUS
 62
     6
 10
255.041973
 20
150.745106
 11
254.889312
 21
150.608446
  0
LINE
  8
CSLAYER1
  6
CONTINUOUS
 62
     6
 10
254.889312
 20
150.608446
 11
254.735125
 21
150.468101
  0
LINE
  8
CSLAYER1
  6
CONTINUOUS
 62
     6
 10
254.735125
 20
150.468101
 11
254.580555
 21
150.324539
  0
LINE
  8
CSLAYER1
  6
CONTINUOUS
 62
     6
 10
254.580555
 20
150.324539
 11
254.426743
 21
150.178226
  0
LINE
  8
CSLAYER1
  6
CONTINUOUS
 62
     6
 10
254.426743
 20
150.178226
 11
254.274833
 21
150.029632
  0
LINE
  8
CSLAYER1
  6
CONTINUOUS
 62
     6
 10
254.274833
 20
150.029632
 11
254.125966
 21
149.879222
  0
LINE
  8
CSLAYER1
  6
CONTINUOUS
 62
     6
 10
254.125966
 20
149.879222
 11
253.981284
 21
149.727466
  0
LINE
  8
CSLAYER1
  6
CONTINUOUS
 62
     6
 10
253.981284
 20
149.727466
 11
253.841930
 21
149.574830
  0
LINE
  8
CSLAYER1
  6
CONTINUOUS
 62
     6
 10
253.841930
 20
149.574830
 11
253.786406
 21
149.511886
  0
LINE
  8
CSLAYER1
  6
CONTINUOUS
 62
     6
 10
253.786406
 20
149.511886
 11
253.731478
 21
149.448385
  0
LINE
  8
CSLAYER1
  6
CONTINUOUS
 62
     6
 10
253.731478
 20
149.448385
 11
253.677087
 21
149.384384
  0
LINE
  8
CSLAYER1
  6
CONTINUOUS
 62
     6
 10
253.677087
 20
149.384384
 11
253.623174
 21
149.319938
  0
LINE
  8
CSLAYER1
  6
CONTINUOUS
 62
     6
 10
253.623174
 20
149.319938
 11
253.569678
 21
149.255102
  0
LINE
  8
CSLAYER1
  6
CONTINUOUS
 62
     6
 10
253.569678
 20
149.255102
 11
253.516540
 21
149.189932
  0
LINE
  8
CSLAYER1
  6
CONTINUOUS
 62
     6
 10
253.516540
 20
149.189932
 11
253.463700
 21
149.124484
  0
LINE
  8
CSLAYER1
  6
CONTINUOUS
 62
     6
 10
253.463700
 20
149.124484
 11
253.411099
 21
149.058814
  0
LINE
  8
CSLAYER1
  6
CONTINUOUS
 62
     6
 10
253.411099
 20
149.058814
 11
253.358677
 21
148.992976
  0
LINE
  8
CSLAYER1
  6
CONTINUOUS
 62
     6
 10
253.358677
 20
148.992976
 11
253.306374
 21
148.927027
  0
LINE
  8
CSLAYER1
  6
CONTINUOUS
 62
     6
 10
253.306374
 20
148.927027
 11
253.177819
 21
148.764610
  0
LINE
  8
CSLAYER1
  6
CONTINUOUS
 62
     6
 10
253.177819
 20
148.764610
 11
253.206557
 21
148.717755
  0
LINE
  8
CSLAYER1
  6
CONTINUOUS
 62
     6
 10
253.206557
 20
148.717755
 11
253.247148
 21
148.657874
  0
LINE
  8
CSLAYER1
  6
CONTINUOUS
 62
     6
 10
253.247148
 20
148.657874
 11
253.291431
 21
148.598006
  0
LINE
  8
CSLAYER1
  6
CONTINUOUS
 62
     6
 10
253.291431
 20
148.598006
 11
253.338882
 21
148.538733
  0
LINE
  8
CSLAYER1
  6
CONTINUOUS
 62
     6
 10
253.338882
 20
148.538733
 11
253.388981
 21
148.480635
  0
LINE
  8
CSLAYER1
  6
CONTINUOUS
 62
     6
 10
253.388981
 20
148.480635
 11
253.441205
 21
148.424294
  0
LINE
  8
CSLAYER1
  6
CONTINUOUS
 62
     6
 10
253.441205
 20
148.424294
 11
253.495033
 21
148.370291
  0
LINE
  8
CSLAYER1
  6
CONTINUOUS
 62
     6
 10
253.495033
 20
148.370291
 11
253.549944
 21
148.319206
  0
LINE
  8
CSLAYER1
  6
CONTINUOUS
 62
     6
 10
253.549944
 20
148.319206
 11
253.605415
 21
148.271620
  0
LINE
  8
CSLAYER1
  6
CONTINUOUS
 62
     6
 10
253.605415
 20
148.271620
 11
253.660925
 21
148.228114
  0
LINE
  8
CSLAYER1
  6
CONTINUOUS
 62
     6
 10
253.660925
 20
148.228114
 11
253.715953
 21
148.189270
  0
LINE
  8
CSLAYER1
  6
CONTINUOUS
 62
     6
 10
253.715953
 20
148.189270
 11
253.772439
 21
148.154976
  0
LINE
  8
CSLAYER1
  6
CONTINUOUS
 62
     6
 10
253.772439
 20
148.154976
 11
253.833041
 21
148.124009
  0
LINE
  8
CSLAYER1
  6
CONTINUOUS
 62
     6
 10
253.833041
 20
148.124009
 11
253.897201
 21
148.096020
  0
LINE
  8
CSLAYER1
  6
CONTINUOUS
 62
     6
 10
253.897201
 20
148.096020
 11
253.964363
 21
148.070659
  0
LINE
  8
CSLAYER1
  6
CONTINUOUS
 62
     6
 10
253.964363
 20
148.070659
 11
254.033970
 21
148.047577
  0
LINE
  8
CSLAYER1
  6
CONTINUOUS
 62
     6
 10
254.033970
 20
148.047577
 11
254.105464
 21
148.026423
  0
LINE
  8
CSLAYER1
  6
CONTINUOUS
 62
     6
 10
254.105464
 20
148.026423
 11
254.178289
 21
148.006849
  0
LINE
  8
CSLAYER1
  6
CONTINUOUS
 62
     6
 10
254.178289
 20
148.006849
 11
254.251887
 21
147.988504
  0
LINE
  8
CSLAYER1
  6
CONTINUOUS
 62
     6
 10
254.251887
 20
147.988504
 11
254.325702
 21
147.971038
  0
LINE
  8
CSLAYER1
  6
CONTINUOUS
 62
     6
 10
254.325702
 20
147.971038
 11
254.399176
 21
147.954103
  0
LINE
  8
CSLAYER1
  6
CONTINUOUS
 62
     6
 10
254.399176
 20
147.954103
 11
254.471752
 21
147.937348
  0
LINE
  8
CSLAYER1
  6
CONTINUOUS
 62
     6
 10
254.471752
 20
147.937348
 11
254.545976
 21
147.919747
  0
LINE
  8
CSLAYER1
  6
CONTINUOUS
 62
     6
 10
254.545976
 20
147.919747
 11
254.619711
 21
147.901723
  0
LINE
  8
CSLAYER1
  6
CONTINUOUS
 62
     6
 10
254.619711
 20
147.901723
 11
254.693008
 21
147.883317
  0
LINE
  8
CSLAYER1
  6
CONTINUOUS
 62
     6
 10
254.693008
 20
147.883317
 11
254.765913
 21
147.864571
  0
LINE
  8
CSLAYER1
  6
CONTINUOUS
 62
     6
 10
254.765913
 20
147.864571
 11
254.838477
 21
147.845529
  0
LINE
  8
CSLAYER1
  6
CONTINUOUS
 62
     6
 10
254.838477
 20
147.845529
 11
254.910749
 21
147.826232
  0
LINE
  8
CSLAYER1
  6
CONTINUOUS
 62
     6
 10
254.910749
 20
147.826232
 11
254.982776
 21
147.806724
  0
LINE
  8
CSLAYER1
  6
CONTINUOUS
 62
     6
 10
254.982776
 20
147.806724
 11
255.054608
 21
147.787045
  0
LINE
  8
CSLAYER1
  6
CONTINUOUS
 62
     6
 10
255.054608
 20
147.787045
 11
255.126293
 21
147.767240
  0
LINE
  8
CSLAYER1
  6
CONTINUOUS
 62
     6
 10
255.126293
 20
147.767240
 11
255.197881
 21
147.747350
  0
LINE
  8
CSLAYER1
  6
CONTINUOUS
 62
     6
 10
255.197881
 20
147.747350
 11
255.278500
 21
147.724887
  0
LINE
  8
CSLAYER1
  6
CONTINUOUS
 62
     6
 10
255.278500
 20
147.724887
 11
255.405756
 21
147.897037
  0
LINE
  8
CSLAYER1
  6
CONTINUOUS
 62
     6
 10
255.405756
 20
147.897037
 11
255.500535
 21
148.024199
  0
LINE
  8
CSLAYER1
  6
CONTINUOUS
 62
     6
 10
255.500535
 20
148.024199
 11
255.596187
 21
148.150431
  0
LINE
  8
CSLAYER1
  6
CONTINUOUS
 62
     6
 10
255.596187
 20
148.150431
 11
255.693145
 21
148.275267
  0
LINE
  8
CSLAYER1
  6
CONTINUOUS
 62
     6
 10
255.693145
 20
148.275267
 11
255.791848
 21
148.398241
  0
LINE
  8
CSLAYER1
  6
CONTINUOUS
 62
     6
 10
255.791848
 20
148.398241
 11
255.892729
 21
148.518890
  0
LINE
  8
CSLAYER1
  6
CONTINUOUS
 62
     6
 10
255.892729
 20
148.518890
 11
255.996225
 21
148.636747
  0
LINE
  8
CSLAYER1
  6
CONTINUOUS
 62
     6
 10
255.996225
 20
148.636747
 11
256.102773
 21
148.751347
  0
LINE
  8
CSLAYER1
  6
CONTINUOUS
 62
     6
 10
256.102773
 20
148.751347
 11
256.212807
 21
148.862225
  0
LINE
  8
CSLAYER1
  6
CONTINUOUS
 62
     6
 10
256.212807
 20
148.862225
 11
256.326764
 21
148.968916
  0
LINE
  8
CSLAYER1
  6
CONTINUOUS
 62
     6
 10
256.326764
 20
148.968916
 11
256.445079
 21
149.070954
  0
LINE
  8
CSLAYER1
  6
CONTINUOUS
 62
     6
 10
256.445079
 20
149.070954
 11
256.596504
 21
149.189992
  0
LINE
  8
CSLAYER1
  6
CONTINUOUS
 62
     6
 10
256.596504
 20
149.189992
 11
256.754743
 21
149.304504
  0
LINE
  8
CSLAYER1
  6
CONTINUOUS
 62
     6
 10
256.754743
 20
149.304504
 11
256.917864
 21
149.415444
  0
LINE
  8
CSLAYER1
  6
CONTINUOUS
 62
     6
 10
256.917864
 20
149.415444
 11
257.083932
 21
149.523762
  0
LINE
  8
CSLAYER1
  6
CONTINUOUS
 62
     6
 10
257.083932
 20
149.523762
 11
257.251014
 21
149.630412
  0
LINE
  8
CSLAYER1
  6
CONTINUOUS
 62
     6
 10
257.251014
 20
149.630412
 11
257.417175
 21
149.736345
  0
LINE
  8
CSLAYER1
  6
CONTINUOUS
 62
     6
 10
257.417175
 20
149.736345
 11
257.580482
 21
149.842512
  0
LINE
  8
CSLAYER1
  6
CONTINUOUS
 62
     6
 10
257.580482
 20
149.842512
 11
257.739000
 21
149.949867
  0
LINE
  8
CSLAYER1
  6
CONTINUOUS
 62
     6
 10
257.739000
 20
149.949867
 11
257.890795
 21
150.059361
  0
LINE
  8
CSLAYER1
  6
CONTINUOUS
 62
     6
 10
257.890795
 20
150.059361
 11
258.033935
 21
150.171946
  0
LINE
  8
CSLAYER1
  6
CONTINUOUS
 62
     6
 10
258.033935
 20
150.171946
 11
258.166484
 21
150.288575
  0
LINE
  8
CSLAYER1
  6
CONTINUOUS
 62
     6
 10
258.166484
 20
150.288575
 11
258.269489
 21
150.391589
  0
LINE
  8
CSLAYER1
  6
CONTINUOUS
 62
     6
 10
258.269489
 20
150.391589
 11
258.371153
 21
150.505025
  0
LINE
  8
CSLAYER1
  6
CONTINUOUS
 62
     6
 10
258.371153
 20
150.505025
 11
258.470907
 21
150.627193
  0
LINE
  8
CSLAYER1
  6
CONTINUOUS
 62
     6
 10
258.470907
 20
150.627193
 11
258.568185
 21
150.756401
  0
LINE
  8
CSLAYER1
  6
CONTINUOUS
 62
     6
 10
258.568185
 20
150.756401
 11
258.662420
 21
150.890962
  0
LINE
  8
CSLAYER1
  6
CONTINUOUS
 62
     6
 10
258.662420
 20
150.890962
 11
258.753044
 21
151.029183
  0
LINE
  8
CSLAYER1
  6
CONTINUOUS
 62
     6
 10
258.753044
 20
151.029183
 11
258.839491
 21
151.169376
  0
LINE
  8
CSLAYER1
  6
CONTINUOUS
 62
     6
 10
258.839491
 20
151.169376
 11
258.921192
 21
151.309851
  0
LINE
  8
CSLAYER1
  6
CONTINUOUS
 62
     6
 10
258.921192
 20
151.309851
 11
258.997581
 21
151.448917
  0
LINE
  8
CSLAYER1
  6
CONTINUOUS
 62
     6
 10
258.997581
 20
151.448917
 11
259.068090
 21
151.584885
  0
LINE
  8
CSLAYER1
  6
CONTINUOUS
 62
     6
 10
259.068090
 20
151.584885
 11
259.173350
 21
151.800426
  0
ARC
  8
CSLAYER1
  6
CONTINUOUS
 62
     6
 10
258.247239
 20
151.244348
 40
1.080690
 50
30.945197
 51
90.945197
  0
ARC
  8
CSLAYER1
  6
CONTINUOUS
 62
     6
 10
257.302548
 20
151.769181
 40
1.080690
 50
30.945197
 51
90.945197
  0
ARC
  8
CSLAYER1
  6
CONTINUOUS
 62
     6
 10
258.211585
 20
153.405434
 40
1.080690
 50
210.945197
 51
270.945197
  0
LINE
  8
CSLAYER1
  6
CONTINUOUS
 62
     6
 10
257.284740
 20
152.849701
 11
257.140037
 21
152.710355
  0
LINE
  8
CSLAYER1
  6
CONTINUOUS
 62
     6
 10
257.140037
 20
152.710355
 11
256.986123
 21
152.560605
  0
LINE
  8
CSLAYER1
  6
CONTINUOUS
 62
     6
 10
256.986123
 20
152.560605
 11
256.824772
 21
152.402777
  0
LINE
  8
CSLAYER1
  6
CONTINUOUS
 62
     6
 10
256.824772
 20
152.402777
 11
256.657762
 21
152.239195
  0
ARC
  8
CSLAYER1
  6
CONTINUOUS
 62
     6
 10
259.758680
 20
154.253549
 40
1.095863
 50
203.568976
 51
263.568976
  0
ARC
  8
CSLAYER1
  6
CONTINUOUS
 62
     6
 10
260.640381
 20
153.602766
 40
1.095863
 50
203.568976
 51
263.568976
  0
ARC
  8
CSLAYER1
  6
CONTINUOUS
 62
     6
 10
259.513192
 20
152.075615
 40
1.095863
 50
23.568976
 51
83.568976
  0
LINE
  8
CSLAYER1
  6
CONTINUOUS
 62
     6
 10
259.007365
 20
153.995336
 11
258.754253
 21
153.815369
  0
LINE
  8
CSLAYER1
  6
CONTINUOUS
 62
     6
 10
259.007365
 20
153.995336
 11
259.260226
 21
154.175656
  0
LINE
  8
CSLAYER1
  6
CONTINUOUS
 62
     6
 10
259.260226
 20
154.175656
 11
259.512586
 21
154.356682
  0
LINE
  8
CSLAYER1
  6
CONTINUOUS
 62
     6
 10
259.512586
 20
154.356682
 11
259.764194
 21
154.538765
  0
LINE
  8
CSLAYER1
  6
CONTINUOUS
 62
     6
 10
259.764194
 20
154.538765
 11
260.014799
 21
154.722261
  0
LINE
  8
CSLAYER1
  6
CONTINUOUS
 62
     6
 10
260.014799
 20
154.722261
 11
260.264152
 21
154.907519
  0
LINE
  8
CSLAYER1
  6
CONTINUOUS
 62
     6
 10
260.264152
 20
154.907519
 11
260.512001
 21
155.094895
  0
LINE
  8
CSLAYER1
  6
CONTINUOUS
 62
     6
 10
260.512001
 20
155.094895
 11
260.758095
 21
155.284740
  0
LINE
  8
CSLAYER1
  6
CONTINUOUS
 62
     6
 10
260.758095
 20
155.284740
 11
261.002185
 21
155.477407
  0
LINE
  8
CSLAYER1
  6
CONTINUOUS
 62
     6
 10
261.002185
 20
155.477407
 11
261.244020
 21
155.673250
  0
LINE
  8
CSLAYER1
  6
CONTINUOUS
 62
     6
 10
261.244020
 20
155.673250
 11
261.483348
 21
155.872620
  0
LINE
  8
CSLAYER1
  6
CONTINUOUS
 62
     6
 10
261.483348
 20
155.872620
 11
261.640613
 21
156.006917
  0
LINE
  8
CSLAYER1
  6
CONTINUOUS
 62
     6
 10
261.640613
 20
156.006917
 11
261.797662
 21
156.143941
  0
LINE
  8
CSLAYER1
  6
CONTINUOUS
 62
     6
 10
261.797662
 20
156.143941
 11
261.953753
 21
156.283501
  0
LINE
  8
CSLAYER1
  6
CONTINUOUS
 62
     6
 10
261.953753
 20
156.283501
 11
262.108142
 21
156.425403
  0
LINE
  8
CSLAYER1
  6
CONTINUOUS
 62
     6
 10
262.108142
 20
156.425403
 11
262.260087
 21
156.569456
  0
LINE
  8
CSLAYER1
  6
CONTINUOUS
 62
     6
 10
262.260087
 20
156.569456
 11
262.408844
 21
156.715466
  0
LINE
  8
CSLAYER1
  6
CONTINUOUS
 62
     6
 10
262.408844
 20
156.715466
 11
262.553670
 21
156.863241
  0
LINE
  8
CSLAYER1
  6
CONTINUOUS
 62
     6
 10
262.553670
 20
156.863241
 11
262.693823
 21
157.012588
  0
LINE
  8
CSLAYER1
  6
CONTINUOUS
 62
     6
 10
262.693823
 20
157.012588
 11
262.828558
 21
157.163316
  0
LINE
  8
CSLAYER1
  6
CONTINUOUS
 62
     6
 10
262.828558
 20
157.163316
 11
262.957134
 21
157.315230
  0
LINE
  8
CSLAYER1
  6
CONTINUOUS
 62
     6
 10
262.957134
 20
157.315230
 11
263.078807
 21
157.468140
  0
LINE
  8
CSLAYER1
  6
CONTINUOUS
 62
     6
 10
263.078807
 20
157.468140
 11
263.193262
 21
157.619466
  0
LINE
  8
CSLAYER1
  6
CONTINUOUS
 62
     6
 10
263.193262
 20
157.619466
 11
263.308562
 21
157.776720
  0
LINE
  8
CSLAYER1
  6
CONTINUOUS
 62
     6
 10
263.308562
 20
157.776720
 11
263.424175
 21
157.938778
  0
LINE
  8
CSLAYER1
  6
CONTINUOUS
 62
     6
 10
263.424175
 20
157.938778
 11
263.539568
 21
158.104517
  0
LINE
  8
CSLAYER1
  6
CONTINUOUS
 62
     6
 10
263.539568
 20
158.104517
 11
263.654208
 21
158.272817
  0
LINE
  8
CSLAYER1
  6
CONTINUOUS
 62
     6
 10
263.654208
 20
158.272817
 11
263.767563
 21
158.442553
  0
LINE
  8
CSLAYER1
  6
CONTINUOUS
 62
     6
 10
263.767563
 20
158.442553
 11
263.879098
 21
158.612604
  0
LINE
  8
CSLAYER1
  6
CONTINUOUS
 62
     6
 10
263.879098
 20
158.612604
 11
263.988282
 21
158.781846
  0
LINE
  8
CSLAYER1
  6
CONTINUOUS
 62
     6
 10
263.988282
 20
158.781846
 11
264.094582
 21
158.949158
  0
LINE
  8
CSLAYER1
  6
CONTINUOUS
 62
     6
 10
264.094582
 20
158.949158
 11
264.197465
 21
159.113416
  0
LINE
  8
CSLAYER1
  6
CONTINUOUS
 62
     6
 10
264.197465
 20
159.113416
 11
264.296398
 21
159.273499
  0
LINE
  8
CSLAYER1
  6
CONTINUOUS
 62
     6
 10
264.296398
 20
159.273499
 11
264.382872
 21
159.411725
  0
LINE
  8
CSLAYER1
  6
CONTINUOUS
 62
     6
 10
264.382872
 20
159.411725
 11
264.474823
 21
159.554183
  0
LINE
  8
CSLAYER1
  6
CONTINUOUS
 62
     6
 10
264.474823
 20
159.554183
 11
264.571023
 21
159.699663
  0
LINE
  8
CSLAYER1
  6
CONTINUOUS
 62
     6
 10
264.571023
 20
159.699663
 11
264.670242
 21
159.846953
  0
LINE
  8
CSLAYER1
  6
CONTINUOUS
 62
     6
 10
264.670242
 20
159.846953
 11
264.771251
 21
159.994843
  0
LINE
  8
CSLAYER1
  6
CONTINUOUS
 62
     6
 10
264.771251
 20
159.994843
 11
264.872819
 21
160.142121
  0
LINE
  8
CSLAYER1
  6
CONTINUOUS
 62
     6
 10
264.872819
 20
160.142121
 11
264.973717
 21
160.287578
  0
LINE
  8
CSLAYER1
  6
CONTINUOUS
 62
     6
 10
264.973717
 20
160.287578
 11
265.072715
 21
160.430002
  0
LINE
  8
CSLAYER1
  6
CONTINUOUS
 62
     6
 10
265.072715
 20
160.430002
 11
265.168585
 21
160.568182
  0
LINE
  8
CSLAYER1
  6
CONTINUOUS
 62
     6
 10
265.168585
 20
160.568182
 11
265.289127
 21
160.743012
  0
ARC
  8
CSLAYER1
  6
CONTINUOUS
 62
     6
 10
263.023923
 20
162.743012
 40
2.000000
 50
180.000000
 51
270.000000
  0
LINE
  8
CSLAYER1
  6
CONTINUOUS
 62
     6
 10
261.023923
 20
162.743012
 11
261.023923
 21
163.243012
  0
LINE
  8
CSLAYER1
  6
CONTINUOUS
 62
     6
 10
260.773923
 20
163.243012
 11
286.773923
 21
163.243012
  0
LINE
  8
CSLAYER1
  6
CONTINUOUS
 62
     6
 10
286.773923
 20
165.243012
 11
260.773923
 21
165.243012
  0
LINE
  8
CSLAYER1
  6
CONTINUOUS
 62
     6
 10
263.023923
 20
160.743012
 11
272.112548
 21
160.743012
  0
ARC
  8
CSLAYER1
  6
CONTINUOUS
 62
     6
 10
273.773923
 20
167.543000
 40
7.000000
 50
253.743003
 51
286.257026
  0
ARC
  8
CSLAYER1
  6
CONTINUOUS
 62
     6
 10
275.453580
 20
161.782929
 40
1.000000
 50
286.257408
 51
354.999902
  0
LINE
  8
CSLAYER1
  6
CONTINUOUS
 62
     6
 10
276.449765
 20
161.695771
 11
276.504880
 21
162.325592
  0
ARC
  8
CSLAYER1
  6
CONTINUOUS
 62
     6
 10
276.305661
 20
162.343018
 40
0.200000
 50
-5.000126
 51
90.000019
  0
LINE
  8
CSLAYER1
  6
CONTINUOUS
 62
     6
 10
276.573911
 20
162.543030
 11
273.773923
 21
162.543000
  0
LINE
  8
CSLAYER1
  6
CONTINUOUS
 62
     6
 10
273.773923
 20
162.543000
 11
270.973935
 21
162.543000
  0
ARC
  8
CSLAYER1
  6
CONTINUOUS
 62
     6
 10
270.973935
 20
162.643006
 40
0.100000
 50
180.000005
 51
270.000001
  0
LINE
  8
CSLAYER1
  6
CONTINUOUS
 62
     6
 10
270.873899
 20
162.643006
 11
270.873899
 21
163.143006
  0
ARC
  8
CSLAYER1
  6
CONTINUOUS
 62
     6
 10
270.973935
 20
163.143006
 40
0.100000
 50
90.000003
 51
180.000005
  0
ARC
  8
CSLAYER1
  6
CONTINUOUS
 62
     6
 10
271.242185
 20
162.343018
 40
0.200000
 50
90.000003
 51
185.000154
  0
LINE
  8
CSLAYER1
  6
CONTINUOUS
 62
     6
 10
271.042935
 20
162.325592
 11
271.098020
 21
161.695771
  0
ARC
  8
CSLAYER1
  6
CONTINUOUS
 62
     6
 10
272.094235
 20
161.782929
 40
1.000000
 50
185.000113
 51
253.742620
  0
LINE
  8
CSLAYER1
  6
CONTINUOUS
 62
     6
 10
270.202545
 20
160.743012
 11
270.037428
 21
159.724968
  0
LINE
  8
CSLAYER1
  6
CONTINUOUS
 62
     6
 10
270.037428
 20
159.724968
 11
269.979293
 21
159.402541
  0
LINE
  8
CSLAYER1
  6
CONTINUOUS
 62
     6
 10
269.979293
 20
159.402541
 11
269.914440
 21
159.070731
  0
LINE
  8
CSLAYER1
  6
CONTINUOUS
 62
     6
 10
269.914440
 20
159.070731
 11
269.844064
 21
158.732935
  0
LINE
  8
CSLAYER1
  6
CONTINUOUS
 62
     6
 10
269.844064
 20
158.732935
 11
269.769361
 21
158.392547
  0
LINE
  8
CSLAYER1
  6
CONTINUOUS
 62
     6
 10
269.769361
 20
158.392547
 11
269.691525
 21
158.052963
  0
LINE
  8
CSLAYER1
  6
CONTINUOUS
 62
     6
 10
269.691525
 20
158.052963
 11
269.611751
 21
157.717578
  0
LINE
  8
CSLAYER1
  6
CONTINUOUS
 62
     6
 10
269.611751
 20
157.717578
 11
269.531234
 21
157.389787
  0
LINE
  8
CSLAYER1
  6
CONTINUOUS
 62
     6
 10
269.531234
 20
157.389787
 11
269.451170
 21
157.072986
  0
LINE
  8
CSLAYER1
  6
CONTINUOUS
 62
     6
 10
269.451170
 20
157.072986
 11
269.372753
 21
156.770569
  0
LINE
  8
CSLAYER1
  6
CONTINUOUS
 62
     6
 10
269.372753
 20
156.770569
 11
269.289381
 21
156.470819
  0
LINE
  8
CSLAYER1
  6
CONTINUOUS
 62
     6
 10
269.289381
 20
156.470819
 11
269.195467
 21
156.165295
  0
LINE
  8
CSLAYER1
  6
CONTINUOUS
 62
     6
 10
269.195467
 20
156.165295
 11
269.091882
 21
155.855255
  0
LINE
  8
CSLAYER1
  6
CONTINUOUS
 62
     6
 10
269.091882
 20
155.855255
 11
268.979494
 21
155.541960
  0
LINE
  8
CSLAYER1
  6
CONTINUOUS
 62
     6
 10
268.979494
 20
155.541960
 11
268.859172
 21
155.226669
  0
LINE
  8
CSLAYER1
  6
CONTINUOUS
 62
     6
 10
268.859172
 20
155.226669
 11
268.731785
 21
154.910640
  0
LINE
  8
CSLAYER1
  6
CONTINUOUS
 62
     6
 10
268.731785
 20
154.910640
 11
268.598203
 21
154.595135
  0
LINE
  8
CSLAYER1
  6
CONTINUOUS
 62
     6
 10
268.598203
 20
154.595135
 11
268.459294
 21
154.281411
  0
LINE
  8
CSLAYER1
  6
CONTINUOUS
 62
     6
 10
268.459294
 20
154.281411
 11
268.315927
 21
153.970729
  0
LINE
  8
CSLAYER1
  6
CONTINUOUS
 62
     6
 10
268.315927
 20
153.970729
 11
268.168972
 21
153.664347
  0
LINE
  8
CSLAYER1
  6
CONTINUOUS
 62
     6
 10
268.168972
 20
153.664347
 11
268.019298
 21
153.363526
  0
LINE
  8
CSLAYER1
  6
CONTINUOUS
 62
     6
 10
268.019298
 20
153.363526
 11
267.891953
 21
153.115906
  0
LINE
  8
CSLAYER1
  6
CONTINUOUS
 62
     6
 10
267.891953
 20
153.115906
 11
267.761801
 21
152.869872
  0
LINE
  8
CSLAYER1
  6
CONTINUOUS
 62
     6
 10
267.761801
 20
152.869872
 11
267.629123
 21
152.625266
  0
LINE
  8
CSLAYER1
  6
CONTINUOUS
 62
     6
 10
267.629123
 20
152.625266
 11
267.494198
 21
152.381929
  0
LINE
  8
CSLAYER1
  6
CONTINUOUS
 62
     6
 10
267.494198
 20
152.381929
 11
267.357307
 21
152.139702
  0
LINE
  8
CSLAYER1
  6
CONTINUOUS
 62
     6
 10
267.357307
 20
152.139702
 11
267.218733
 21
151.898427
  0
LINE
  8
CSLAYER1
  6
CONTINUOUS
 62
     6
 10
267.218733
 20
151.898427
 11
267.078754
 21
151.657945
  0
LINE
  8
CSLAYER1
  6
CONTINUOUS
 62
     6
 10
267.078754
 20
151.657945
 11
266.937653
 21
151.418097
  0
LINE
  8
CSLAYER1
  6
CONTINUOUS
 62
     6
 10
266.937653
 20
151.418097
 11
266.795709
 21
151.178726
  0
LINE
  8
CSLAYER1
  6
CONTINUOUS
 62
     6
 10
266.795709
 20
151.178726
 11
266.653204
 21
150.939672
  0
LINE
  8
CSLAYER1
  6
CONTINUOUS
 62
     6
 10
266.653204
 20
150.939672
 11
266.510418
 21
150.700776
  0
ARC
  8
CSLAYER1
  6
CONTINUOUS
 62
     6
 10
266.500752
 20
151.900744
 40
1.200008
 50
210.461486
 51
270.461486
  0
ARC
  8
CSLAYER1
  6
CONTINUOUS
 62
     6
 10
265.456716
 20
152.492358
 40
1.200008
 50
210.461486
 51
270.461486
  0
LINE
  8
CSLAYER1
  6
CONTINUOUS
 62
     6
 10
264.422313
 20
151.884003
 11
264.557595
 21
152.109925
  0
LINE
  8
CSLAYER1
  6
CONTINUOUS
 62
     6
 10
264.557595
 20
152.109925
 11
264.692601
 21
152.336001
  0
LINE
  8
CSLAYER1
  6
CONTINUOUS
 62
     6
 10
264.692601
 20
152.336001
 11
264.827057
 21
152.562387
  0
LINE
  8
CSLAYER1
  6
CONTINUOUS
 62
     6
 10
264.827057
 20
152.562387
 11
264.960688
 21
152.789237
  0
LINE
  8
CSLAYER1
  6
CONTINUOUS
 62
     6
 10
264.960688
 20
152.789237
 11
265.093217
 21
153.016705
  0
LINE
  8
CSLAYER1
  6
CONTINUOUS
 62
     6
 10
265.093217
 20
153.016705
 11
265.224371
 21
153.244947
  0
LINE
  8
CSLAYER1
  6
CONTINUOUS
 62
     6
 10
265.224371
 20
153.244947
 11
265.353873
 21
153.474117
  0
LINE
  8
CSLAYER1
  6
CONTINUOUS
 62
     6
 10
265.353873
 20
153.474117
 11
265.481449
 21
153.704369
  0
LINE
  8
CSLAYER1
  6
CONTINUOUS
 62
     6
 10
265.481449
 20
153.704369
 11
265.606823
 21
153.935858
  0
LINE
  8
CSLAYER1
  6
CONTINUOUS
 62
     6
 10
265.606823
 20
153.935858
 11
265.729720
 21
154.168740
  0
LINE
  8
CSLAYER1
  6
CONTINUOUS
 62
     6
 10
265.729720
 20
154.168740
 11
265.849865
 21
154.403168
  0
LINE
  8
CSLAYER1
  6
CONTINUOUS
 62
     6
 10
265.849865
 20
154.403168
 11
265.984106
 21
154.673973
  0
LINE
  8
CSLAYER1
  6
CONTINUOUS
 62
     6
 10
265.984106
 20
154.673973
 11
266.115969
 21
154.949738
  0
LINE
  8
CSLAYER1
  6
CONTINUOUS
 62
     6
 10
266.115969
 20
154.949738
 11
266.244676
 21
155.229332
  0
LINE
  8
CSLAYER1
  6
CONTINUOUS
 62
     6
 10
266.244676
 20
155.229332
 11
266.369451
 21
155.511622
  0
LINE
  8
CSLAYER1
  6
CONTINUOUS
 62
     6
 10
266.369451
 20
155.511622
 11
266.489514
 21
155.795478
  0
LINE
  8
CSLAYER1
  6
CONTINUOUS
 62
     6
 10
266.489514
 20
155.795478
 11
266.604089
 21
156.079768
  0
LINE
  8
CSLAYER1
  6
CONTINUOUS
 62
     6
 10
266.604089
 20
156.079768
 11
266.712398
 21
156.363361
  0
LINE
  8
CSLAYER1
  6
CONTINUOUS
 62
     6
 10
266.712398
 20
156.363361
 11
266.813663
 21
156.645126
  0
LINE
  8
CSLAYER1
  6
CONTINUOUS
 62
     6
 10
266.813663
 20
156.645126
 11
266.907108
 21
156.923932
  0
LINE
  8
CSLAYER1
  6
CONTINUOUS
 62
     6
 10
266.907108
 20
156.923932
 11
266.991954
 21
157.198647
  0
LINE
  8
CSLAYER1
  6
CONTINUOUS
 62
     6
 10
266.991954
 20
157.198647
 11
267.067424
 21
157.468140
  0
LINE
  8
CSLAYER1
  6
CONTINUOUS
 62
     6
 10
267.067424
 20
157.468140
 11
267.141964
 21
157.753579
  0
LINE
  8
CSLAYER1
  6
CONTINUOUS
 62
     6
 10
267.141964
 20
157.753579
 11
267.217972
 21
158.052757
  0
LINE
  8
CSLAYER1
  6
CONTINUOUS
 62
     6
 10
267.217972
 20
158.052757
 11
267.294316
 21
158.362423
  0
LINE
  8
CSLAYER1
  6
CONTINUOUS
 62
     6
 10
267.294316
 20
158.362423
 11
267.369862
 21
158.679323
  0
LINE
  8
CSLAYER1
  6
CONTINUOUS
 62
     6
 10
267.369862
 20
158.679323
 11
267.443478
 21
159.000205
  0
LINE
  8
CSLAYER1
  6
CONTINUOUS
 62
     6
 10
267.443478
 20
159.000205
 11
267.514030
 21
159.321816
  0
LINE
  8
CSLAYER1
  6
CONTINUOUS
 62
     6
 10
267.514030
 20
159.321816
 11
267.580387
 21
159.640904
  0
LINE
  8
CSLAYER1
  6
CONTINUOUS
 62
     6
 10
267.580387
 20
159.640904
 11
267.641415
 21
159.954215
  0
LINE
  8
CSLAYER1
  6
CONTINUOUS
 62
     6
 10
267.641415
 20
159.954215
 11
267.695982
 21
160.258498
  0
LINE
  8
CSLAYER1
  6
CONTINUOUS
 62
     6
 10
267.695982
 20
160.258498
 11
267.773923
 21
160.743012
  0
LINE
  8
CSLAYER1
  6
CONTINUOUS
 62
     6
 10
267.645522
 20
159.977118
 11
267.597276
 21
159.889284
  0
LINE
  8
CSLAYER1
  6
CONTINUOUS
 62
     6
 10
267.597276
 20
159.889284
 11
267.487389
 21
159.697475
  0
LINE
  8
CSLAYER1
  6
CONTINUOUS
 62
     6
 10
267.487389
 20
159.697475
 11
267.369135
 21
159.497988
  0
LINE
  8
CSLAYER1
  6
CONTINUOUS
 62
     6
 10
267.369135
 20
159.497988
 11
267.244096
 21
159.293008
  0
LINE
  8
CSLAYER1
  6
CONTINUOUS
 62
     6
 10
267.244096
 20
159.293008
 11
267.113855
 21
159.084722
  0
LINE
  8
CSLAYER1
  6
CONTINUOUS
 62
     6
 10
267.113855
 20
159.084722
 11
266.979993
 21
158.875317
  0
LINE
  8
CSLAYER1
  6
CONTINUOUS
 62
     6
 10
266.979993
 20
158.875317
 11
266.844090
 21
158.666977
  0
LINE
  8
CSLAYER1
  6
CONTINUOUS
 62
     6
 10
266.844090
 20
158.666977
 11
266.707730
 21
158.461889
  0
LINE
  8
CSLAYER1
  6
CONTINUOUS
 62
     6
 10
266.707730
 20
158.461889
 11
266.572494
 21
158.262240
  0
LINE
  8
CSLAYER1
  6
CONTINUOUS
 62
     6
 10
266.572494
 20
158.262240
 11
266.439962
 21
158.070215
  0
LINE
  8
CSLAYER1
  6
CONTINUOUS
 62
     6
 10
266.439962
 20
158.070215
 11
266.311718
 21
157.888001
  0
LINE
  8
CSLAYER1
  6
CONTINUOUS
 62
     6
 10
266.311718
 20
157.888001
 11
266.206638
 21
157.743822
  0
LINE
  8
CSLAYER1
  6
CONTINUOUS
 62
     6
 10
266.206638
 20
157.743822
 11
266.094747
 21
157.596772
  0
LINE
  8
CSLAYER1
  6
CONTINUOUS
 62
     6
 10
266.094747
 20
157.596772
 11
265.977178
 21
157.447750
  0
LINE
  8
CSLAYER1
  6
CONTINUOUS
 62
     6
 10
265.977178
 20
157.447750
 11
265.855065
 21
157.297656
  0
LINE
  8
CSLAYER1
  6
CONTINUOUS
 62
     6
 10
265.855065
 20
157.297656
 11
265.729539
 21
157.147387
  0
LINE
  8
CSLAYER1
  6
CONTINUOUS
 62
     6
 10
265.729539
 20
157.147387
 11
265.601734
 21
156.997845
  0
LINE
  8
CSLAYER1
  6
CONTINUOUS
 62
     6
 10
265.601734
 20
156.997845
 11
265.472781
 21
156.849927
  0
LINE
  8
CSLAYER1
  6
CONTINUOUS
 62
     6
 10
265.472781
 20
156.849927
 11
265.343814
 21
156.704532
  0
LINE
  8
CSLAYER1
  6
CONTINUOUS
 62
     6
 10
265.343814
 20
156.704532
 11
265.215964
 21
156.562560
  0
LINE
  8
CSLAYER1
  6
CONTINUOUS
 62
     6
 10
265.215964
 20
156.562560
 11
265.090366
 21
156.424910
  0
LINE
  8
CSLAYER1
  6
CONTINUOUS
 62
     6
 10
265.090366
 20
156.424910
 11
264.968151
 21
156.292481
  0
LINE
  8
CSLAYER1
  6
CONTINUOUS
 62
     6
 10
264.968151
 20
156.292481
 11
264.823175
 21
156.140321
  0
LINE
  8
CSLAYER1
  6
CONTINUOUS
 62
     6
 10
264.823175
 20
156.140321
 11
264.670000
 21
155.986370
  0
LINE
  8
CSLAYER1
  6
CONTINUOUS
 62
     6
 10
264.670000
 20
155.986370
 11
264.510591
 21
155.830936
  0
LINE
  8
CSLAYER1
  6
CONTINUOUS
 62
     6
 10
264.510591
 20
155.830936
 11
264.346914
 21
155.674328
  0
LINE
  8
CSLAYER1
  6
CONTINUOUS
 62
     6
 10
264.346914
 20
155.674328
 11
264.180934
 21
155.516855
  0
LINE
  8
CSLAYER1
  6
CONTINUOUS
 62
     6
 10
264.180934
 20
155.516855
 11
264.014616
 21
155.358824
  0
LINE
  8
CSLAYER1
  6
CONTINUOUS
 62
     6
 10
264.014616
 20
155.358824
 11
263.849926
 21
155.200544
  0
LINE
  8
CSLAYER1
  6
CONTINUOUS
 62
     6
 10
263.849926
 20
155.200544
 11
263.688829
 21
155.042324
  0
LINE
  8
CSLAYER1
  6
CONTINUOUS
 62
     6
 10
263.688829
 20
155.042324
 11
263.533289
 21
154.884472
  0
LINE
  8
CSLAYER1
  6
CONTINUOUS
 62
     6
 10
263.533289
 20
154.884472
 11
263.385273
 21
154.727296
  0
LINE
  8
CSLAYER1
  6
CONTINUOUS
 62
     6
 10
263.385273
 20
154.727296
 11
263.246746
 21
154.571106
  0
LINE
  8
CSLAYER1
  6
CONTINUOUS
 62
     6
 10
263.246746
 20
154.571106
 11
263.120831
 21
154.424524
  0
LINE
  8
CSLAYER1
  6
CONTINUOUS
 62
     6
 10
263.120831
 20
154.424524
 11
262.990021
 21
154.274345
  0
LINE
  8
CSLAYER1
  6
CONTINUOUS
 62
     6
 10
262.990021
 20
154.274345
 11
262.854419
 21
154.122126
  0
LINE
  8
CSLAYER1
  6
CONTINUOUS
 62
     6
 10
262.854419
 20
154.122126
 11
262.714125
 21
153.969421
  0
LINE
  8
CSLAYER1
  6
CONTINUOUS
 62
     6
 10
262.714125
 20
153.969421
 11
262.569242
 21
153.817788
  0
LINE
  8
CSLAYER1
  6
CONTINUOUS
 62
     6
 10
262.569242
 20
153.817788
 11
262.419872
 21
153.668781
  0
LINE
  8
CSLAYER1
  6
CONTINUOUS
 62
     6
 10
262.419872
 20
153.668781
 11
262.266115
 21
153.523957
  0
LINE
  8
CSLAYER1
  6
CONTINUOUS
 62
     6
 10
262.266115
 20
153.523957
 11
262.108075
 21
153.384872
  0
LINE
  8
CSLAYER1
  6
CONTINUOUS
 62
     6
 10
262.108075
 20
153.384872
 11
261.945851
 21
153.253082
  0
LINE
  8
CSLAYER1
  6
CONTINUOUS
 62
     6
 10
261.945851
 20
153.253082
 11
261.779547
 21
153.130142
  0
LINE
  8
CSLAYER1
  6
CONTINUOUS
 62
     6
 10
261.779547
 20
153.130142
 11
261.609264
 21
153.017609
  0
LINE
  8
CSLAYER1
  6
CONTINUOUS
 62
     6
 10
261.609264
 20
153.017609
 11
261.516530
 21
152.962183
  0
LINE
  8
CSLAYER1
  6
CONTINUOUS
 62
     6
 10
261.516530
 20
152.962183
 11
261.421938
 21
152.909506
  0
LINE
  8
CSLAYER1
  6
CONTINUOUS
 62
     6
 10
261.421938
 20
152.909506
 11
261.325673
 21
152.859305
  0
LINE
  8
CSLAYER1
  6
CONTINUOUS
 62
     6
 10
261.325673
 20
152.859305
 11
261.227922
 21
152.811303
  0
LINE
  8
CSLAYER1
  6
CONTINUOUS
 62
     6
 10
261.227922
 20
152.811303
 11
261.128870
 21
152.765227
  0
LINE
  8
CSLAYER1
  6
CONTINUOUS
 62
     6
 10
261.128870
 20
152.765227
 11
261.028703
 21
152.720801
  0
LINE
  8
CSLAYER1
  6
CONTINUOUS
 62
     6
 10
261.028703
 20
152.720801
 11
260.927608
 21
152.677749
  0
LINE
  8
CSLAYER1
  6
CONTINUOUS
 62
     6
 10
260.927608
 20
152.677749
 11
260.825769
 21
152.635798
  0
LINE
  8
CSLAYER1
  6
CONTINUOUS
 62
     6
 10
260.825769
 20
152.635798
 11
260.723372
 21
152.594672
  0
LINE
  8
CSLAYER1
  6
CONTINUOUS
 62
     6
 10
260.723372
 20
152.594672
 11
260.620604
 21
152.554095
  0
LINE
  8
CSLAYER1
  6
CONTINUOUS
 62
     6
 10
260.620604
 20
152.554095
 11
260.517650
 21
152.513794
  0
LINE
  8
CSLAYER1
  6
CONTINUOUS
 62
     6
 10
263.416415
 20
150.193162
 11
263.281613
 21
150.027850
  0
LINE
  8
CSLAYER1
  6
CONTINUOUS
 62
     6
 10
263.281613
 20
150.027850
 11
263.143056
 21
149.856197
  0
LINE
  8
CSLAYER1
  6
CONTINUOUS
 62
     6
 10
263.143056
 20
149.856197
 11
263.002780
 21
149.679776
  0
LINE
  8
CSLAYER1
  6
CONTINUOUS
 62
     6
 10
263.002780
 20
149.679776
 11
262.862823
 21
149.500158
  0
LINE
  8
CSLAYER1
  6
CONTINUOUS
 62
     6
 10
262.862823
 20
149.500158
 11
262.725220
 21
149.318914
  0
LINE
  8
CSLAYER1
  6
CONTINUOUS
 62
     6
 10
262.725220
 20
149.318914
 11
262.592008
 21
149.137618
  0
LINE
  8
CSLAYER1
  6
CONTINUOUS
 62
     6
 10
262.592008
 20
149.137618
 11
262.465224
 21
148.957841
  0
LINE
  8
CSLAYER1
  6
CONTINUOUS
 62
     6
 10
262.465224
 20
148.957841
 11
262.346904
 21
148.781154
  0
LINE
  8
CSLAYER1
  6
CONTINUOUS
 62
     6
 10
262.346904
 20
148.781154
 11
262.239086
 21
148.609131
  0
LINE
  8
CSLAYER1
  6
CONTINUOUS
 62
     6
 10
262.239086
 20
148.609131
 11
262.141447
 21
148.445370
  0
LINE
  8
CSLAYER1
  6
CONTINUOUS
 62
     6
 10
262.141447
 20
148.445370
 11
262.041818
 21
148.276103
  0
LINE
  8
CSLAYER1
  6
CONTINUOUS
 62
     6
 10
262.041818
 20
148.276103
 11
261.939992
 21
148.102632
  0
LINE
  8
CSLAYER1
  6
CONTINUOUS
 62
     6
 10
261.939992
 20
148.102632
 11
261.835762
 21
147.926259
  0
LINE
  8
CSLAYER1
  6
CONTINUOUS
 62
     6
 10
261.835762
 20
147.926259
 11
261.728921
 21
147.748286
  0
LINE
  8
CSLAYER1
  6
CONTINUOUS
 62
     6
 10
261.728921
 20
147.748286
 11
261.619264
 21
147.570016
  0
LINE
  8
CSLAYER1
  6
CONTINUOUS
 62
     6
 10
261.619264
 20
147.570016
 11
261.506584
 21
147.392752
  0
LINE
  8
CSLAYER1
  6
CONTINUOUS
 62
     6
 10
261.506584
 20
147.392752
 11
261.390673
 21
147.217794
  0
LINE
  8
CSLAYER1
  6
CONTINUOUS
 62
     6
 10
261.390673
 20
147.217794
 11
261.271326
 21
147.046446
  0
LINE
  8
CSLAYER1
  6
CONTINUOUS
 62
     6
 10
261.271326
 20
147.046446
 11
261.148335
 21
146.880010
  0
LINE
  8
CSLAYER1
  6
CONTINUOUS
 62
     6
 10
261.148335
 20
146.880010
 11
261.021495
 21
146.719788
  0
LINE
  8
CSLAYER1
  6
CONTINUOUS
 62
     6
 10
261.021495
 20
146.719788
 11
260.922674
 21
146.603275
  0
LINE
  8
CSLAYER1
  6
CONTINUOUS
 62
     6
 10
260.922674
 20
146.603275
 11
260.820462
 21
146.489516
  0
LINE
  8
CSLAYER1
  6
CONTINUOUS
 62
     6
 10
260.820462
 20
146.489516
 11
260.715198
 21
146.378235
  0
LINE
  8
CSLAYER1
  6
CONTINUOUS
 62
     6
 10
260.715198
 20
146.378235
 11
260.607221
 21
146.269157
  0
LINE
  8
CSLAYER1
  6
CONTINUOUS
 62
     6
 10
260.607221
 20
146.269157
 11
260.496870
 21
146.162006
  0
LINE
  8
CSLAYER1
  6
CONTINUOUS
 62
     6
 10
260.496870
 20
146.162006
 11
260.384484
 21
146.056508
  0
LINE
  8
CSLAYER1
  6
CONTINUOUS
 62
     6
 10
260.384484
 20
146.056508
 11
260.270403
 21
145.952386
  0
LINE
  8
CSLAYER1
  6
CONTINUOUS
 62
     6
 10
260.270403
 20
145.952386
 11
260.154965
 21
145.849365
  0
LINE
  8
CSLAYER1
  6
CONTINUOUS
 62
     6
 10
260.154965
 20
145.849365
 11
260.038510
 21
145.747171
  0
LINE
  8
CSLAYER1
  6
CONTINUOUS
 62
     6
 10
260.038510
 20
145.747171
 11
259.942484
 21
145.663843
  0
LINE
  8
CSLAYER1
  6
CONTINUOUS
 62
     6
 10
259.942484
 20
145.663843
 11
260.011632
 21
145.629314
  0
LINE
  8
CSLAYER1
  6
CONTINUOUS
 62
     6
 10
260.011632
 20
145.629314
 11
260.096108
 21
145.581698
  0
LINE
  8
CSLAYER1
  6
CONTINUOUS
 62
     6
 10
260.096108
 20
145.581698
 11
260.182040
 21
145.527948
  0
LINE
  8
CSLAYER1
  6
CONTINUOUS
 62
     6
 10
260.182040
 20
145.527948
 11
260.268159
 21
145.468723
  0
LINE
  8
CSLAYER1
  6
CONTINUOUS
 62
     6
 10
260.268159
 20
145.468723
 11
260.353195
 21
145.404686
  0
LINE
  8
CSLAYER1
  6
CONTINUOUS
 62
     6
 10
260.353195
 20
145.404686
 11
260.435878
 21
145.336495
  0
LINE
  8
CSLAYER1
  6
CONTINUOUS
 62
     6
 10
260.435878
 20
145.336495
 11
260.514937
 21
145.264812
  0
LINE
  8
CSLAYER1
  6
CONTINUOUS
 62
     6
 10
260.514937
 20
145.264812
 11
260.589103
 21
145.190296
  0
LINE
  8
CSLAYER1
  6
CONTINUOUS
 62
     6
 10
260.589103
 20
145.190296
 11
260.657106
 21
145.113609
  0
LINE
  8
CSLAYER1
  6
CONTINUOUS
 62
     6
 10
260.657106
 20
145.113609
 11
260.717675
 21
145.035410
  0
LINE
  8
CSLAYER1
  6
CONTINUOUS
 62
     6
 10
260.717675
 20
145.035410
 11
260.769542
 21
144.956360
  0
LINE
  8
CSLAYER1
  6
CONTINUOUS
 62
     6
 10
260.769542
 20
144.956360
 11
260.785449
 21
144.928753
  0
LINE
  8
CSLAYER1
  6
CONTINUOUS
 62
     6
 10
260.785449
 20
144.928753
 11
260.801102
 21
144.900060
  0
LINE
  8
CSLAYER1
  6
CONTINUOUS
 62
     6
 10
260.801102
 20
144.900060
 11
260.816544
 21
144.870447
  0
LINE
  8
CSLAYER1
  6
CONTINUOUS
 62
     6
 10
260.816544
 20
144.870447
 11
260.831817
 21
144.840080
  0
LINE
  8
CSLAYER1
  6
CONTINUOUS
 62
     6
 10
260.831817
 20
144.840080
 11
260.846963
 21
144.809129
  0
LINE
  8
CSLAYER1
  6
CONTINUOUS
 62
     6
 10
260.846963
 20
144.809129
 11
260.862023
 21
144.777759
  0
LINE
  8
CSLAYER1
  6
CONTINUOUS
 62
     6
 10
260.862023
 20
144.777759
 11
260.877040
 21
144.746137
  0
LINE
  8
CSLAYER1
  6
CONTINUOUS
 62
     6
 10
260.877040
 20
144.746137
 11
260.892055
 21
144.714432
  0
LINE
  8
CSLAYER1
  6
CONTINUOUS
 62
     6
 10
260.892055
 20
144.714432
 11
260.907111
 21
144.682810
  0
LINE
  8
CSLAYER1
  6
CONTINUOUS
 62
     6
 10
260.907111
 20
144.682810
 11
260.922249
 21
144.651438
  0
LINE
  8
CSLAYER1
  6
CONTINUOUS
 62
     6
 10
260.922249
 20
144.651438
 11
260.937511
 21
144.620484
  0
LINE
  8
CSLAYER1
  6
CONTINUOUS
 62
     6
 10
260.937511
 20
144.620484
 11
260.978332
 21
144.542347
  0
LINE
  8
CSLAYER1
  6
CONTINUOUS
 62
     6
 10
260.978332
 20
144.542347
 11
261.021667
 21
144.465814
  0
LINE
  8
CSLAYER1
  6
CONTINUOUS
 62
     6
 10
261.021667
 20
144.465814
 11
261.067266
 21
144.390726
  0
LINE
  8
CSLAYER1
  6
CONTINUOUS
 62
     6
 10
261.067266
 20
144.390726
 11
261.114876
 21
144.316921
  0
LINE
  8
CSLAYER1
  6
CONTINUOUS
 62
     6
 10
261.114876
 20
144.316921
 11
261.164246
 21
144.244240
  0
LINE
  8
CSLAYER1
  6
CONTINUOUS
 62
     6
 10
261.164246
 20
144.244240
 11
261.215125
 21
144.172521
  0
LINE
  8
CSLAYER1
  6
CONTINUOUS
 62
     6
 10
261.215125
 20
144.172521
 11
261.267261
 21
144.101605
  0
LINE
  8
CSLAYER1
  6
CONTINUOUS
 62
     6
 10
261.267261
 20
144.101605
 11
261.320403
 21
144.031331
  0
LINE
  8
CSLAYER1
  6
CONTINUOUS
 62
     6
 10
261.320403
 20
144.031331
 11
261.374299
 21
143.961538
  0
LINE
  8
CSLAYER1
  6
CONTINUOUS
 62
     6
 10
261.374299
 20
143.961538
 11
261.428698
 21
143.892066
  0
LINE
  8
CSLAYER1
  6
CONTINUOUS
 62
     6
 10
261.428698
 20
143.892066
 11
261.480771
 21
143.826023
  0
LINE
  8
CSLAYER1
  6
CONTINUOUS
 62
     6
 10
261.480771
 20
143.826023
 11
261.608118
 21
143.935324
  0
LINE
  8
CSLAYER1
  6
CONTINUOUS
 62
     6
 10
261.608118
 20
143.935324
 11
261.744833
 21
144.053357
  0
LINE
  8
CSLAYER1
  6
CONTINUOUS
 62
     6
 10
261.744833
 20
144.053357
 11
261.880721
 21
144.172061
  0
LINE
  8
CSLAYER1
  6
CONTINUOUS
 62
     6
 10
261.880721
 20
144.172061
 11
262.015367
 21
144.291772
  0
LINE
  8
CSLAYER1
  6
CONTINUOUS
 62
     6
 10
262.015367
 20
144.291772
 11
262.148358
 21
144.412827
  0
LINE
  8
CSLAYER1
  6
CONTINUOUS
 62
     6
 10
262.148358
 20
144.412827
 11
262.279281
 21
144.535560
  0
LINE
  8
CSLAYER1
  6
CONTINUOUS
 62
     6
 10
262.279281
 20
144.535560
 11
262.407720
 21
144.660307
  0
LINE
  8
CSLAYER1
  6
CONTINUOUS
 62
     6
 10
262.407720
 20
144.660307
 11
262.533264
 21
144.787405
  0
LINE
  8
CSLAYER1
  6
CONTINUOUS
 62
     6
 10
262.533264
 20
144.787405
 11
262.655497
 21
144.917189
  0
LINE
  8
CSLAYER1
  6
CONTINUOUS
 62
     6
 10
262.655497
 20
144.917189
 11
262.774006
 21
145.049995
  0
LINE
  8
CSLAYER1
  6
CONTINUOUS
 62
     6
 10
262.774006
 20
145.049995
 11
262.888378
 21
145.186158
  0
LINE
  8
CSLAYER1
  6
CONTINUOUS
 62
     6
 10
262.888378
 20
145.186158
 11
263.024874
 21
145.360384
  0
LINE
  8
CSLAYER1
  6
CONTINUOUS
 62
     6
 10
263.024874
 20
145.360384
 11
263.157217
 21
145.541060
  0
LINE
  8
CSLAYER1
  6
CONTINUOUS
 62
     6
 10
263.157217
 20
145.541060
 11
263.285689
 21
145.726830
  0
LINE
  8
CSLAYER1
  6
CONTINUOUS
 62
     6
 10
263.285689
 20
145.726830
 11
263.410570
 21
145.916338
  0
LINE
  8
CSLAYER1
  6
CONTINUOUS
 62
     6
 10
263.410570
 20
145.916338
 11
263.532142
 21
146.108226
  0
LINE
  8
CSLAYER1
  6
CONTINUOUS
 62
     6
 10
263.532142
 20
146.108226
 11
263.650687
 21
146.301139
  0
LINE
  8
CSLAYER1
  6
CONTINUOUS
 62
     6
 10
263.650687
 20
146.301139
 11
263.766484
 21
146.493719
  0
LINE
  8
CSLAYER1
  6
CONTINUOUS
 62
     6
 10
263.766484
 20
146.493719
 11
263.879817
 21
146.684610
  0
LINE
  8
CSLAYER1
  6
CONTINUOUS
 62
     6
 10
263.879817
 20
146.684610
 11
263.990966
 21
146.872455
  0
LINE
  8
CSLAYER1
  6
CONTINUOUS
 62
     6
 10
263.990966
 20
146.872455
 11
264.100212
 21
147.055898
  0
LINE
  8
CSLAYER1
  6
CONTINUOUS
 62
     6
 10
264.100212
 20
147.055898
 11
264.207836
 21
147.233582
  0
LINE
  8
CSLAYER1
  6
CONTINUOUS
 62
     6
 10
264.207836
 20
147.233582
 11
264.313162
 21
147.399269
  0
LINE
  8
CSLAYER1
  6
CONTINUOUS
 62
     6
 10
264.313162
 20
147.399269
 11
264.427890
 21
147.569158
  0
LINE
  8
CSLAYER1
  6
CONTINUOUS
 62
     6
 10
264.427890
 20
147.569158
 11
264.550191
 21
147.741821
  0
LINE
  8
CSLAYER1
  6
CONTINUOUS
 62
     6
 10
264.550191
 20
147.741821
 11
264.678233
 21
147.915831
  0
LINE
  8
CSLAYER1
  6
CONTINUOUS
 62
     6
 10
264.678233
 20
147.915831
 11
264.810185
 21
148.089760
  0
LINE
  8
CSLAYER1
  6
CONTINUOUS
 62
     6
 10
264.810185
 20
148.089760
 11
264.944217
 21
148.262182
  0
LINE
  8
CSLAYER1
  6
CONTINUOUS
 62
     6
 10
264.944217
 20
148.262182
 11
265.078498
 21
148.431667
  0
LINE
  8
CSLAYER1
  6
CONTINUOUS
 62
     6
 10
265.078498
 20
148.431667
 11
265.211196
 21
148.596788
  0
LINE
  8
CSLAYER1
  6
CONTINUOUS
 62
     6
 10
265.211196
 20
148.596788
 11
265.340482
 21
148.756119
  0
LINE
  8
CSLAYER1
  6
CONTINUOUS
 62
     6
 10
265.340482
 20
148.756119
 11
265.464525
 21
148.908231
  0
LINE
  8
CSLAYER1
  6
CONTINUOUS
 62
     6
 10
265.464525
 20
148.908231
 11
265.633782
 21
149.115832
  0
ARC
  8
CSLAYER1
  6
CONTINUOUS
 62
     6
 10
264.551532
 20
148.686060
 40
1.164461
 50
21.658505
 51
86.024005
  0
ARC
  8
CSLAYER1
  6
CONTINUOUS
 62
     6
 10
263.585877
 20
149.336813
 40
1.164461
 50
26.024005
 51
86.024005
  0
ARC
  8
CSLAYER1
  6
CONTINUOUS
 62
     6
 10
264.713016
 20
151.009376
 40
1.164461
 50
206.024005
 51
266.024005
  0
LINE
  8
CSLAYER1
  6
CONTINUOUS
 62
     6
 10
263.666606
 20
150.498475
 11
263.545425
 21
150.350561
  0
LINE
  8
CSLAYER1
  6
CONTINUOUS
 62
     6
 10
263.545425
 20
150.350561
 11
263.416415
 21
150.193162
  0
ARC
  8
CSLAYER1
  6
CONTINUOUS
 62
     6
 10
265.476046
 20
150.092420
 40
1.200008
 50
30.461486
 51
90.461486
  0
LINE
  8
CSLAYER1
  6
CONTINUOUS
 62
     6
 10
273.869840
 20
162.543030
 11
273.425962
 21
163.243012
  0
LINE
  8
CSLAYER1
  6
CONTINUOUS
 62
     6
 10
273.925962
 20
163.243012
 11
274.369840
 21
162.543030
  0
ARC
  8
CSLAYER1
  6
CONTINUOUS
 62
     6
 10
276.573911
 20
162.643006
 40
0.100000
 50
270.000001
 51
359.942691
  0
LINE
  8
CSLAYER1
  6
CONTINUOUS
 62
     6
 10
276.673886
 20
162.643006
 11
276.673886
 21
163.143006
  0
ARC
  8
CSLAYER1
  6
CONTINUOUS
 62
     6
 10
276.573911
 20
163.143006
 40
0.100000
 50
0.000010
 51
90.000016
  0
LINE
  8
CSLAYER1
  6
CONTINUOUS
 62
     6
 10
286.773923
 20
161.243012
 11
286.773923
 21
165.243012
  0
LINE
  8
CSLAYER1
  6
CONTINUOUS
 62
     6
 10
286.773923
 20
161.243012
 11
299.773923
 21
161.243012
  0
LINE
  8
CSLAYER1
  6
CONTINUOUS
 62
     6
 10
260.988003
 20
144.525268
 11
258.737072
 21
142.086762
  0
LINE
  8
CSLAYER1
  6
CONTINUOUS
 62
     6
 10
258.264537
 20
142.653870
 11
260.707532
 21
145.048505
  0
LINE
  8
CSLAYER1
  6
CONTINUOUS
 62
     6
 10
260.396035
 20
145.369354
 11
257.650188
 21
142.866517
  0
LINE
  8
CSLAYER1
  6
CONTINUOUS
 62
     6
 10
252.310192
 20
144.945801
 11
254.536314
 21
147.922038
  0
LINE
  8
CSLAYER1
  6
CONTINUOUS
 62
     6
 10
253.970481
 20
148.068631
 11
251.624950
 21
145.394745
  0
LINE
  8
CSLAYER1
  6
CONTINUOUS
 62
     6
 10
251.081493
 20
145.914551
 11
253.553263
 21
148.316359
  0
LINE
  8
CSLAYER1
  6
CENTER
 62
     3
 10
421.619784
 20
159.280976
 11
464.774023
 21
159.280976
  0
LINE
  8
CSLAYER1
  6
CENTER
 62
     3
 10
421.697412
 20
251.204987
 11
464.774023
 21
251.204987
  0
LINE
  8
CSLAYER1
  6
CONTINUOUS
 62
     6
 10
671.132702
 20
134.243012
 11
714.212780
 21
134.243012
  0
LINE
  8
CSLAYER1
  6
CONTINUOUS
 62
     6
 10
825.272717
 20
134.243012
 11
782.212780
 21
134.243012
  0
LINE
  8
CSLAYER1
  6
CONTINUOUS
 62
     6
 10
699.412732
 20
149.523010
 11
704.792737
 21
164.343018
  0
LINE
  8
CSLAYER1
  6
CONTINUOUS
 62
     6
 10
707.132702
 20
150.263031
 11
709.632702
 21
157.163025
  0
LINE
  8
CSLAYER1
  6
CONTINUOUS
 62
     6
 10
710.412732
 20
146.243012
 11
675.432690
 21
146.243012
  0
ARC
  8
CSLAYER1
  6
CONTINUOUS
 62
     6
 10
694.712780
 20
151.243012
 40
5.000000
 50
270.000001
 51
339.989987
  0
ARC
  8
CSLAYER1
  6
CONTINUOUS
 62
     6
 10
709.952771
 20
149.243012
 40
3.000000
 50
159.990010
 51
270.000001
  0
LINE
  8
CSLAYER1
  6
CONTINUOUS
 62
     6
 10
797.552746
 20
148.063019
 11
791.632702
 21
164.343018
  0
LINE
  8
CSLAYER1
  6
CONTINUOUS
 62
     6
 10
789.292737
 20
150.263031
 11
786.792737
 21
157.163025
  0
LINE
  8
CSLAYER1
  6
CONTINUOUS
 62
     6
 10
786.012707
 20
146.243012
 11
820.992810
 21
146.243012
  0
ARC
  8
CSLAYER1
  6
CONTINUOUS
 62
     6
 10
786.472790
 20
149.243012
 40
3.000000
 50
-89.999999
 51
20.000006
  0
CIRCLE
  8
CSLAYER1
  6
CONTINUOUS
 62
     6
 10
748.212780
 20
224.243012
 40
25.000000
  0
ARC
  8
CSLAYER1
  6
CONTINUOUS
 62
     6
 10
748.221692
 20
-61.751983
 40
200.000000
 50
80.180000
 51
99.809998
  0
LINE
  8
CSLAYER1
  6
CONTINUOUS
 62
     6
 10
713.392712
 20
143.503021
 11
714.212780
 21
134.243012
  0
LINE
  8
CSLAYER1
  6
CONTINUOUS
 62
     6
 10
783.012707
 20
143.503021
 11
782.212780
 21
134.243012
  0
ARC
  8
CSLAYER1
  6
CONTINUOUS
 62
     6
 10
710.412732
 20
143.243012
 40
3.000000
 50
5.000000
 51
90.000003
  0
ARC
  8
CSLAYER1
  6
CONTINUOUS
 62
     6
 10
786.012707
 20
143.243012
 40
3.000000
 50
90.000003
 51
175.000006
  0
ARC
  8
CSLAYER1
  6
CONTINUOUS
 62
     6
 10
748.212780
 20
163.243012
 40
110.000000
 50
67.790003
 51
112.199996
  0
ARC
  8
CSLAYER1
  6
CONTINUOUS
 62
     6
 10
804.212780
 20
205.243012
 40
122.000000
 50
159.600006
 51
172.119988
  0
ARC
  8
CSLAYER1
  6
CONTINUOUS
 62
     6
 10
748.212780
 20
163.243012
 40
104.500000
 50
69.230005
 51
110.760000
  0
ARC
  8
CSLAYER1
  6
CONTINUOUS
 62
     6
 10
772.712780
 20
210.743012
 40
84.000000
 50
152.679986
 51
185.630007
  0
ARC
  8
CSLAYER1
  6
CONTINUOUS
 62
     6
 10
812.212780
 20
224.243012
 40
125.000000
 50
190.009989
 51
208.899997
  0
ARC
  8
CSLAYER1
  6
CONTINUOUS
 62
     6
 10
748.212780
 20
271.243012
 40
123.000000
 50
255.759985
 51
284.230017
  0
ARC
  8
CSLAYER1
  6
CONTINUOUS
 62
     6
 10
692.212780
 20
205.243012
 40
122.000000
 50
7.870000
 51
20.390000
  0
ARC
  8
CSLAYER1
  6
CONTINUOUS
 62
     6
 10
723.712780
 20
210.743012
 40
84.000000
 50
-5.640005
 51
27.310002
  0
ARC
  8
CSLAYER1
  6
CONTINUOUS
 62
     6
 10
684.212780
 20
224.243012
 40
125.000000
 50
331.000010
 51
349.980013
  0
ARC
  8
CSLAYER1
  6
CONTINUOUS
 62
     6
 10
723.872693
 20
175.283020
 40
24.000000
 50
241.079996
 51
255.759985
  0
ARC
  8
CSLAYER1
  6
CONTINUOUS
 62
     6
 10
711.512707
 20
156.483002
 40
2.000000
 50
56.680000
 51
159.990010
  0
ARC
  8
CSLAYER1
  6
CONTINUOUS
 62
     6
 10
700.092785
 20
166.043030
 40
5.000000
 50
-20.010013
 51
21.210015
  0
ARC
  8
CSLAYER1
  6
CONTINUOUS
 62
     6
 10
710.812756
 20
151.643006
 40
3.000000
 50
61.080005
 51
159.990010
  0
ARC
  8
CSLAYER1
  6
CONTINUOUS
 62
     6
 10
772.552746
 20
175.283020
 40
24.000000
 50
284.230017
 51
298.900006
  0
ARC
  8
CSLAYER1
  6
CONTINUOUS
 62
     6
 10
784.912732
 20
156.483002
 40
2.000000
 50
19.999999
 51
123.309995
  0
ARC
  8
CSLAYER1
  6
CONTINUOUS
 62
     6
 10
796.332776
 20
166.043030
 40
5.000000
 50
158.780001
 51
200.000001
  0
ARC
  8
CSLAYER1
  6
CONTINUOUS
 62
     6
 10
798.012707
 20
161.403015
 40
5.000000
 50
151.090000
 51
199.990002
  0
ARC
  8
CSLAYER1
  6
CONTINUOUS
 62
     6
 10
785.612805
 20
151.643006
 40
3.000000
 50
19.999999
 51
118.910001
  0
ARC
  8
CSLAYER1
  6
CONTINUOUS
 62
     6
 10
698.412732
 20
161.403015
 40
5.000000
 50
-20.010013
 51
28.900016
  0
ARC
  8
CSLAYER1
  6
CONTINUOUS
 62
     6
 10
778.432751
 20
237.303009
 40
30.000000
 50
20.390000
 51
67.790003
  0
ARC
  8
CSLAYER1
  6
CONTINUOUS
 62
     6
 10
776.572766
 20
238.043030
 40
24.500000
 50
27.309999
 51
69.230005
  0
ARC
  8
CSLAYER1
  6
CONTINUOUS
 62
     6
 10
717.972790
 20
237.303009
 40
30.000000
 50
112.199996
 51
159.600006
  0
ARC
  8
CSLAYER1
  6
CONTINUOUS
 62
     6
 10
719.852795
 20
238.043030
 40
24.500000
 50
110.760000
 51
152.679986
  0
ARC
  8
CSLAYER1
  6
CONTINUOUS
 62
     6
 10
800.312756
 20
149.243012
 40
3.000000
 50
199.990002
 51
270.000001
  0
ARC
  8
CSLAYER1
  6
CONTINUOUS
 62
     6
 10
748.212780
 20
224.243012
 40
11.000000
 50
-164.179993
 51
164.170027
  0
LINE
  8
CSLAYER1
  6
CONTINUOUS
 62
     6
 10
683.372693
 20
221.963013
 11
671.132702
 21
134.243012
  0
LINE
  8
CSLAYER1
  6
CONTINUOUS
 62
     6
 10
813.052746
 20
221.963013
 11
825.272717
 21
134.243012
  0
ARC
  8
CSLAYER1
  6
CONTINUOUS
 62
     6
 10
820.992810
 20
143.243012
 40
3.000000
 50
7.930000
 51
90.000003
  0
ARC
  8
CSLAYER1
  6
CONTINUOUS
 62
     6
 10
675.432690
 20
143.243012
 40
3.000000
 50
90.000003
 51
172.059992
  0
ARC
  8
CSLAYER1
  6
CONTINUOUS
 62
     6
 10
794.172741
 20
251.203003
 40
10.000000
 50
10.050000
 51
73.010003
  0
ARC
  8
CSLAYER1
  6
CONTINUOUS
 62
     6
 10
702.252697
 20
251.203003
 40
10.000000
 50
106.970004
 51
169.939997
  0
ARC
  8
CSLAYER1
  6
CONTINUOUS
 62
     6
 10
748.212780
 20
205.243012
 40
80.000000
 50
-25.799991
 51
205.792425
  0
LINE
  8
CSLAYER1
  6
CENTER
 62
     3
 10
748.212780
 20
291.243012
 11
748.212780
 21
132.248016
  0
LINE
  8
CSLAYER1
  6
CENTER
 62
     3
 10
662.212780
 20
205.243012
 11
834.212780
 21
205.243012
  0
LINE
  8
CSLAYER1
  6
CENTER
 62
     3
 10
813.212780
 20
152.178709
 11
813.212780
 21
128.243012
  0
LINE
  8
CSLAYER1
  6
CENTER
 62
     3
 10
683.212780
 20
152.243012
 11
683.212780
 21
128.243012
  0
LINE
  8
CSLAYER1
  6
DASHED
 62
     6
 10
677.712780
 20
146.243012
 11
677.712780
 21
134.243012
  0
LINE
  8
CSLAYER1
  6
DASHED
 62
     6
 10
688.712780
 20
146.243012
 11
688.712780
 21
134.243012
  0
LINE
  8
CSLAYER1
  6
DASHED
 62
     6
 10
818.712780
 20
146.243012
 11
818.712780
 21
134.243012
  0
LINE
  8
CSLAYER1
  6
DASHED
 62
     6
 10
807.712780
 20
146.243012
 11
807.712780
 21
134.243012
  0
LINE
  8
CSLAYER1
  6
CENTER
 62
     3
 10
728.712780
 20
224.243012
 11
765.212780
 21
224.243012
  0
LINE
  8
CSLAYER1
  6
CONTINUOUS
 62
     6
 10
434.773910
 20
285.243012
 11
434.773971
 21
137.243012
  0
LINE
  8
CSLAYER1
  6
CONTINUOUS
 62
     6
 10
447.773973
 20
285.242981
 11
447.773973
 21
137.242981
  0
LINE
  8
CSLAYER1
  6
CONTINUOUS
 62
     6
 10
434.774002
 20
137.242981
 11
447.773942
 21
137.242951
  0
LINE
  8
CSLAYER1
  6
CONTINUOUS
 62
     6
 10
520.773973
 20
273.243012
 11
520.773973
 21
146.443024
  0
LINE
  8
CSLAYER1
  6
CONTINUOUS
 62
     6
 10
592.393968
 20
249.243012
 11
593.273973
 21
249.243012
  0
ARC
  8
CSLAYER1
  6
CONTINUOUS
 62
     6
 10
593.273973
 20
246.743012
 40
2.500000
 50
0.000000
 51
90.000003
  0
ARC
  8
CSLAYER1
  6
CONTINUOUS
 62
     6
 10
593.273973
 20
201.743012
 40
2.500000
 50
-79.070003
 51
0.000010
  0
LINE
  8
CSLAYER1
  6
CONTINUOUS
 62
     6
 10
505.273973
 20
134.243012
 11
595.273973
 21
134.243012
  0
ARC
  8
CSLAYER1
  6
CONTINUOUS
 62
     6
 10
-106.219069
 20
205.248017
 40
700.000000
 50
-3.359979
 51
3.890000
  0
LINE
  8
CSLAYER1
  6
CONTINUOUS
 62
     6
 10
522.773973
 20
146.523010
 11
522.773973
 21
151.923004
  0
ARC
  8
CSLAYER1
  6
CONTINUOUS
 62
     6
 10
292.773958
 20
147.023010
 40
240.000000
 50
1.100000
 51
18.190001
  0
ARC
  8
CSLAYER1
  6
CONTINUOUS
 62
     6
 10
559.573961
 20
214.423004
 40
57.000000
 50
66.959999
 51
68.610002
  0
LINE
  8
CSLAYER1
  6
CONTINUOUS
 62
     6
 10
521.853960
 20
168.743012
 11
530.093950
 21
168.743012
  0
LINE
  8
CSLAYER1
  6
CONTINUOUS
 62
     6
 10
521.853960
 20
151.923004
 11
530.093950
 21
151.923004
  0
ARC
  8
CSLAYER1
  6
CONTINUOUS
 62
     6
 10
575.593950
 20
165.243012
 40
17.000000
 50
313.640019
 51
356.640021
  0
ARC
  8
CSLAYER1
  6
CONTINUOUS
 62
     6
 10
558.553972
 20
306.103028
 40
142.380005
 50
273.560005
 51
280.299981
  0
ARC
  8
CSLAYER1
  6
CONTINUOUS
 62
     6
 10
575.213975
 20
251.223023
 40
17.000000
 50
5.310000
 51
66.959999
  0
LINE
  8
CSLAYER1
  6
CONTINUOUS
 62
     6
 10
595.773973
 20
236.243012
 11
597.773973
 21
236.243012
  0
LINE
  8
CSLAYER1
  6
CONTINUOUS
 62
     6
 10
595.773973
 20
212.243012
 11
597.773973
 21
212.243012
  0
LINE
  8
CSLAYER1
  6
CONTINUOUS
 62
     6
 10
637.773942
 20
235.243012
 11
637.773942
 21
213.243012
  0
LINE
  8
CSLAYER1
  6
CONTINUOUS
 62
     6
 10
597.773973
 20
235.243012
 11
637.773942
 21
235.243012
  0
LINE
  8
CSLAYER1
  6
CONTINUOUS
 62
     6
 10
597.773973
 20
213.243012
 11
637.773942
 21
213.243012
  0
LINE
  8
CSLAYER1
  6
CONTINUOUS
 62
     6
 10
605.773973
 20
227.243012
 11
637.773942
 21
227.243012
  0
LINE
  8
CSLAYER1
  6
CONTINUOUS
 62
     6
 10
605.773973
 20
221.243012
 11
637.773942
 21
221.243012
  0
LINE
  8
CSLAYER1
  6
CONTINUOUS
 62
     6
 10
594.453966
 20
143.503021
 11
595.273973
 21
134.243012
  0
LINE
  8
CSLAYER1
  6
CONTINUOUS
 62
     6
 10
571.413957
 20
146.583008
 11
591.473955
 21
146.243012
  0
ARC
  8
CSLAYER1
  6
CONTINUOUS
 62
     6
 10
591.473955
 20
143.243012
 40
3.000000
 50
5.000000
 51
90.000003
  0
ARC
  8
CSLAYER1
  6
CONTINUOUS
 62
     6
 10
665.073991
 20
171.843018
 40
80.000000
 50
184.009995
 51
197.070014
  0
ARC
  8
CSLAYER1
  6
CONTINUOUS
 62
     6
 10
591.473955
 20
149.243012
 40
3.000000
 50
197.070014
 51
269.000006
  0
ARC
  8
CSLAYER1
  6
CONTINUOUS
 62
     6
 10
729.774003
 20
198.243012
 40
170.000000
 50
180.000005
 51
196.419998
  0
LINE
  8
CSLAYER1
  6
CONTINUOUS
 62
     6
 10
520.773973
 20
273.243012
 11
530.013963
 21
273.083008
  0
ARC
  8
CSLAYER1
  6
CONTINUOUS
 62
     6
 10
578.613969
 20
268.483002
 40
1.500000
 50
-32.290010
 51
83.710016
  0
ARC
  8
CSLAYER1
  6
CONTINUOUS
 62
     6
 10
520.780961
 20
-256.832962
 40
530.000000
 50
83.709999
 51
89.000001
  0
ARC
  8
CSLAYER1
  6
CONTINUOUS
 62
     6
 10
689.773942
 20
198.243012
 40
130.000000
 50
147.710013
 51
180.000005
  0
ARC
  8
CSLAYER1
  6
CONTINUOUS
 62
     6
 10
580.533952
 20
267.963013
 40
0.500000
 50
164.670001
 51
248.610007
  0
LINE
  8
CSLAYER1
  6
CONTINUOUS
 62
     6
 10
595.773973
 20
246.743012
 11
595.773973
 21
201.743012
  0
ARC
  8
CSLAYER1
  6
CONTINUOUS
 62
     6
 10
571.493974
 20
151.583008
 40
5.000000
 50
196.419998
 51
269.000006
  0
ARC
  8
CSLAYER1
  6
CONTINUOUS
 62
     6
 10
588.273973
 20
166.243012
 40
3.000000
 50
129.080002
 51
180.000005
  0
LINE
  8
CSLAYER1
  6
CONTINUOUS
 62
     6
 10
506.073961
 20
143.503021
 11
505.273973
 21
134.243012
  0
LINE
  8
CSLAYER1
  6
CONTINUOUS
 62
     6
 10
509.073961
 20
146.243012
 11
527.813951
 21
146.563019
  0
ARC
  8
CSLAYER1
  6
CONTINUOUS
 62
     6
 10
509.073961
 20
143.243012
 40
3.000000
 50
90.000003
 51
175.000006
  0
ARC
  8
CSLAYER1
  6
CONTINUOUS
 62
     6
 10
527.733964
 20
151.563019
 40
5.000000
 50
-89.000005
 51
1.099998
  0
LINE
  8
CSLAYER1
  6
CONTINUOUS
 62
     6
 10
519.893968
 20
168.743012
 11
516.153947
 21
168.743012
  0
LINE
  8
CSLAYER1
  6
CONTINUOUS
 62
     6
 10
519.893968
 20
151.923004
 11
516.153947
 21
151.923004
  0
LINE
  8
CSLAYER1
  6
CONTINUOUS
 62
     6
 10
504.273973
 20
268.743012
 11
504.273973
 21
141.743012
  0
LINE
  8
CSLAYER1
  6
CONTINUOUS
 62
     6
 10
504.273973
 20
268.743012
 11
514.773973
 21
268.743012
  0
ARC
  8
CSLAYER1
  6
CONTINUOUS
 62
     6
 10
516.773973
 20
271.103028
 40
2.000000
 50
91.999998
 51
180.000005
  0
LINE
  8
CSLAYER1
  6
CONTINUOUS
 62
     6
 10
516.693956
 20
273.103028
 11
520.773973
 21
273.243012
  0
LINE
  8
CSLAYER1
  6
CONTINUOUS
 62
     6
 10
504.273973
 20
141.743012
 11
505.933977
 21
141.743012
  0
LINE
  8
CSLAYER1
  6
CONTINUOUS
 62
     6
 10
514.773973
 20
146.343018
 11
514.773973
 21
271.103028
  0
LINE
  8
CSLAYER1
  6
CONTINUOUS
 62
     6
 10
458.693956
 20
270.423004
 11
504.273973
 21
269.243012
  0
LINE
  8
CSLAYER1
  6
CONTINUOUS
 62
     6
 10
463.813951
 20
272.283020
 11
460.633958
 21
272.363007
  0
ARC
  8
CSLAYER1
  6
CONTINUOUS
 62
     6
 10
460.773973
 20
277.363007
 40
5.000000
 50
180.000005
 51
268.500009
  0
ARC
  8
CSLAYER1
  6
CONTINUOUS
 62
     6
 10
463.773973
 20
270.283020
 40
2.000000
 50
28.420000
 51
88.499997
  0
LINE
  8
CSLAYER1
  6
CONTINUOUS
 62
     6
 10
458.693956
 20
140.063019
 11
504.273973
 21
141.243012
  0
LINE
  8
CSLAYER1
  6
CONTINUOUS
 62
     6
 10
465.773973
 20
199.243012
 11
465.773973
 21
211.243012
  0
LINE
  8
CSLAYER1
  6
CONTINUOUS
 62
     6
 10
480.273973
 20
164.403015
 11
480.273973
 21
154.143006
  0
LINE
  8
CSLAYER1
  6
CONTINUOUS
 62
     6
 10
480.273973
 20
256.323029
 11
480.273973
 21
246.063019
  0
LINE
  8
CSLAYER1
  6
CONTINUOUS
 62
     6
 10
463.773973
 20
213.243012
 11
455.773973
 21
213.243012
  0
LINE
  8
CSLAYER1
  6
CONTINUOUS
 62
     6
 10
463.773973
 20
197.243012
 11
455.773973
 21
197.243012
  0
LINE
  8
CSLAYER1
  6
CONTINUOUS
 62
     6
 10
475.393968
 20
261.323029
 11
455.773973
 21
261.843018
  0
LINE
  8
CSLAYER1
  6
CONTINUOUS
 62
     6
 10
475.393968
 20
241.063019
 11
455.773973
 21
240.563019
  0
LINE
  8
CSLAYER1
  6
CONTINUOUS
 62
     6
 10
475.393968
 20
169.403015
 11
455.773973
 21
169.923004
  0
LINE
  8
CSLAYER1
  6
CONTINUOUS
 62
     6
 10
475.393968
 20
149.143006
 11
455.773973
 21
148.643006
  0
ARC
  8
CSLAYER1
  6
CONTINUOUS
 62
     6
 10
475.273973
 20
164.403015
 40
5.000000
 50
0.000000
 51
88.499997
  0
ARC
  8
CSLAYER1
  6
CONTINUOUS
 62
     6
 10
475.273973
 20
154.143006
 40
5.000000
 50
-88.500008
 51
0.000010
  0
ARC
  8
CSLAYER1
  6
CONTINUOUS
 62
     6
 10
475.273973
 20
256.323029
 40
5.000000
 50
0.000000
 51
88.489998
  0
ARC
  8
CSLAYER1
  6
CONTINUOUS
 62
     6
 10
475.273973
 20
246.063019
 40
5.000000
 50
-88.500008
 51
0.000010
  0
ARC
  8
CSLAYER1
  6
CONTINUOUS
 62
     6
 10
463.773973
 20
211.243012
 40
2.000000
 50
0.000000
 51
90.000003
  0
ARC
  8
CSLAYER1
  6
CONTINUOUS
 62
     6
 10
463.773973
 20
199.243012
 40
2.000000
 50
-89.999999
 51
0.000010
  0
ARC
  8
CSLAYER1
  6
CONTINUOUS
 62
     6
 10
458.773973
 20
273.423004
 40
3.000000
 50
180.000005
 51
268.500009
  0
ARC
  8
CSLAYER1
  6
CONTINUOUS
 62
     6
 10
467.293962
 20
272.203003
 40
2.000000
 50
208.419999
 51
268.500009
  0
LINE
  8
CSLAYER1
  6
CENTER
 62
     3
 10
582.773973
 20
152.243012
 11
582.773973
 21
128.243012
  0
LINE
  8
CSLAYER1
  6
CENTER
 62
     3
 10
517.773973
 20
152.243012
 11
517.773973
 21
128.243012
  0
LINE
  8
CSLAYER1
  6
CENTER
 62
     3
 10
641.112016
 20
224.243012
 11
588.523162
 21
224.243012
  0
LINE
  8
CSLAYER1
  6
DASHED
 62
     6
 10
588.273973
 20
146.303009
 11
588.273973
 21
134.243012
  0
LINE
  8
CSLAYER1
  6
DASHED
 62
     6
 10
577.273973
 20
146.483002
 11
577.273973
 21
134.243012
  0
LINE
  8
CSLAYER1
  6
DASHED
 62
     6
 10
512.273973
 20
146.303009
 11
512.273973
 21
134.243012
  0
LINE
  8
CSLAYER1
  6
DASHED
 62
     6
 10
523.273973
 20
146.483002
 11
523.273973
 21
134.243012
  0
ARC
  8
CSLAYER1
  6
CONTINUOUS
 62
     6
 10
458.768571
 20
137.063019
 40
3.000000
 50
91.489995
 51
176.560185
  0
LINE
  8
CSLAYER1
  6
CONTINUOUS
 62
     6
 10
463.813951
 20
138.183014
 11
460.633958
 21
138.103028
  0
ARC
  8
CSLAYER1
  6
CONTINUOUS
 62
     6
 10
460.773973
 20
133.103028
 40
5.000000
 50
91.489995
 51
124.106163
  0
ARC
  8
CSLAYER1
  6
CONTINUOUS
 62
     6
 10
463.773973
 20
140.183014
 40
2.000000
 50
271.489993
 51
331.570003
  0
ARC
  8
CSLAYER1
  6
CONTINUOUS
 62
     6
 10
467.293962
 20
138.283020
 40
2.000000
 50
91.489995
 51
151.570012
  0
LINE
  8
CSLAYER1
  6
CONTINUOUS
 62
     6
 10
447.773973
 20
137.243012
 11
457.970323
 21
137.243012
  0
LINE
  8
CSLAYER1
  6
CONTINUOUS
 62
     6
 10
455.773973
 20
282.243012
 11
455.773973
 21
137.243012
  0
ARC
  8
CSLAYER1
  6
CONTINUOUS
 62
     6
 10
431.226702
 20
256.834152
 40
3.752777
 50
164.553352
 51
210.000000
  0
ARC
  8
CSLAYER1
  6
CONTINUOUS
 62
     6
 10
441.730867
 20
251.204987
 40
14.256942
 50
164.738520
 51
195.261480
  0
ARC
  8
CSLAYER1
  6
CONTINUOUS
 62
     6
 10
431.226702
 20
245.575822
 40
3.752777
 50
150.000000
 51
195.446648
  0
LINE
  8
CSLAYER1
  6
CONTINUOUS
 62
     6
 10
427.976702
 20
258.710540
 11
432.773925
 21
258.710540
  0
LINE
  8
CSLAYER1
  6
CONTINUOUS
 62
     6
 10
427.976702
 20
254.957764
 11
432.773925
 21
254.957764
  0
LINE
  8
CSLAYER1
  6
CONTINUOUS
 62
     6
 10
427.976702
 20
247.452210
 11
432.773925
 21
247.452210
  0
LINE
  8
CSLAYER1
  6
CONTINUOUS
 62
     6
 10
427.976702
 20
243.699433
 11
432.773925
 21
243.699433
  0
LINE
  8
CSLAYER1
  6
CONTINUOUS
 62
     6
 10
427.473925
 20
257.509987
 11
427.473925
 21
244.899987
  0
LINE
  8
CSLAYER1
  6
CONTINUOUS
 62
     6
 10
432.773925
 20
243.504987
 11
432.773925
 21
258.904987
  0
LINE
  8
CSLAYER1
  6
CONTINUOUS
 62
     6
 10
427.473925
 20
257.509987
 11
427.976702
 21
258.710540
  0
LINE
  8
CSLAYER1
  6
CONTINUOUS
 62
     6
 10
427.473925
 20
244.899987
 11
427.976702
 21
243.699433
  0
LINE
  8
CSLAYER1
  6
CONTINUOUS
 62
     6
 10
432.773925
 20
258.904987
 11
434.773925
 21
258.904987
  0
LINE
  8
CSLAYER1
  6
CONTINUOUS
 62
     6
 10
434.773925
 20
243.504987
 11
432.773925
 21
243.504987
  0
LINE
  8
CSLAYER1
  6
CONTINUOUS
 62
     6
 10
434.773925
 20
258.904987
 11
434.773925
 21
243.504987
  0
LINE
  8
CSLAYER1
  6
CONTINUOUS
 62
     6
 10
432.773925
 20
249.972987
 11
434.773925
 21
250.588987
  0
LINE
  8
CSLAYER1
  6
CONTINUOUS
 62
     6
 10
432.773925
 20
251.820987
 11
434.773925
 21
252.436987
  0
ARC
  8
CSLAYER1
  6
CONTINUOUS
 62
     6
 10
431.226737
 20
164.910141
 40
3.752777
 50
164.553352
 51
210.000000
  0
ARC
  8
CSLAYER1
  6
CONTINUOUS
 62
     6
 10
441.730902
 20
159.280976
 40
14.256942
 50
164.738520
 51
195.261480
  0
ARC
  8
CSLAYER1
  6
CONTINUOUS
 62
     6
 10
431.226737
 20
153.651810
 40
3.752777
 50
150.000000
 51
195.446648
  0
LINE
  8
CSLAYER1
  6
CONTINUOUS
 62
     6
 10
427.976737
 20
166.786529
 11
432.773960
 21
166.786529
  0
LINE
  8
CSLAYER1
  6
CONTINUOUS
 62
     6
 10
427.976737
 20
163.033752
 11
432.773960
 21
163.033752
  0
LINE
  8
CSLAYER1
  6
CONTINUOUS
 62
     6
 10
427.976737
 20
155.528199
 11
432.773960
 21
155.528199
  0
LINE
  8
CSLAYER1
  6
CONTINUOUS
 62
     6
 10
427.976737
 20
151.775422
 11
432.773960
 21
151.775422
  0
LINE
  8
CSLAYER1
  6
CONTINUOUS
 62
     6
 10
427.473960
 20
165.585976
 11
427.473960
 21
152.975976
  0
LINE
  8
CSLAYER1
  6
CONTINUOUS
 62
     6
 10
432.773960
 20
151.580976
 11
432.773960
 21
166.980976
  0
LINE
  8
CSLAYER1
  6
CONTINUOUS
 62
     6
 10
427.473960
 20
165.585976
 11
427.976737
 21
166.786529
  0
LINE
  8
CSLAYER1
  6
CONTINUOUS
 62
     6
 10
427.473960
 20
152.975976
 11
427.976737
 21
151.775422
  0
LINE
  8
CSLAYER1
  6
CONTINUOUS
 62
     6
 10
432.773960
 20
166.980976
 11
434.773960
 21
166.980976
  0
LINE
  8
CSLAYER1
  6
CONTINUOUS
 62
     6
 10
434.773960
 20
151.580976
 11
432.773960
 21
151.580976
  0
LINE
  8
CSLAYER1
  6
CONTINUOUS
 62
     6
 10
434.773960
 20
166.980976
 11
434.773960
 21
151.580976
  0
LINE
  8
CSLAYER1
  6
CONTINUOUS
 62
     6
 10
432.773960
 20
158.048976
 11
434.773960
 21
158.664976
  0
LINE
  8
CSLAYER1
  6
CONTINUOUS
 62
     6
 10
432.773960
 20
159.896976
 11
434.773960
 21
160.512976
  0
LINE
  8
CSLAYER1
  6
CONTINUOUS
 62
     6
 10
740.712780
 20
227.243012
 11
740.712780
 21
221.243012
  0
LINE
  8
CSLAYER1
  6
CONTINUOUS
 62
     6
 10
734.712780
 20
227.243012
 11
740.712780
 21
227.243012
  0
LINE
  8
CSLAYER1
  6
CONTINUOUS
 62
     6
 10
734.712780
 20
221.243012
 11
740.712780
 21
221.243012
  0
LINE
  8
CSLAYER1
  6
CONTINUOUS
 62
     6
 10
734.712780
 20
227.243012
 11
734.712780
 21
221.243012
  0
LINE
  8
CSLAYER1
  6
CONTINUOUS
 62
     6
 10
597.773942
 20
236.243012
 11
597.773942
 21
212.243012
  0
ARC
  8
CSLAYER1
  6
CONTINUOUS
 62
     6
 10
605.773942
 20
224.243012
 40
3.000000
 50
90.000000
 51
270.000000
  0
LINE
  8
CSLAYER1
  6
CONTINUOUS
 62
     6
 10
209.189474
 20
134.243012
 11
166.109396
 21
134.243012
  0
LINE
  8
CSLAYER1
  6
CONTINUOUS
 62
     6
 10
55.049459
 20
134.243012
 11
98.109396
 21
134.243012
  0
LINE
  8
CSLAYER1
  6
CONTINUOUS
 62
     6
 10
186.137167
 20
146.243012
 11
204.889486
 21
146.243012
  0
LINE
  8
CSLAYER1
  6
CONTINUOUS
 62
     6
 10
78.081625
 20
146.243012
 11
59.329367
 21
146.243012
  0
LINE
  8
CSLAYER1
  6
CONTINUOUS
 62
     6
 10
166.375077
 20
137.243012
 11
166.109396
 21
134.243012
  0
LINE
  8
CSLAYER1
  6
CONTINUOUS
 62
     6
 10
97.850241
 20
137.243012
 11
98.109396
 21
134.243012
  0
ARC
  8
CSLAYER1
  6
CONTINUOUS
 62
     6
 10
59.329367
 20
143.243012
 40
3.000000
 50
89.999997
 51
172.070000
  0
ARC
  8
CSLAYER1
  6
CONTINUOUS
 62
     6
 10
204.889486
 20
143.243012
 40
3.000000
 50
7.940008
 51
89.999997
  0
ARC
  8
CSLAYER1
  6
CONTINUOUS
 62
     6
 10
132.109396
 20
205.243012
 40
80.000000
 50
-58.211669
 51
238.211669
  0
LINE
  8
CSLAYER1
  6
CENTER
 62
     3
 10
67.109396
 20
152.178709
 11
67.109396
 21
128.243012
  0
LINE
  8
CSLAYER1
  6
CENTER
 62
     3
 10
197.109396
 20
152.243012
 11
197.109396
 21
128.243012
  0
LINE
  8
CSLAYER1
  6
DASHED
 62
     6
 10
202.609396
 20
146.243012
 11
202.609396
 21
134.243012
  0
LINE
  8
CSLAYER1
  6
DASHED
 62
     6
 10
191.609396
 20
146.243012
 11
191.609396
 21
134.243012
  0
LINE
  8
CSLAYER1
  6
DASHED
 62
     6
 10
61.609396
 20
146.243012
 11
61.609396
 21
134.243012
  0
LINE
  8
CSLAYER1
  6
DASHED
 62
     6
 10
72.609396
 20
146.243012
 11
72.609396
 21
134.243012
  0
LINE
  8
CSLAYER1
  6
CONTINUOUS
 62
     6
 10
89.966781
 20
137.243012
 11
174.252011
 21
137.243012
  0
LINE
  8
CSLAYER1
  6
CONTINUOUS
 62
     6
 10
204.139552
 20
170.434152
 11
209.189474
 21
134.243012
  0
LINE
  8
CSLAYER1
  6
CONTINUOUS
 62
     6
 10
60.088464
 20
170.415072
 11
55.049459
 21
134.243012
  0
LINE
  8
CSLAYER1
  6
CONTINUOUS
 62
     6
 10
434.773910
 20
285.243012
 11
452.773973
 21
285.243012
  0
ARC
  8
CSLAYER1
  6
CONTINUOUS
 62
     6
 10
452.773973
 20
282.243012
 40
3.000000
 50
0.000000
 51
90.000000
  0
LINE
  8
CSLAYER1
  6
CENTER
 62
     3
 10
641.112016
 20
434.742831
 11
240.774003
 21
434.742831
  0
LINE
  8
CSLAYER1
  6
CENTER
 62
     3
 10
278.773973
 20
403.349627
 11
278.773973
 21
380.742815
  0
ARC
  8
CSLAYER1
  6
CONTINUOUS
 62
     3
 10
358.773892
 20
411.242831
 40
2.000000
 50
180.000000
 51
270.000000
  0
LINE
  8
CSLAYER1
  6
CONTINUOUS
 62
     3
 10
358.773892
 20
409.242831
 11
386.773892
 21
409.242831
  0
ARC
  8
CSLAYER1
  6
CONTINUOUS
 62
     3
 10
386.773892
 20
411.242831
 40
2.000000
 50
270.000000
 51
360.000000
  0
LINE
  8
CSLAYER1
  6
CONTINUOUS
 62
     3
 10
388.773892
 20
411.242831
 11
388.773892
 21
458.242831
  0
ARC
  8
CSLAYER1
  6
CONTINUOUS
 62
     3
 10
386.773892
 20
458.242831
 40
2.000000
 50
0.000000
 51
90.000000
  0
LINE
  8
CSLAYER1
  6
CONTINUOUS
 62
     3
 10
386.773892
 20
460.242831
 11
358.773892
 21
460.242831
  0
ARC
  8
CSLAYER1
  6
CONTINUOUS
 62
     3
 10
358.773892
 20
458.242831
 40
2.000000
 50
90.000000
 51
180.000000
  0
LINE
  8
CSLAYER1
  6
CONTINUOUS
 62
     3
 10
356.773892
 20
458.242831
 11
356.773892
 21
411.242831
  0
LINE
  8
CSLAYER1
  6
CENTER
 62
     3
 10
421.474023
 20
388.780795
 11
464.774023
 21
388.780795
  0
LINE
  8
CSLAYER1
  6
CENTER
 62
     3
 10
464.773973
 20
480.704806
 11
421.697475
 21
480.704806
  0
LINE
  8
CSLAYER1
  6
CENTER
 62
     3
 10
278.773973
 20
488.742815
 11
278.773973
 21
466.136004
  0
TEXT
  8
CSLAYER1
 62
     3
 10
370.830627
 20
439.992828
 40
3.500000
 41
1.125000
  1
N P
 50
-90.000000
 51
10.000000
  7
FX_FONT
 72
     5
 11
370.830627
 21
429.492828
  0
LINE
  8
CSLAYER1
  6
CONTINUOUS
 62
     6
 10
447.773973
 20
354.742831
 11
447.773973
 21
514.742831
  0
LINE
  8
CSLAYER1
  6
CONTINUOUS
 62
     6
 10
455.773973
 20
511.756247
 11
455.773973
 21
357.874789
  0
LINE
  8
CSLAYER1
  6
CONTINUOUS
 62
     6
 10
434.773973
 20
354.742831
 11
434.773973
 21
514.742831
  0
LINE
  8
CSLAYER1
  6
CONTINUOUS
 62
     6
 10
434.774023
 20
473.004806
 11
432.774023
 21
473.004806
  0
LINE
  8
CSLAYER1
  6
CONTINUOUS
 62
     6
 10
432.774023
 20
473.004806
 11
432.774023
 21
488.404806
  0
LINE
  8
CSLAYER1
  6
CONTINUOUS
 62
     6
 10
432.774023
 20
488.404806
 11
434.774023
 21
488.404806
  0
LINE
  8
CSLAYER1
  6
CONTINUOUS
 62
     6
 10
432.774023
 20
487.204806
 11
427.474023
 21
487.204806
  0
LINE
  8
CSLAYER1
  6
CONTINUOUS
 62
     6
 10
427.474023
 20
487.204806
 11
427.474023
 21
474.204806
  0
LINE
  8
CSLAYER1
  6
CONTINUOUS
 62
     6
 10
427.474023
 20
474.204806
 11
432.774023
 21
474.204806
  0
ARC
  8
CSLAYER1
  6
CONTINUOUS
 62
     6
 10
438.229577
 20
477.454806
 40
10.755553
 50
162.412046
 51
197.587954
  0
ARC
  8
CSLAYER1
  6
CONTINUOUS
 62
     6
 10
438.229577
 20
483.954806
 40
10.755553
 50
162.412046
 51
197.587954
  0
LINE
  8
CSLAYER1
  6
CONTINUOUS
 62
     6
 10
427.976800
 20
480.704806
 11
432.774023
 21
480.704806
  0
LINE
  8
CSLAYER1
  6
CONTINUOUS
 62
     6
 10
432.774023
 20
481.320806
 11
434.774023
 21
481.936806
  0
LINE
  8
CSLAYER1
  6
CONTINUOUS
 62
     6
 10
434.774023
 20
480.088806
 11
432.774023
 21
479.472806
  0
LINE
  8
CSLAYER1
  6
CONTINUOUS
 62
     6
 10
427.473988
 20
479.742831
 11
299.773973
 21
479.742831
  0
LINE
  8
CSLAYER1
  6
CONTINUOUS
 62
     6
 10
299.773973
 20
479.742831
 11
299.773973
 21
389.742831
  0
LINE
  8
CSLAYER1
  6
CONTINUOUS
 62
     6
 10
299.773973
 20
389.742831
 11
427.474023
 21
389.742831
  0
ARC
  8
CSLAYER1
  6
CONTINUOUS
 62
     6
 10
438.229577
 20
392.030795
 40
10.755553
 50
162.412046
 51
197.587954
  0
LINE
  8
CSLAYER1
  6
CONTINUOUS
 62
     6
 10
427.474023
 20
395.280795
 11
432.774023
 21
395.280795
  0
LINE
  8
CSLAYER1
  6
CONTINUOUS
 62
     6
 10
432.774023
 20
396.480795
 11
432.774023
 21
381.080795
  0
LINE
  8
CSLAYER1
  6
CONTINUOUS
 62
     6
 10
432.774023
 20
381.080795
 11
434.774023
 21
381.080795
  0
LINE
  8
CSLAYER1
  6
CONTINUOUS
 62
     6
 10
432.774023
 20
382.280795
 11
427.474023
 21
382.280795
  0
LINE
  8
CSLAYER1
  6
CONTINUOUS
 62
     6
 10
427.474023
 20
382.280795
 11
427.474023
 21
395.280795
  0
LINE
  8
CSLAYER1
  6
CONTINUOUS
 62
     6
 10
432.774023
 20
396.480795
 11
434.774023
 21
396.480795
  0
LINE
  8
CSLAYER1
  6
CONTINUOUS
 62
     6
 10
434.774023
 20
390.012795
 11
432.774023
 21
389.396795
  0
LINE
  8
CSLAYER1
  6
CONTINUOUS
 62
     6
 10
432.774023
 20
388.780795
 11
427.976800
 21
388.780795
  0
ARC
  8
CSLAYER1
  6
CONTINUOUS
 62
     6
 10
438.229577
 20
385.530795
 40
10.755553
 50
162.412046
 51
197.587954
  0
LINE
  8
CSLAYER1
  6
CONTINUOUS
 62
     6
 10
432.774023
 20
387.548795
 11
434.774023
 21
388.164795
  0
LINE
  8
CSLAYER1
  6
CONTINUOUS
 62
     6
 10
299.773973
 20
390.742815
 11
298.298936
 21
390.742815
  0
LINE
  8
CSLAYER1
  6
CONTINUOUS
 62
     6
 10
297.868089
 20
390.638262
 11
298.565721
 21
397.275774
  0
ARC
  8
CSLAYER1
  6
CONTINUOUS
 62
     6
 10
299.560228
 20
397.171221
 40
1.000000
 50
90.000009
 51
173.999984
  0
ARC
  8
CSLAYER1
  6
CONTINUOUS
 62
     6
 10
299.510606
 20
392.698992
 40
1.000000
 50
90.000009
 51
173.999984
  0
LINE
  8
CSLAYER1
  6
CONTINUOUS
 62
     6
 10
298.516038
 20
392.803545
 11
297.868089
 21
386.638262
  0
ARC
  8
CSLAYER1
  6
CONTINUOUS
 62
     6
 10
296.873521
 20
386.742815
 40
1.000000
 50
270.000001
 51
354.000017
  0
LINE
  8
CSLAYER1
  6
CONTINUOUS
 62
     6
 10
296.873521
 20
385.742815
 11
260.674364
 21
385.742815
  0
ARC
  8
CSLAYER1
  6
CONTINUOUS
 62
     6
 10
260.674364
 20
386.742815
 40
1.000000
 50
186.000012
 51
270.000001
  0
LINE
  8
CSLAYER1
  6
CONTINUOUS
 62
     6
 10
259.679857
 20
386.638262
 11
259.031847
 21
392.803545
  0
ARC
  8
CSLAYER1
  6
CONTINUOUS
 62
     6
 10
258.037340
 20
392.698992
 40
1.000000
 50
6.000021
 51
90.000009
  0
LINE
  8
CSLAYER1
  6
CONTINUOUS
 62
     6
 10
259.248399
 20
390.742815
 11
247.773942
 21
390.742815
  0
LINE
  8
CSLAYER1
  6
CONTINUOUS
 62
     6
 10
247.773942
 20
390.742815
 11
246.773942
 21
391.742815
  0
LINE
  8
CSLAYER1
  6
CONTINUOUS
 62
     6
 10
246.773973
 20
391.742831
 11
246.773973
 21
477.742831
  0
LINE
  8
CSLAYER1
  6
CONTINUOUS
 62
     6
 10
246.773973
 20
477.742831
 11
247.773973
 21
478.742831
  0
LINE
  8
CSLAYER1
  6
CONTINUOUS
 62
     6
 10
247.773973
 20
478.742831
 11
247.773973
 21
390.742831
  0
LINE
  8
CSLAYER1
  6
CONTINUOUS
 62
     6
 10
247.773973
 20
390.742831
 11
246.773973
 21
391.742831
  0
ARC
  8
CSLAYER1
  6
CONTINUOUS
 62
     6
 10
257.987657
 20
397.171221
 40
1.000000
 50
6.000021
 51
90.000009
  0
LINE
  8
CSLAYER1
  6
CONTINUOUS
 62
     6
 10
258.982225
 20
397.275774
 11
259.679857
 21
390.638262
  0
ARC
  8
CSLAYER1
  6
CONTINUOUS
 62
     6
 10
260.674364
 20
390.742815
 40
1.000000
 50
186.000012
 51
270.000001
  0
LINE
  8
CSLAYER1
  6
CONTINUOUS
 62
     6
 10
260.674364
 20
389.742815
 11
296.873521
 21
389.742815
  0
ARC
  8
CSLAYER1
  6
CONTINUOUS
 62
     6
 10
296.873521
 20
390.742815
 40
1.000000
 50
270.000001
 51
354.000017
  0
LINE
  8
CSLAYER1
  6
CONTINUOUS
 62
     6
 10
294.417039
 20
398.349627
 11
262.459947
 21
398.349627
  0
LINE
  8
CSLAYER1
  6
CONTINUOUS
 62
     6
 10
262.459947
 20
471.136004
 11
294.417039
 21
471.136004
  0
ARC
  8
CSLAYER1
  6
CONTINUOUS
 62
     6
 10
299.560228
 20
472.314349
 40
1.000000
 50
186.000026
 51
270.000001
  0
LINE
  8
CSLAYER1
  6
CONTINUOUS
 62
     6
 10
298.565721
 20
472.209856
 11
297.868089
 21
478.847308
  0
ARC
  8
CSLAYER1
  6
CONTINUOUS
 62
     6
 10
296.873521
 20
478.742815
 40
1.000000
 50
6.000003
 51
90.000016
  0
LINE
  8
CSLAYER1
  6
CONTINUOUS
 62
     6
 10
296.873521
 20
479.742815
 11
260.674364
 21
479.742815
  0
ARC
  8
CSLAYER1
  6
CONTINUOUS
 62
     6
 10
260.674364
 20
478.742815
 40
1.000000
 50
90.000003
 51
173.999998
  0
LINE
  8
CSLAYER1
  6
CONTINUOUS
 62
     6
 10
259.679857
 20
478.847308
 11
258.982225
 21
472.209856
  0
ARC
  8
CSLAYER1
  6
CONTINUOUS
 62
     6
 10
257.987657
 20
472.314349
 40
1.000000
 50
270.000001
 51
353.999989
  0
ARC
  8
CSLAYER1
  6
CONTINUOUS
 62
     6
 10
258.037340
 20
476.786639
 40
1.000000
 50
270.000001
 51
353.999989
  0
LINE
  8
CSLAYER1
  6
CONTINUOUS
 62
     6
 10
259.031847
 20
476.682085
 11
259.679857
 21
482.847308
  0
ARC
  8
CSLAYER1
  6
CONTINUOUS
 62
     6
 10
260.674364
 20
482.742815
 40
1.000000
 50
90.000003
 51
173.999998
  0
LINE
  8
CSLAYER1
  6
CONTINUOUS
 62
     6
 10
260.674364
 20
483.742815
 11
296.873521
 21
483.742815
  0
ARC
  8
CSLAYER1
  6
CONTINUOUS
 62
     6
 10
296.873521
 20
482.742815
 40
1.000000
 50
6.000003
 51
90.000016
  0
LINE
  8
CSLAYER1
  6
CONTINUOUS
 62
     6
 10
297.868089
 20
482.847308
 11
298.516038
 21
476.682085
  0
ARC
  8
CSLAYER1
  6
CONTINUOUS
 62
     6
 10
299.510606
 20
476.786639
 40
1.000000
 50
186.000026
 51
270.000001
  0
LINE
  8
CSLAYER1
  6
CONTINUOUS
 62
     6
 10
299.773973
 20
478.742815
 11
298.298936
 21
478.742815
  0
LINE
  8
CSLAYER1
  6
CONTINUOUS
 62
     6
 10
259.248399
 20
478.742815
 11
247.773942
 21
478.742815
  0
LINE
  8
CSLAYER1
  6
CONTINUOUS
 62
     6
 10
247.773942
 20
478.742815
 11
246.773942
 21
477.742815
  0
LINE
  8
CSLAYER1
  6
CONTINUOUS
 62
     6
 10
434.773940
 20
514.742831
 11
452.774003
 21
514.742831
  0
ARC
  8
CSLAYER1
  6
CONTINUOUS
 62
     6
 10
452.774003
 20
511.742831
 40
3.000000
 50
0.000000
 51
90.000000
  0
LINE
  8
CSLAYER1
  6
CONTINUOUS
 62
     6
 10
434.773940
 20
354.742831
 11
452.774003
 21
354.742831
  0
ARC
  8
CSLAYER1
  6
CONTINUOUS
 62
     6
 10
452.774003
 20
357.742831
 40
3.000000
 50
270.000000
 51
360.000000
  0
LINE
  8
CSLAYER1
  6
CONTINUOUS
 62
     6
 10
520.773973
 20
503.944872
 11
520.773973
 21
365.540790
  0
LINE
  8
CSLAYER1
  6
CONTINUOUS
 62
     6
 10
593.334539
 20
459.742831
 11
593.273973
 21
459.742831
  0
ARC
  8
CSLAYER1
  6
CONTINUOUS
 62
     6
 10
593.273973
 20
457.242831
 40
2.500000
 50
0.000000
 51
88.611196
  0
ARC
  8
CSLAYER1
  6
CONTINUOUS
 62
     6
 10
593.273973
 20
412.242831
 40
2.500000
 50
-88.619404
 51
0.000010
  0
ARC
  8
CSLAYER1
  6
CONTINUOUS
 62
     6
 10
-106.219069
 20
434.747836
 40
700.000000
 50
-3.313641
 51
3.312791
  0
LINE
  8
CSLAYER1
  6
CONTINUOUS
 62
     6
 10
595.773973
 20
446.742831
 11
597.773973
 21
446.742831
  0
LINE
  8
CSLAYER1
  6
CONTINUOUS
 62
     6
 10
595.773973
 20
422.742831
 11
597.773973
 21
422.742831
  0
LINE
  8
CSLAYER1
  6
CONTINUOUS
 62
     6
 10
637.773942
 20
445.742831
 11
637.773942
 21
421.242831
  0
LINE
  8
CSLAYER1
  6
CONTINUOUS
 62
     6
 10
597.773973
 20
445.742831
 11
637.773942
 21
445.742831
  0
LINE
  8
CSLAYER1
  6
CONTINUOUS
 62
     6
 10
597.773973
 20
423.742831
 11
637.773942
 21
423.742831
  0
LINE
  8
CSLAYER1
  6
CONTINUOUS
 62
     6
 10
595.773973
 20
457.242831
 11
595.773973
 21
412.242831
  0
LINE
  8
CSLAYER1
  6
CONTINUOUS
 62
     6
 10
504.273973
 20
498.742831
 11
504.273973
 21
370.742831
  0
LINE
  8
CSLAYER1
  6
CONTINUOUS
 62
     6
 10
504.273973
 20
498.242831
 11
514.773973
 21
498.242831
  0
ARC
  8
CSLAYER1
  6
CONTINUOUS
 62
     6
 10
516.773973
 20
500.602847
 40
2.000000
 50
91.999998
 51
180.000005
  0
LINE
  8
CSLAYER1
  6
CONTINUOUS
 62
     6
 10
516.693956
 20
502.602847
 11
520.773973
 21
502.742831
  0
LINE
  8
CSLAYER1
  6
CONTINUOUS
 62
     6
 10
504.273973
 20
371.242831
 11
514.773973
 21
371.242831
  0
LINE
  8
CSLAYER1
  6
CONTINUOUS
 62
     6
 10
514.773973
 20
368.882815
 11
514.773973
 21
500.602847
  0
LINE
  8
CSLAYER1
  6
CONTINUOUS
 62
     6
 10
458.693956
 20
499.922823
 11
504.273973
 21
498.742831
  0
LINE
  8
CSLAYER1
  6
CONTINUOUS
 62
     6
 10
463.813951
 20
501.782839
 11
460.633958
 21
501.862826
  0
ARC
  8
CSLAYER1
  6
CONTINUOUS
 62
     6
 10
460.773973
 20
506.862826
 40
5.000000
 50
180.000005
 51
268.500009
  0
ARC
  8
CSLAYER1
  6
CONTINUOUS
 62
     6
 10
463.773973
 20
499.782839
 40
2.000000
 50
28.420000
 51
88.499997
  0
LINE
  8
CSLAYER1
  6
CONTINUOUS
 62
     6
 10
458.693956
 20
369.562838
 11
504.273973
 21
370.742831
  0
LINE
  8
CSLAYER1
  6
CONTINUOUS
 62
     6
 10
465.773973
 20
428.742831
 11
465.773973
 21
440.742831
  0
LINE
  8
CSLAYER1
  6
CONTINUOUS
 62
     6
 10
480.273973
 20
393.902834
 11
480.273973
 21
383.642825
  0
LINE
  8
CSLAYER1
  6
CONTINUOUS
 62
     6
 10
480.273973
 20
485.822848
 11
480.273973
 21
475.562838
  0
LINE
  8
CSLAYER1
  6
CONTINUOUS
 62
     6
 10
463.773973
 20
442.742831
 11
455.773973
 21
442.742831
  0
LINE
  8
CSLAYER1
  6
CONTINUOUS
 62
     6
 10
463.773973
 20
426.742831
 11
455.773973
 21
426.742831
  0
LINE
  8
CSLAYER1
  6
CONTINUOUS
 62
     6
 10
475.393968
 20
490.822848
 11
455.773973
 21
491.342837
  0
LINE
  8
CSLAYER1
  6
CONTINUOUS
 62
     6
 10
475.393968
 20
470.562838
 11
455.773973
 21
470.062838
  0
LINE
  8
CSLAYER1
  6
CONTINUOUS
 62
     6
 10
475.393968
 20
398.902834
 11
455.773973
 21
399.422823
  0
LINE
  8
CSLAYER1
  6
CONTINUOUS
 62
     6
 10
475.393968
 20
378.642825
 11
455.773973
 21
378.142825
  0
ARC
  8
CSLAYER1
  6
CONTINUOUS
 62
     6
 10
475.273973
 20
393.902834
 40
5.000000
 50
0.000000
 51
88.499997
  0
ARC
  8
CSLAYER1
  6
CONTINUOUS
 62
     6
 10
475.273973
 20
383.642825
 40
5.000000
 50
-88.500008
 51
0.000010
  0
ARC
  8
CSLAYER1
  6
CONTINUOUS
 62
     6
 10
475.273973
 20
485.822848
 40
5.000000
 50
0.000000
 51
88.489998
  0
ARC
  8
CSLAYER1
  6
CONTINUOUS
 62
     6
 10
475.273973
 20
475.562838
 40
5.000000
 50
-88.500008
 51
0.000010
  0
ARC
  8
CSLAYER1
  6
CONTINUOUS
 62
     6
 10
463.773973
 20
440.742831
 40
2.000000
 50
0.000000
 51
90.000003
  0
ARC
  8
CSLAYER1
  6
CONTINUOUS
 62
     6
 10
463.773973
 20
428.742831
 40
2.000000
 50
-89.999999
 51
0.000010
  0
ARC
  8
CSLAYER1
  6
CONTINUOUS
 62
     6
 10
458.773973
 20
502.922823
 40
3.000000
 50
180.000005
 51
268.500009
  0
ARC
  8
CSLAYER1
  6
CONTINUOUS
 62
     6
 10
467.293962
 20
501.702822
 40
2.000000
 50
208.419999
 51
268.500009
  0
LINE
  8
CSLAYER1
  6
CENTER
 62
     3
 10
582.773973
 20
508.242831
 11
582.773973
 21
491.242831
  0
LINE
  8
CSLAYER1
  6
CENTER
 62
     3
 10
517.773973
 20
508.242831
 11
517.773973
 21
491.242831
  0
ARC
  8
CSLAYER1
  6
CONTINUOUS
 62
     6
 10
458.768571
 20
366.562838
 40
3.000000
 50
91.489995
 51
176.560185
  0
LINE
  8
CSLAYER1
  6
CONTINUOUS
 62
     6
 10
463.813951
 20
367.682833
 11
460.633958
 21
367.602847
  0
ARC
  8
CSLAYER1
  6
CONTINUOUS
 62
     6
 10
460.773973
 20
362.602847
 40
5.000000
 50
91.489995
 51
124.106163
  0
ARC
  8
CSLAYER1
  6
CONTINUOUS
 62
     6
 10
463.773973
 20
369.682833
 40
2.000000
 50
271.489993
 51
331.570003
  0
ARC
  8
CSLAYER1
  6
CONTINUOUS
 62
     6
 10
467.293962
 20
367.782839
 40
2.000000
 50
91.489995
 51
151.570012
  0
LINE
  8
CSLAYER1
  6
CONTINUOUS
 62
     6
 10
597.773942
 20
446.742831
 11
597.773942
 21
422.742831
  0
LINE
  8
CSLAYER1
  6
DASHED
 62
     6
 10
637.773942
 20
427.242831
 11
602.773942
 21
427.242831
  0
LINE
  8
CSLAYER1
  6
CONTINUOUS
 62
     6
 10
637.773942
 20
421.242831
 11
602.773942
 21
421.242831
  0
LINE
  8
CSLAYER1
  6
CONTINUOUS
 62
     6
 10
602.773942
 20
421.242831
 11
602.773942
 21
423.742831
  0
LINE
  8
CSLAYER1
  6
DASHED
 62
     6
 10
602.773942
 20
423.742831
 11
602.773942
 21
427.242831
  0
LINE
  8
CSLAYER1
  6
CONTINUOUS
 62
     6
 10
595.273973
 20
476.742831
 11
595.273973
 21
503.802767
  0
LINE
  8
CSLAYER1
  6
CONTINUOUS
 62
     6
 10
505.273973
 20
498.242831
 11
505.273973
 21
503.802767
  0
LINE
  8
CSLAYER1
  6
CONTINUOUS
 62
     6
 10
587.273973
 20
511.802767
 11
513.273973
 21
511.802767
  0
LINE
  8
CSLAYER1
  6
CENTER
 62
     3
 10
591.273973
 20
499.742831
 11
574.273973
 21
499.742831
  0
CIRCLE
  8
CSLAYER1
  6
CONTINUOUS
 62
     6
 10
582.773973
 20
499.742831
 40
5.500000
  0
ARC
  8
CSLAYER1
  6
CONTINUOUS
 62
     6
 10
517.773973
 20
499.742831
 40
5.500000
 50
56.482063
 51
195.826620
  0
ARC
  8
CSLAYER1
  6
CONTINUOUS
 62
     6
 10
460.773973
 20
362.622836
 40
5.000000
 50
91.499991
 51
179.999995
  0
CIRCLE
  8
CSLAYER1
  6
CONTINUOUS
 62
     6
 10
582.773973
 20
369.742831
 40
5.500000
  0
ARC
  8
CSLAYER1
  6
CONTINUOUS
 62
     6
 10
517.773973
 20
369.742831
 40
5.500000
 50
164.173380
 51
303.517937
  0
LINE
  8
CSLAYER1
  6
CENTER
 62
     3
 10
526.273973
 20
499.742831
 11
509.273973
 21
499.742831
  0
LINE
  8
CSLAYER1
  6
CENTER
 62
     3
 10
582.773973
 20
361.242831
 11
582.773973
 21
378.242831
  0
LINE
  8
CSLAYER1
  6
CENTER
 62
     3
 10
517.773973
 20
361.242831
 11
517.773973
 21
378.242831
  0
LINE
  8
CSLAYER1
  6
CENTER
 62
     3
 10
591.273973
 20
369.742831
 11
574.273973
 21
369.742831
  0
LINE
  8
CSLAYER1
  6
CENTER
 62
     3
 10
526.273973
 20
369.742831
 11
509.273973
 21
369.742831
  0
ARC
  8
CSLAYER1
  6
CONTINUOUS
 62
     6
 10
516.773973
 20
368.882815
 40
2.000000
 50
179.999995
 51
268.000002
  0
LINE
  8
CSLAYER1
  6
CONTINUOUS
 62
     6
 10
516.693956
 20
366.882815
 11
520.773973
 21
366.742831
  0
LINE
  8
CSLAYER1
  6
CONTINUOUS
 62
     6
 10
560.130748
 20
375.272490
 11
578.591031
 21
378.527536
  0
LINE
  8
CSLAYER1
  6
CONTINUOUS
 62
     6
 10
595.273973
 20
392.742831
 11
595.273973
 21
365.682894
  0
LINE
  8
CSLAYER1
  6
CONTINUOUS
 62
     6
 10
505.273973
 20
371.242831
 11
505.273973
 21
365.682894
  0
LINE
  8
CSLAYER1
  6
CONTINUOUS
 62
     6
 10
587.273973
 20
357.682894
 11
513.273973
 21
357.682894
  0
ARC
  8
CSLAYER1
  6
CONTINUOUS
 62
     6
 10
587.273973
 20
503.802767
 40
8.000000
 50
0.000000
 51
90.000000
  0
ARC
  8
CSLAYER1
  6
CONTINUOUS
 62
     6
 10
513.273973
 20
503.802767
 40
8.000000
 50
90.000000
 51
180.000000
  0
ARC
  8
CSLAYER1
  6
CONTINUOUS
 62
     6
 10
587.273973
 20
476.742831
 40
8.000000
 50
314.103896
 51
360.000000
  0
ARC
  8
CSLAYER1
  6
CONTINUOUS
 62
     6
 10
587.273973
 20
365.682894
 40
8.000000
 50
270.000000
 51
360.000000
  0
ARC
  8
CSLAYER1
  6
CONTINUOUS
 62
     6
 10
513.273973
 20
365.682894
 40
8.000000
 50
180.000000
 51
270.000000
  0
ARC
  8
CSLAYER1
  6
CONTINUOUS
 62
     6
 10
520.773973
 20
355.742831
 40
8.000000
 50
29.505555
 51
78.463041
  0
ARC
  8
CSLAYER1
  6
CONTINUOUS
 62
     6
 10
522.773973
 20
365.540790
 40
2.000000
 50
180.000000
 51
258.463041
  0
ARC
  8
CSLAYER1
  6
CONTINUOUS
 62
     6
 10
520.773973
 20
513.742831
 40
8.000000
 50
281.536959
 51
330.494445
  0
ARC
  8
CSLAYER1
  6
CONTINUOUS
 62
     6
 10
522.773973
 20
503.944872
 40
2.000000
 50
101.536959
 51
180.000000
  0
ARC
  8
CSLAYER1
  6
CONTINUOUS
 62
     6
 10
575.639012
 20
395.269268
 40
17.000000
 50
280.000000
 51
356.686359
  0
ARC
  8
CSLAYER1
  6
CONTINUOUS
 62
     6
 10
444.769574
 20
434.742831
 40
135.344396
 50
-16.328424
 51
16.328424
  0
ARC
  8
CSLAYER1
  6
CONTINUOUS
 62
     6
 10
573.435010
 20
375.844052
 40
13.316534
 50
117.728123
 51
252.625618
  0
ARC
  8
CSLAYER1
  6
CONTINUOUS
 62
     6
 10
560.259991
 20
400.908867
 40
15.000000
 50
297.728123
 51
343.671576
  0
ARC
  8
CSLAYER1
  6
CONTINUOUS
 62
     6
 10
575.639597
 20
474.216290
 40
17.000000
 50
3.312791
 51
80.000000
  0
ARC
  8
CSLAYER1
  6
CONTINUOUS
 62
     6
 10
560.259991
 20
468.576795
 40
15.000000
 50
16.328424
 51
62.271877
  0
ARC
  8
CSLAYER1
  6
CONTINUOUS
 62
     6
 10
573.435010
 20
493.641609
 40
13.316534
 50
107.374382
 51
242.271877
  0
LINE
  8
CSLAYER1
  6
CONTINUOUS
 62
     6
 10
560.130748
 20
494.213171
 11
578.591031
 21
490.958125
  0
LINE
  8
CSLAYER1
  6
CONTINUOUS
 62
     6
 10
571.406713
 20
365.135099
 11
571.406713
 21
373.135099
  0
LINE
  8
CSLAYER1
  6
CONTINUOUS
 62
     6
 10
571.406713
 20
504.350562
 11
571.406713
 21
496.350562
  0
ARC
  8
CSLAYER1
  6
CONTINUOUS
 62
     6
 10
587.273973
 20
392.742831
 40
8.000000
 50
0.000000
 51
45.896104
  0
LINE
  8
CSLAYER1
  6
CONTINUOUS
 62
     3
 10
388.773892
 20
250.243012
 11
388.773892
 21
243.648746
  0
ARC
  8
CSLAYER1
  6
CONTINUOUS
 62
     3
 10
386.773892
 20
243.648746
 40
2.000000
 50
270.000001
 51
359.942691
  0
LINE
  8
CSLAYER1
  6
CONTINUOUS
 62
     3
 10
386.773892
 20
241.648746
 11
358.773892
 21
241.648776
  0
ARC
  8
CSLAYER1
  6
CONTINUOUS
 62
     3
 10
358.773892
 20
243.648776
 40
2.000000
 50
180.000005
 51
270.000001
  0
LINE
  8
CSLAYER1
  6
CONTINUOUS
 62
     3
 10
356.773892
 20
243.648776
 11
356.773892
 21
250.243012
  0
ENDSEC
  0
EOF
